  0
SECTION
  2
HEADER
  9
$EXTMIN
 10
-210.0
 20
-148.5
  9
$EXTMAX
 10
210.0
 20
148.5
  9
$PDMODE
 70
    32
  9
$PDSIZE
 40
1.5
  9
$LTSCALE
 40
10.0
  0
ENDSEC
  0
SECTION
  2
TABLES
  0
TABLE
  2
LTYPE
 70
    15
  0
LTYPE
  2
CONTINUOUS
 70
    64
  3
実線
 72
    65
 73
     0
 40
0.0
  0
LTYPE
  2
DASHED
 70
    64
  3
破線A
 72
    65
 73
     2
 40
0.6
 49
0.4
 49
-0.2
  0
LTYPE
  2
DASHEDX2
 70
    64
  3
破線B
 72
    65
 73
     2
 40
1.3
 49
0.9
 49
-0.4
  0
LTYPE
  2
DASHDOT
 70
    64
  3
１点鎖線A
 72
    65
 73
     4
 40
0.5375
 49
0.375
 49
-0.05
 49
0.0625
 49
-0.05
  0
LTYPE
  2
DASHDOTX2
 70
    64
  3
１点鎖線B
 72
    65
 73
     4
 40
1.075
 49
0.75
 49
-0.1
 49
0.125
 49
-0.1
  0
LTYPE
  2
DIVIDE2
 70
    64
  3
２点鎖線A
 72
    65
 73
     6
 40
0.5125
 49
0.3
 49
-0.0375
 49
0.05
 49
-0.0375
 49
0.05
 49
-0.0375
  0
LTYPE
  2
DIVIDE
 70
    64
  3
２点鎖線B
 72
    65
 73
     6
 40
1.05
 49
0.55
 49
-0.1
 49
0.1
 49
-0.1
 49
0.1
 49
-0.1
  0
LTYPE
  2
DOT
 70
    64
  3
点線A
 72
    65
 73
     2
 40
0.1125
 49
0.0625
 49
-0.05
  0
LTYPE
  2
DOTX2
 70
    64
  3
点線B
 72
    65
 73
     2
 40
0.275
 49
0.15
 49
-0.125
  0
LTYPE
  2
CONTINUOUS
 70
    64
  3
実線
 72
    65
 73
     0
 40
0.0
  0
LTYPE
  2
CONTINUOUS
 70
    64
  3
実線
 72
    65
 73
     0
 40
0.0
  0
LTYPE
  2
CONTINUOUS
 70
    64
  3
実線
 72
    65
 73
     0
 40
0.0
  0
LTYPE
  2
CONTINUOUS
 70
    64
  3
実線
 72
    65
 73
     0
 40
0.0
  0
LTYPE
  2
CONTINUOUS
 70
    64
  3
実線
 72
    65
 73
     0
 40
0.0
  0
LTYPE
  2
CONTINUOUS
 70
    64
  3
実線
 72
    65
 73
     0
 40
0.0
  0
ENDTAB
  0
TABLE
  2
LAYER
 70
    34
  0
LAYER
  2
通り芯
 70
     0
 62
    15
  6
CONTINUOUS
  0
LAYER
  2
補助線
 70
     0
 62
    16
  6
DOT
  0
LAYER
  2
躯体
 70
     0
 62
    31
  6
CONTINUOUS
  0
LAYER
  2
型材
 70
     0
 62
    32
  6
CONTINUOUS
  0
LAYER
  2
型材断面
 70
     0
 62
    47
  6
CONTINUOUS
  0
LAYER
  2
ガラス
 70
     0
 62
    48
  6
CONTINUOUS
  0
LAYER
  2
ゴム等
 70
     0
 62
    63
  6
CONTINUOUS
  0
LAYER
  2
ボルト／ビス
 70
     0
 62
    64
  6
CONTINUOUS
  0
LAYER
  2
文字
 70
     0
 62
    79
  6
CONTINUOUS
  0
LAYER
  2
寸法
 70
     0
 62
    80
  6
CONTINUOUS
  0
LAYER
  2
ﾊｯﾁﾝｸﾞ
 70
     0
 62
    95
  6
CONTINUOUS
  0
LAYER
  2
別途部材
 70
     0
 62
    96
  6
CONTINUOUS
  0
LAYER
  2
曲げ物
 70
     0
 62
   111
  6
CONTINUOUS
  0
LAYER
  2
鉄骨等
 70
     0
 62
   112
  6
CONTINUOUS
  0
LAYER
  2
St
 70
     0
 62
   127
  6
CONTINUOUS
  0
LAYER
  2
その他部品等
 70
     0
 62
   128
  6
CONTINUOUS
  0
LAYER
  2
ｶﾞｽｹｯﾄ
 70
     0
 62
   143
  6
CONTINUOUS
  0
LAYER
  2
ｽｹｯﾁ
 70
     0
 62
    14
  6
CONTINUOUS
  0
LAYER
  2
0
 70
     0
 62
    17
  6
CONTINUOUS
  0
LAYER
  2
1
 70
     0
 62
    30
  6
CONTINUOUS
  0
LAYER
  2
4
 70
     0
 62
    33
  6
CONTINUOUS
  0
LAYER
  2
ﾚｲﾔ3
 70
     0
 62
    46
  6
CONTINUOUS
  0
LAYER
  2
外形線
 70
     0
 62
    49
  6
CONTINUOUS
  0
LAYER
  2
部品
 70
     0
 62
    14
  6
CONTINUOUS
  0
LAYER
  2
サッシ芯
 70
     0
 62
    17
  6
DASHDOTX2
  0
LAYER
  2
寸法線
 70
     0
 62
    62
  6
CONTINUOUS
  0
LAYER
  2
姿図外形線
 70
     0
 62
    65
  6
CONTINUOUS
  0
LAYER
  2
姿補助線
 70
     0
 62
    30
  6
CONTINUOUS
  0
LAYER
  2
透視線
 70
     0
 62
    78
  6
DOT
  0
LAYER
  2
用紙
 70
     0
 62
    81
  6
CONTINUOUS
  0
LAYER
  2
実線図枠
 70
     0
 62
    94
  6
CONTINUOUS
  0
LAYER
  2
補助図枠
 70
     0
 62
    97
  6
CONTINUOUS
  0
LAYER
  2
建具記号
 70
     0
 62
   110
  6
CONTINUOUS
  0
LAYER
  2
補助文字
 70
     0
 62
   113
  6
CONTINUOUS
  0
ENDTAB
  0
TABLE
  2
STYLE
 70
    10
  0
STYLE
  2
STANDARD
 70
     0
 40
1.0
 41
1.0
 42
1.0
 50
0.0
 71
     0
  3
TXT
  4
BIGFONT
  0
STYLE
  2
TATE
 70
     4
 40
1.0
 41
1.0
 42
1.0
 50
0.0
 71
     0
  3
TXT
  4
BIGFONT
  0
STYLE
  2
TextStyle03
 70
     0
 40
1.0
 41
1.0
 42
1.0
 50
0.0
 71
     0
  3
MONOTXT
  4
BIGFONT
  0
STYLE
  2
TextStyle04
 70
     0
 40
1.0
 41
1.0
 42
1.0
 50
0.0
 71
     0
  3
MONOTXT
  4
BIGFONT
  0
STYLE
  2
TextStyle05
 70
     0
 40
1.0
 41
1.0
 42
1.0
 50
0.0
 71
     0
  3
MONOTXT
  4
BIGFONT
  0
STYLE
  2
TextStyle06
 70
     0
 40
1.0
 41
1.0
 42
1.0
 50
0.0
 71
     0
  3
MONOTXT
  4
BIGFONT
  0
STYLE
  2
TextStyle07
 70
     0
 40
1.0
 41
1.0
 42
1.0
 50
0.0
 71
     0
  3
MONOTXT
  4
BIGFONT
  0
STYLE
  2
TextStyle08
 70
     0
 40
1.0
 41
1.0
 42
1.0
 50
0.0
 71
     0
  3
MONOTXT
  4
BIGFONT
  0
STYLE
  2
TextStyle09
 70
     0
 40
1.0
 41
1.0
 42
1.0
 50
0.0
 71
     0
  3
MONOTXT
  4
BIGFONT
  0
STYLE
  2
TextStyle10
 70
     0
 40
1.0
 41
1.0
 42
1.0
 50
0.0
 71
     0
  3
MONOTXT
  4
BIGFONT
  0
ENDTAB
  0
ENDSEC
  0
SECTION
  2
BLOCKS
  0
BLOCK
  2
*GRP_0001
 70
    65
 10
0.0
 20
0.0
  0
LINE
  8
型材断面
  6
CONTINUOUS
 10
195.0
 20
133.5
 11
195.0
 21
-133.5
  0
LINE
  8
型材断面
  6
CONTINUOUS
 10
195.0
 20
-133.5
 11
-185.0
 21
-133.5
  0
LINE
  8
型材断面
  6
CONTINUOUS
 10
-185.0
 20
-133.5
 11
-185.0
 21
133.5
  0
LINE
  8
型材断面
  6
CONTINUOUS
 10
195.0
 20
133.5
 11
-185.0
 21
133.5
  0
LINE
  8
型材断面
  6
CONTINUOUS
 10
145.0
 20
-133.5
 11
145.0
 21
-118.5
  0
LINE
  8
型材断面
  6
CONTINUOUS
 10
195.0
 20
-118.5
 11
145.0
 21
-118.5
  0
ENDBLK
  0
BLOCK
  2
*DIM_0002
 70
    65
 10
0.0
 20
0.0
  0
LINE
  8
寸法
  6
BYBLOCK
 62
     0
 10
-58.676228
 20
19.183902
 11
-58.676228
 21
14.132895
  0
LINE
  8
寸法
  6
BYBLOCK
 62
     0
 10
41.323768
 20
19.183902
 11
41.323768
 21
14.132895
  0
LINE
  8
寸法
  6
BYBLOCK
 62
     0
 10
-58.676228
 20
14.132895
 11
41.323768
 21
14.132895
  0
POINT
  8
寸法
 62
     0
 10
-58.676228
 20
14.132895
  0
POINT
  8
寸法
 62
     0
 10
41.323768
 20
14.132895
  0
TEXT
  7
TextStyle03
  8
寸法
  6
CONTINUOUS
 62
     0
 10
-11.98125
 20
14.5
  1
3000
 40
3.0
 72
     5
 11
-5.41875
 21
14.5
  0
ENDBLK
  0
BLOCK
  2
*DIM_0003
 70
    65
 10
0.0
 20
0.0
  0
LINE
  8
寸法
  6
BYBLOCK
 62
     0
 10
58.990438
 20
52.814035
 11
68.71472
 21
52.814035
  0
LINE
  8
寸法
  6
BYBLOCK
 62
     0
 10
61.620567
 20
49.114035
 11
68.71472
 21
49.114035
  0
LINE
  8
寸法
  6
BYBLOCK
 62
     0
 10
68.71472
 20
52.814035
 11
68.71472
 21
49.114035
  0
POINT
  8
寸法
 62
     0
 10
68.71472
 20
52.814035
  0
POINT
  8
寸法
 62
     0
 10
68.71472
 20
49.114035
  0
TEXT
  7
TextStyle03
  8
寸法
  6
CONTINUOUS
 62
     0
 10
68.375
 20
53.8125
  1
111
 40
3.0
 50
90.0
 72
     5
 11
68.375
 21
58.6875
  0
ENDBLK
  0
BLOCK
  2
*DIM_0004
 70
    65
 10
0.0
 20
0.0
  0
LINE
  8
寸法
  6
BYBLOCK
 62
     0
 10
58.990438
 20
22.81403
 11
68.71472
 21
22.814027
  0
LINE
  8
寸法
  6
BYBLOCK
 62
     0
 10
61.620567
 20
26.51403
 11
68.71472
 21
26.514027
  0
LINE
  8
寸法
  6
BYBLOCK
 62
     0
 10
68.71472
 20
22.814027
 11
68.71472
 21
26.514027
  0
POINT
  8
寸法
 62
     0
 10
68.71472
 20
22.814027
  0
POINT
  8
寸法
 62
     0
 10
68.71472
 20
26.514027
  0
TEXT
  7
TextStyle03
  8
寸法
  6
CONTINUOUS
 62
     0
 10
68.375
 20
16.9375
  1
111
 40
3.0
 50
90.0
 72
     5
 11
68.375
 21
21.8125
  0
ENDBLK
  0
BLOCK
  2
*DIM_0005
 70
    65
 10
0.0
 20
0.0
  0
LINE
  8
寸法
  6
BYBLOCK
 62
     0
 10
-78.342895
 20
47.814033
 11
-91.635732
 21
47.814033
  0
LINE
  8
寸法
  6
BYBLOCK
 62
     0
 10
-78.342895
 20
27.814033
 11
-91.635732
 21
27.814033
  0
LINE
  8
寸法
  6
BYBLOCK
 62
     0
 10
-91.635732
 20
47.814033
 11
-91.635732
 21
27.814033
  0
POINT
  8
寸法
 62
     0
 10
-91.635732
 20
47.814033
  0
POINT
  8
寸法
 62
     0
 10
-91.635732
 20
27.814033
  0
TEXT
  7
TextStyle03
  8
寸法
  6
CONTINUOUS
 62
     0
 10
-92.025
 20
35.3625
  1
600
 40
3.0
 50
90.0
 72
     5
 11
-92.025
 21
40.2375
  0
ENDBLK
  0
BLOCK
  2
*DIM_0006
 70
    65
 10
0.0
 20
0.0
  0
LINE
  8
寸法
  6
BYBLOCK
 62
     0
 10
-67.009562
 20
55.814033
 11
-67.009562
 21
84.922105
  0
LINE
  8
寸法
  6
BYBLOCK
 62
     0
 10
-43.67623
 20
55.814033
 11
-43.67623
 21
84.922105
  0
LINE
  8
寸法
  6
BYBLOCK
 62
     0
 10
-67.009562
 20
84.922105
 11
-43.67623
 21
84.922105
  0
POINT
  8
寸法
 62
     0
 10
-67.009562
 20
84.922105
  0
POINT
  8
寸法
 62
     0
 10
-43.67623
 20
84.922105
  0
TEXT
  7
TextStyle03
  8
寸法
  6
CONTINUOUS
 62
     0
 10
-57.7875
 20
85.275
  1
700
 40
3.0
 72
     5
 11
-52.9125
 21
85.275
  0
ENDBLK
  0
BLOCK
  2
*DIM_0007
 70
    65
 10
0.0
 20
0.0
  0
LINE
  8
寸法
  6
BYBLOCK
 62
     0
 10
-20.342897
 20
55.814033
 11
-20.342897
 21
84.922105
  0
LINE
  8
寸法
  6
BYBLOCK
 62
     0
 10
-43.67623
 20
84.922105
 11
-20.342897
 21
84.922105
  0
POINT
  8
寸法
 62
     0
 10
-20.342897
 20
84.922105
  0
TEXT
  7
TextStyle03
  8
寸法
  6
CONTINUOUS
 62
     0
 10
-34.4625
 20
85.275
  1
700
 40
3.0
 72
     5
 11
-29.5875
 21
85.275
  0
ENDBLK
  0
BLOCK
  2
*DIM_0008
 70
    65
 10
0.0
 20
0.0
  0
LINE
  8
寸法
  6
BYBLOCK
 62
     0
 10
2.990438
 20
55.814033
 11
2.990438
 21
84.922105
  0
LINE
  8
寸法
  6
BYBLOCK
 62
     0
 10
-20.342897
 20
84.922105
 11
2.990438
 21
84.922105
  0
POINT
  8
寸法
 62
     0
 10
2.990438
 20
84.922105
  0
TEXT
  7
TextStyle03
  8
寸法
  6
CONTINUOUS
 62
     0
 10
-11.1375
 20
85.275
  1
700
 40
3.0
 72
     5
 11
-6.2625
 21
85.275
  0
ENDBLK
  0
BLOCK
  2
*DIM_0009
 70
    65
 10
0.0
 20
0.0
  0
LINE
  8
寸法
  6
BYBLOCK
 62
     0
 10
26.32377
 20
55.814033
 11
26.32377
 21
84.922105
  0
LINE
  8
寸法
  6
BYBLOCK
 62
     0
 10
2.990438
 20
84.922105
 11
26.32377
 21
84.922105
  0
POINT
  8
寸法
 62
     0
 10
26.32377
 20
84.922105
  0
TEXT
  7
TextStyle03
  8
寸法
  6
CONTINUOUS
 62
     0
 10
12.2125
 20
85.275
  1
700
 40
3.0
 72
     5
 11
17.0875
 21
85.275
  0
ENDBLK
  0
BLOCK
  2
*DIM_0010
 70
    65
 10
0.0
 20
0.0
  0
LINE
  8
寸法
  6
BYBLOCK
 62
     0
 10
49.657102
 20
55.814033
 11
49.657102
 21
84.922105
  0
LINE
  8
寸法
  6
BYBLOCK
 62
     0
 10
26.32377
 20
84.922105
 11
49.657102
 21
84.922105
  0
POINT
  8
寸法
 62
     0
 10
49.657102
 20
84.922105
  0
TEXT
  7
TextStyle03
  8
寸法
  6
CONTINUOUS
 62
     0
 10
35.5375
 20
85.275
  1
700
 40
3.0
 72
     5
 11
40.4125
 21
85.275
  0
ENDBLK
  0
BLOCK
  2
*DIM_0011
 70
    65
 10
0.0
 20
0.0
  0
LINE
  8
寸法
  6
CONTINUOUS
 10
92.010088
 20
55.577218
 11
92.010088
 21
52.814033
  0
POINT
  8
寸法
 10
92.010088
 20
55.577218
  0
POINT
  8
寸法
 10
92.010088
 20
52.814033
  0
TEXT
  7
TextStyle03
  8
寸法
  6
CONTINUOUS
 10
93.35
 20
56.64375
  1
82.9
 40
3.0
 50
90.0
 72
     5
 11
93.35
 21
63.20625
  0
ENDBLK
  0
BLOCK
  2
*DIM_0012
 70
    65
 10
0.0
 20
0.0
  0
LINE
  8
寸法
  6
CONTINUOUS
 10
92.010088
 20
22.814033
 11
92.010088
 21
20.050845
  0
POINT
  8
寸法
 10
92.010088
 20
22.814033
  0
POINT
  8
寸法
 10
92.010088
 20
20.050845
  0
TEXT
  7
TextStyle03
  8
寸法
  6
CONTINUOUS
 10
93.35
 20
12.41875
  1
82.9
 40
3.0
 50
90.0
 72
     5
 11
93.35
 21
18.98125
  0
ENDBLK
  0
BLOCK
  2
*DIM_0013
 70
    65
 10
0.0
 20
0.0
  0
LINE
  8
寸法
  6
CONTINUOUS
 10
92.010088
 20
52.814033
 11
92.010088
 21
22.814033
  0
POINT
  8
寸法
 10
92.010088
 20
52.814033
  0
POINT
  8
寸法
 10
92.010088
 20
22.814033
  0
TEXT
  7
TextStyle03
  8
寸法
  6
CONTINUOUS
 10
91.55
 20
26.925
  1
呼称寸法　900
 40
3.0
 50
90.0
 72
     5
 11
91.55
 21
48.675
  0
ENDBLK
  0
BLOCK
  2
*DIM_0014
 70
    65
 10
0.0
 20
0.0
  0
LINE
  8
寸法
  6
CONTINUOUS
 10
-75.3429
 20
-12.609317
 11
-78.106232
 21
-12.609317
  0
POINT
  8
寸法
 10
-75.3429
 20
-12.609317
  0
POINT
  8
寸法
 10
-78.106232
 20
-12.609317
  0
TEXT
  7
TextStyle03
  8
寸法
  6
CONTINUOUS
 10
-82.68125
 20
-11.675
  1
82.9
 40
3.0
 72
     5
 11
-76.11875
 21
-11.675
  0
ENDBLK
  0
BLOCK
  2
*DIM_0015
 70
    65
 10
0.0
 20
0.0
  0
LINE
  8
寸法
  6
CONTINUOUS
 10
60.753773
 20
-12.609317
 11
57.990438
 21
-12.609317
  0
POINT
  8
寸法
 10
60.753773
 20
-12.609317
  0
POINT
  8
寸法
 10
57.990438
 20
-12.609317
  0
TEXT
  7
TextStyle03
  8
寸法
  6
CONTINUOUS
 10
59.04375
 20
-11.725
  1
82.9
 40
3.0
 72
     5
 11
65.60625
 21
-11.725
  0
ENDBLK
  0
BLOCK
  2
*DIM_0016
 70
    65
 10
0.0
 20
0.0
  0
LINE
  8
寸法
  6
CONTINUOUS
 10
-75.342895
 20
-12.609317
 11
57.990438
 21
-12.609317
  0
POINT
  8
寸法
 10
-75.342895
 20
-12.609317
  0
POINT
  8
寸法
 10
57.990438
 20
-12.609317
  0
TEXT
  7
TextStyle03
  8
寸法
  6
CONTINUOUS
 10
-20.41875
 20
-12.25
  1
呼称寸法　4000
 40
3.0
 72
     5
 11
3.01875
 21
-12.25
  0
ENDBLK
  0
BLOCK
  2
*GRP_0017
 70
    65
 10
0.0
 20
0.0
  0
LINE
  8
補助線
  6
BYBLOCK
 62
    64
 10
-63.612488
 20
-74.673905
 11
-63.739973
 21
-74.781265
  0
LINE
  8
補助線
  6
BYBLOCK
 62
    64
 10
-63.72991
 20
-74.66384
 11
-63.62255
 21
-74.791327
  0
LINE
  8
補助線
  6
BYBLOCK
 62
    64
 10
-55.12207
 20
-67.523883
 11
-55.249555
 21
-67.631238
  0
LINE
  8
補助線
  6
BYBLOCK
 62
    64
 10
-55.239492
 20
-67.513818
 11
-55.132132
 21
-67.6413
  0
LINE
  8
補助線
  6
BYBLOCK
 62
    64
 10
-46.759135
 20
-60.481213
 11
-46.631653
 21
-60.373855
  0
LINE
  8
補助線
  6
BYBLOCK
 62
    64
 10
-46.749075
 20
-60.36379
 11
-46.641715
 21
-60.491277
  0
LINE
  8
型材断面
  6
CONTINUOUS
 10
-64.467985
 20
-74.304882
 11
-64.528363
 21
-75.009407
  0
LINE
  8
型材断面
  6
CONTINUOUS
 10
-64.528363
 20
-75.009407
 11
-64.09893
 21
-75.519343
  0
LINE
  8
型材断面
  6
CONTINUOUS
 10
-64.09893
 20
-75.519343
 11
-63.394405
 21
-75.57972
  0
LINE
  8
型材断面
  6
CONTINUOUS
 10
-46.977218
 20
-59.575403
 11
-46.272692
 21
-59.63578
  0
LINE
  8
型材断面
  6
CONTINUOUS
 10
-46.272692
 20
-59.63578
 11
-45.84326
 21
-60.145715
  0
LINE
  8
型材断面
  6
CONTINUOUS
 10
-45.84326
 20
-60.145715
 11
-45.903637
 21
-60.85024
  0
LINE
  8
型材断面
  6
CONTINUOUS
 10
-64.467985
 20
-74.304882
 11
-46.977218
 21
-59.575403
  0
LINE
  8
型材断面
  6
CONTINUOUS
 10
-63.394405
 20
-75.57972
 11
-45.903637
 21
-60.85024
  0
CIRCLE
  8
ボルト／ビス
  6
CONTINUOUS
 10
-63.67623
 20
-74.727585
 40
0.250185
  0
CIRCLE
  8
ボルト／ビス
  6
CONTINUOUS
 10
-63.67623
 20
-74.727585
 40
0.301025
  0
LINE
  8
ボルト／ビス
  6
CONTINUOUS
 62
    64
 10
-63.922537
 20
-74.771468
 11
-63.837385
 21
-74.53622
  0
LINE
  8
ボルト／ビス
  6
CONTINUOUS
 62
    64
 10
-63.591078
 20
-74.492335
 11
-63.837385
 21
-74.53622
  0
LINE
  8
ボルト／ビス
  6
CONTINUOUS
 62
    64
 10
-63.761383
 20
-74.962835
 11
-63.515075
 21
-74.91895
  0
LINE
  8
ボルト／ビス
  6
CONTINUOUS
 62
    64
 10
-63.429922
 20
-74.683702
 11
-63.515075
 21
-74.91895
  0
LINE
  8
ボルト／ビス
  6
CONTINUOUS
 62
    64
 10
-63.922537
 20
-74.771468
 11
-63.761383
 21
-74.962835
  0
LINE
  8
ボルト／ビス
  6
CONTINUOUS
 62
    64
 10
-63.591078
 20
-74.492335
 11
-63.429922
 21
-74.683702
  0
CIRCLE
  8
ボルト／ビス
  6
CONTINUOUS
 62
    64
 10
-63.67623
 20
-74.727585
 40
0.216668
  0
CIRCLE
  8
ボルト／ビス
  6
CONTINUOUS
 10
-55.185812
 20
-67.57756
 40
0.250185
  0
CIRCLE
  8
ボルト／ビス
  6
CONTINUOUS
 10
-55.185812
 20
-67.57756
 40
0.301025
  0
LINE
  8
ボルト／ビス
  6
CONTINUOUS
 62
    64
 10
-55.43212
 20
-67.621443
 11
-55.346968
 21
-67.386193
  0
LINE
  8
ボルト／ビス
  6
CONTINUOUS
 62
    64
 10
-55.10066
 20
-67.34231
 11
-55.346968
 21
-67.386193
  0
LINE
  8
ボルト／ビス
  6
CONTINUOUS
 62
    64
 10
-55.270965
 20
-67.81281
 11
-55.024655
 21
-67.768927
  0
LINE
  8
ボルト／ビス
  6
CONTINUOUS
 62
    64
 10
-54.939505
 20
-67.53368
 11
-55.024655
 21
-67.768927
  0
LINE
  8
ボルト／ビス
  6
CONTINUOUS
 62
    64
 10
-55.43212
 20
-67.621443
 11
-55.270965
 21
-67.81281
  0
LINE
  8
ボルト／ビス
  6
CONTINUOUS
 62
    64
 10
-55.10066
 20
-67.34231
 11
-54.939505
 21
-67.53368
  0
CIRCLE
  8
ボルト／ビス
  6
CONTINUOUS
 62
    64
 10
-55.185812
 20
-67.57756
 40
0.216668
  0
CIRCLE
  8
ボルト／ビス
  6
CONTINUOUS
 10
-46.695392
 20
-60.427535
 40
0.250185
  0
CIRCLE
  8
ボルト／ビス
  6
CONTINUOUS
 10
-46.695392
 20
-60.427535
 40
0.301025
  0
LINE
  8
ボルト／ビス
  6
CONTINUOUS
 62
    64
 10
-46.61024
 20
-60.192285
 11
-46.85655
 21
-60.23617
  0
LINE
  8
ボルト／ビス
  6
CONTINUOUS
 62
    64
 10
-46.941702
 20
-60.471418
 11
-46.85655
 21
-60.23617
  0
LINE
  8
ボルト／ビス
  6
CONTINUOUS
 62
    64
 10
-46.449088
 20
-60.383652
 11
-46.534238
 21
-60.6189
  0
LINE
  8
ボルト／ビス
  6
CONTINUOUS
 62
    64
 10
-46.780548
 20
-60.662785
 11
-46.534238
 21
-60.6189
  0
LINE
  8
ボルト／ビス
  6
CONTINUOUS
 62
    64
 10
-46.61024
 20
-60.192285
 11
-46.449088
 21
-60.383652
  0
LINE
  8
ボルト／ビス
  6
CONTINUOUS
 62
    64
 10
-46.941702
 20
-60.471418
 11
-46.780548
 21
-60.662785
  0
CIRCLE
  8
ボルト／ビス
  6
CONTINUOUS
 62
    64
 10
-46.695392
 20
-60.427535
 40
0.216668
  0
ENDBLK
  0
BLOCK
  2
*GRP_0018
 70
    65
 10
0.0
 20
0.0
  0
LINE
  8
補助線
  6
BYBLOCK
 62
    64
 10
-46.759137
 20
-74.673905
 11
-46.631653
 21
-74.781265
  0
LINE
  8
補助線
  6
BYBLOCK
 62
    64
 10
-46.641715
 20
-74.66384
 11
-46.749075
 21
-74.791327
  0
LINE
  8
補助線
  6
BYBLOCK
 62
    64
 10
-55.249555
 20
-67.523883
 11
-55.12207
 21
-67.631238
  0
LINE
  8
補助線
  6
BYBLOCK
 62
    64
 10
-55.132132
 20
-67.513818
 11
-55.239492
 21
-67.6413
  0
LINE
  8
補助線
  6
BYBLOCK
 62
    64
 10
-63.61249
 20
-60.481213
 11
-63.739973
 21
-60.373855
  0
LINE
  8
補助線
  6
BYBLOCK
 62
    64
 10
-63.62255
 20
-60.36379
 11
-63.72991
 21
-60.491277
  0
LINE
  8
型材断面
  6
CONTINUOUS
 10
-45.90364
 20
-74.304882
 11
-45.843263
 21
-75.009407
  0
LINE
  8
型材断面
  6
CONTINUOUS
 10
-45.843263
 20
-75.009407
 11
-46.272695
 21
-75.519343
  0
LINE
  8
型材断面
  6
CONTINUOUS
 10
-46.272695
 20
-75.519343
 11
-46.97722
 21
-75.57972
  0
LINE
  8
型材断面
  6
CONTINUOUS
 10
-63.394408
 20
-59.575403
 11
-64.098932
 21
-59.63578
  0
LINE
  8
型材断面
  6
CONTINUOUS
 10
-64.098932
 20
-59.63578
 11
-64.528365
 21
-60.145715
  0
LINE
  8
型材断面
  6
CONTINUOUS
 10
-64.528365
 20
-60.145715
 11
-64.467987
 21
-60.85024
  0
LINE
  8
型材断面
  6
CONTINUOUS
 10
-45.90364
 20
-74.304882
 11
-63.394408
 21
-59.575403
  0
LINE
  8
型材断面
  6
CONTINUOUS
 10
-46.97722
 20
-75.57972
 11
-64.467987
 21
-60.85024
  0
CIRCLE
  8
ボルト／ビス
  6
CONTINUOUS
 10
-46.695395
 20
-74.727585
 40
0.250185
  0
CIRCLE
  8
ボルト／ビス
  6
CONTINUOUS
 10
-46.695395
 20
-74.727585
 40
0.301025
  0
LINE
  8
ボルト／ビス
  6
CONTINUOUS
 62
    64
 10
-46.449088
 20
-74.771468
 11
-46.53424
 21
-74.53622
  0
LINE
  8
ボルト／ビス
  6
CONTINUOUS
 62
    64
 10
-46.780548
 20
-74.492335
 11
-46.53424
 21
-74.53622
  0
LINE
  8
ボルト／ビス
  6
CONTINUOUS
 62
    64
 10
-46.610243
 20
-74.962835
 11
-46.85655
 21
-74.91895
  0
LINE
  8
ボルト／ビス
  6
CONTINUOUS
 62
    64
 10
-46.941702
 20
-74.683702
 11
-46.85655
 21
-74.91895
  0
LINE
  8
ボルト／ビス
  6
CONTINUOUS
 62
    64
 10
-46.449088
 20
-74.771468
 11
-46.610243
 21
-74.962835
  0
LINE
  8
ボルト／ビス
  6
CONTINUOUS
 62
    64
 10
-46.780548
 20
-74.492335
 11
-46.941702
 21
-74.683702
  0
CIRCLE
  8
ボルト／ビス
  6
CONTINUOUS
 62
    64
 10
-46.695395
 20
-74.727585
 40
0.216668
  0
CIRCLE
  8
ボルト／ビス
  6
CONTINUOUS
 10
-55.185812
 20
-67.57756
 40
0.250185
  0
CIRCLE
  8
ボルト／ビス
  6
CONTINUOUS
 10
-55.185812
 20
-67.57756
 40
0.301025
  0
LINE
  8
ボルト／ビス
  6
CONTINUOUS
 62
    64
 10
-54.939505
 20
-67.621443
 11
-55.024658
 21
-67.386193
  0
LINE
  8
ボルト／ビス
  6
CONTINUOUS
 62
    64
 10
-55.270965
 20
-67.34231
 11
-55.024658
 21
-67.386193
  0
LINE
  8
ボルト／ビス
  6
CONTINUOUS
 62
    64
 10
-55.10066
 20
-67.81281
 11
-55.34697
 21
-67.768927
  0
LINE
  8
ボルト／ビス
  6
CONTINUOUS
 62
    64
 10
-55.43212
 20
-67.53368
 11
-55.34697
 21
-67.768927
  0
LINE
  8
ボルト／ビス
  6
CONTINUOUS
 62
    64
 10
-54.939505
 20
-67.621443
 11
-55.10066
 21
-67.81281
  0
LINE
  8
ボルト／ビス
  6
CONTINUOUS
 62
    64
 10
-55.270965
 20
-67.34231
 11
-55.43212
 21
-67.53368
  0
CIRCLE
  8
ボルト／ビス
  6
CONTINUOUS
 62
    64
 10
-55.185812
 20
-67.57756
 40
0.216668
  0
CIRCLE
  8
ボルト／ビス
  6
CONTINUOUS
 10
-63.676232
 20
-60.427535
 40
0.250185
  0
CIRCLE
  8
ボルト／ビス
  6
CONTINUOUS
 10
-63.676232
 20
-60.427535
 40
0.301025
  0
LINE
  8
ボルト／ビス
  6
CONTINUOUS
 62
    64
 10
-63.761385
 20
-60.192285
 11
-63.515075
 21
-60.23617
  0
LINE
  8
ボルト／ビス
  6
CONTINUOUS
 62
    64
 10
-63.429922
 20
-60.471418
 11
-63.515075
 21
-60.23617
  0
LINE
  8
ボルト／ビス
  6
CONTINUOUS
 62
    64
 10
-63.922537
 20
-60.383652
 11
-63.837388
 21
-60.6189
  0
LINE
  8
ボルト／ビス
  6
CONTINUOUS
 62
    64
 10
-63.591078
 20
-60.662785
 11
-63.837388
 21
-60.6189
  0
LINE
  8
ボルト／ビス
  6
CONTINUOUS
 62
    64
 10
-63.761385
 20
-60.192285
 11
-63.922537
 21
-60.383652
  0
LINE
  8
ボルト／ビス
  6
CONTINUOUS
 62
    64
 10
-63.429922
 20
-60.471418
 11
-63.591078
 21
-60.662785
  0
CIRCLE
  8
ボルト／ビス
  6
CONTINUOUS
 62
    64
 10
-63.676232
 20
-60.427535
 40
0.216668
  0
ENDBLK
  0
BLOCK
  2
*GRP_0019
 70
    65
 10
0.0
 20
0.0
  0
LINE
  8
補助線
  6
BYBLOCK
 62
    64
 10
46.260032
 20
-74.673905
 11
46.387517
 21
-74.781265
  0
LINE
  8
補助線
  6
BYBLOCK
 62
    64
 10
46.377455
 20
-74.66384
 11
46.270095
 21
-74.791327
  0
LINE
  8
補助線
  6
BYBLOCK
 62
    64
 10
37.769615
 20
-67.523883
 11
37.8971
 21
-67.631238
  0
LINE
  8
補助線
  6
BYBLOCK
 62
    64
 10
37.887038
 20
-67.513818
 11
37.779678
 21
-67.6413
  0
LINE
  8
補助線
  6
BYBLOCK
 62
    64
 10
29.40668
 20
-60.481213
 11
29.279198
 21
-60.373855
  0
LINE
  8
補助線
  6
BYBLOCK
 62
    64
 10
29.39662
 20
-60.36379
 11
29.28926
 21
-60.491277
  0
LINE
  8
型材断面
  6
CONTINUOUS
 10
47.11553
 20
-74.304882
 11
47.175907
 21
-75.009407
  0
LINE
  8
型材断面
  6
CONTINUOUS
 10
47.175907
 20
-75.009407
 11
46.746475
 21
-75.519343
  0
LINE
  8
型材断面
  6
CONTINUOUS
 10
46.746475
 20
-75.519343
 11
46.04195
 21
-75.57972
  0
LINE
  8
型材断面
  6
CONTINUOUS
 10
29.624762
 20
-59.575403
 11
28.920238
 21
-59.63578
  0
LINE
  8
型材断面
  6
CONTINUOUS
 10
28.920238
 20
-59.63578
 11
28.490805
 21
-60.145715
  0
LINE
  8
型材断面
  6
CONTINUOUS
 10
28.490805
 20
-60.145715
 11
28.551182
 21
-60.85024
  0
LINE
  8
型材断面
  6
CONTINUOUS
 10
47.11553
 20
-74.304882
 11
29.624762
 21
-59.575403
  0
LINE
  8
型材断面
  6
CONTINUOUS
 10
46.04195
 20
-75.57972
 11
28.551182
 21
-60.85024
  0
CIRCLE
  8
ボルト／ビス
  6
CONTINUOUS
 10
46.323775
 20
-74.727585
 40
0.250185
  0
CIRCLE
  8
ボルト／ビス
  6
CONTINUOUS
 10
46.323775
 20
-74.727585
 40
0.301025
  0
LINE
  8
ボルト／ビス
  6
CONTINUOUS
 62
    64
 10
46.570082
 20
-74.771468
 11
46.48493
 21
-74.53622
  0
LINE
  8
ボルト／ビス
  6
CONTINUOUS
 62
    64
 10
46.238623
 20
-74.492335
 11
46.48493
 21
-74.53622
  0
LINE
  8
ボルト／ビス
  6
CONTINUOUS
 62
    64
 10
46.408928
 20
-74.962835
 11
46.16262
 21
-74.91895
  0
LINE
  8
ボルト／ビス
  6
CONTINUOUS
 62
    64
 10
46.077468
 20
-74.683702
 11
46.16262
 21
-74.91895
  0
LINE
  8
ボルト／ビス
  6
CONTINUOUS
 62
    64
 10
46.570082
 20
-74.771468
 11
46.408928
 21
-74.962835
  0
LINE
  8
ボルト／ビス
  6
CONTINUOUS
 62
    64
 10
46.238623
 20
-74.492335
 11
46.077468
 21
-74.683702
  0
CIRCLE
  8
ボルト／ビス
  6
CONTINUOUS
 62
    64
 10
46.323775
 20
-74.727585
 40
0.216668
  0
CIRCLE
  8
ボルト／ビス
  6
CONTINUOUS
 10
37.833358
 20
-67.57756
 40
0.250185
  0
CIRCLE
  8
ボルト／ビス
  6
CONTINUOUS
 10
37.833358
 20
-67.57756
 40
0.301025
  0
LINE
  8
ボルト／ビス
  6
CONTINUOUS
 62
    64
 10
38.079665
 20
-67.621443
 11
37.994513
 21
-67.386193
  0
LINE
  8
ボルト／ビス
  6
CONTINUOUS
 62
    64
 10
37.748205
 20
-67.34231
 11
37.994513
 21
-67.386193
  0
LINE
  8
ボルト／ビス
  6
CONTINUOUS
 62
    64
 10
37.91851
 20
-67.81281
 11
37.6722
 21
-67.768927
  0
LINE
  8
ボルト／ビス
  6
CONTINUOUS
 62
    64
 10
37.58705
 20
-67.53368
 11
37.6722
 21
-67.768927
  0
LINE
  8
ボルト／ビス
  6
CONTINUOUS
 62
    64
 10
38.079665
 20
-67.621443
 11
37.91851
 21
-67.81281
  0
LINE
  8
ボルト／ビス
  6
CONTINUOUS
 62
    64
 10
37.748205
 20
-67.34231
 11
37.58705
 21
-67.53368
  0
CIRCLE
  8
ボルト／ビス
  6
CONTINUOUS
 62
    64
 10
37.833358
 20
-67.57756
 40
0.216668
  0
CIRCLE
  8
ボルト／ビス
  6
CONTINUOUS
 10
29.342937
 20
-60.427535
 40
0.250185
  0
CIRCLE
  8
ボルト／ビス
  6
CONTINUOUS
 10
29.342937
 20
-60.427535
 40
0.301025
  0
LINE
  8
ボルト／ビス
  6
CONTINUOUS
 62
    64
 10
29.257785
 20
-60.192285
 11
29.504095
 21
-60.23617
  0
LINE
  8
ボルト／ビス
  6
CONTINUOUS
 62
    64
 10
29.589248
 20
-60.471418
 11
29.504095
 21
-60.23617
  0
LINE
  8
ボルト／ビス
  6
CONTINUOUS
 62
    64
 10
29.096632
 20
-60.383652
 11
29.181783
 21
-60.6189
  0
LINE
  8
ボルト／ビス
  6
CONTINUOUS
 62
    64
 10
29.428092
 20
-60.662785
 11
29.181783
 21
-60.6189
  0
LINE
  8
ボルト／ビス
  6
CONTINUOUS
 62
    64
 10
29.257785
 20
-60.192285
 11
29.096632
 21
-60.383652
  0
LINE
  8
ボルト／ビス
  6
CONTINUOUS
 62
    64
 10
29.589248
 20
-60.471418
 11
29.428092
 21
-60.662785
  0
CIRCLE
  8
ボルト／ビス
  6
CONTINUOUS
 62
    64
 10
29.342937
 20
-60.427535
 40
0.216668
  0
ENDBLK
  0
BLOCK
  2
*GRP_0020
 70
    65
 10
0.0
 20
0.0
  0
LINE
  8
補助線
  6
BYBLOCK
 62
    64
 10
29.406682
 20
-74.673905
 11
29.279198
 21
-74.781265
  0
LINE
  8
補助線
  6
BYBLOCK
 62
    64
 10
29.28926
 20
-74.66384
 11
29.39662
 21
-74.791327
  0
LINE
  8
補助線
  6
BYBLOCK
 62
    64
 10
37.8971
 20
-67.523883
 11
37.769615
 21
-67.631238
  0
LINE
  8
補助線
  6
BYBLOCK
 62
    64
 10
37.779678
 20
-67.513818
 11
37.887038
 21
-67.6413
  0
LINE
  8
補助線
  6
BYBLOCK
 62
    64
 10
46.260035
 20
-60.481213
 11
46.387517
 21
-60.373855
  0
LINE
  8
補助線
  6
BYBLOCK
 62
    64
 10
46.270095
 20
-60.36379
 11
46.377455
 21
-60.491277
  0
LINE
  8
型材断面
  6
CONTINUOUS
 10
28.551185
 20
-74.304882
 11
28.490807
 21
-75.009407
  0
LINE
  8
型材断面
  6
CONTINUOUS
 10
28.490807
 20
-75.009407
 11
28.92024
 21
-75.519343
  0
LINE
  8
型材断面
  6
CONTINUOUS
 10
28.92024
 20
-75.519343
 11
29.624765
 21
-75.57972
  0
LINE
  8
型材断面
  6
CONTINUOUS
 10
46.041952
 20
-59.575403
 11
46.746478
 21
-59.63578
  0
LINE
  8
型材断面
  6
CONTINUOUS
 10
46.746478
 20
-59.63578
 11
47.17591
 21
-60.145715
  0
LINE
  8
型材断面
  6
CONTINUOUS
 10
47.17591
 20
-60.145715
 11
47.115532
 21
-60.85024
  0
LINE
  8
型材断面
  6
CONTINUOUS
 10
28.551185
 20
-74.304882
 11
46.041952
 21
-59.575403
  0
LINE
  8
型材断面
  6
CONTINUOUS
 10
29.624765
 20
-75.57972
 11
47.115532
 21
-60.85024
  0
CIRCLE
  8
ボルト／ビス
  6
CONTINUOUS
 10
29.34294
 20
-74.727585
 40
0.250185
  0
CIRCLE
  8
ボルト／ビス
  6
CONTINUOUS
 10
29.34294
 20
-74.727585
 40
0.301025
  0
LINE
  8
ボルト／ビス
  6
CONTINUOUS
 62
    64
 10
29.096632
 20
-74.771468
 11
29.181785
 21
-74.53622
  0
LINE
  8
ボルト／ビス
  6
CONTINUOUS
 62
    64
 10
29.428092
 20
-74.492335
 11
29.181785
 21
-74.53622
  0
LINE
  8
ボルト／ビス
  6
CONTINUOUS
 62
    64
 10
29.257788
 20
-74.962835
 11
29.504095
 21
-74.91895
  0
LINE
  8
ボルト／ビス
  6
CONTINUOUS
 62
    64
 10
29.589248
 20
-74.683702
 11
29.504095
 21
-74.91895
  0
LINE
  8
ボルト／ビス
  6
CONTINUOUS
 62
    64
 10
29.096632
 20
-74.771468
 11
29.257788
 21
-74.962835
  0
LINE
  8
ボルト／ビス
  6
CONTINUOUS
 62
    64
 10
29.428092
 20
-74.492335
 11
29.589248
 21
-74.683702
  0
CIRCLE
  8
ボルト／ビス
  6
CONTINUOUS
 62
    64
 10
29.34294
 20
-74.727585
 40
0.216668
  0
CIRCLE
  8
ボルト／ビス
  6
CONTINUOUS
 10
37.833358
 20
-67.57756
 40
0.250185
  0
CIRCLE
  8
ボルト／ビス
  6
CONTINUOUS
 10
37.833358
 20
-67.57756
 40
0.301025
  0
LINE
  8
ボルト／ビス
  6
CONTINUOUS
 62
    64
 10
37.58705
 20
-67.621443
 11
37.672202
 21
-67.386193
  0
LINE
  8
ボルト／ビス
  6
CONTINUOUS
 62
    64
 10
37.91851
 20
-67.34231
 11
37.672202
 21
-67.386193
  0
LINE
  8
ボルト／ビス
  6
CONTINUOUS
 62
    64
 10
37.748205
 20
-67.81281
 11
37.994515
 21
-67.768927
  0
LINE
  8
ボルト／ビス
  6
CONTINUOUS
 62
    64
 10
38.079665
 20
-67.53368
 11
37.994515
 21
-67.768927
  0
LINE
  8
ボルト／ビス
  6
CONTINUOUS
 62
    64
 10
37.58705
 20
-67.621443
 11
37.748205
 21
-67.81281
  0
LINE
  8
ボルト／ビス
  6
CONTINUOUS
 62
    64
 10
37.91851
 20
-67.34231
 11
38.079665
 21
-67.53368
  0
CIRCLE
  8
ボルト／ビス
  6
CONTINUOUS
 62
    64
 10
37.833358
 20
-67.57756
 40
0.216668
  0
CIRCLE
  8
ボルト／ビス
  6
CONTINUOUS
 10
46.323777
 20
-60.427535
 40
0.250185
  0
CIRCLE
  8
ボルト／ビス
  6
CONTINUOUS
 10
46.323777
 20
-60.427535
 40
0.301025
  0
LINE
  8
ボルト／ビス
  6
CONTINUOUS
 62
    64
 10
46.40893
 20
-60.192285
 11
46.16262
 21
-60.23617
  0
LINE
  8
ボルト／ビス
  6
CONTINUOUS
 62
    64
 10
46.077468
 20
-60.471418
 11
46.16262
 21
-60.23617
  0
LINE
  8
ボルト／ビス
  6
CONTINUOUS
 62
    64
 10
46.570082
 20
-60.383652
 11
46.484932
 21
-60.6189
  0
LINE
  8
ボルト／ビス
  6
CONTINUOUS
 62
    64
 10
46.238623
 20
-60.662785
 11
46.484932
 21
-60.6189
  0
LINE
  8
ボルト／ビス
  6
CONTINUOUS
 62
    64
 10
46.40893
 20
-60.192285
 11
46.570082
 21
-60.383652
  0
LINE
  8
ボルト／ビス
  6
CONTINUOUS
 62
    64
 10
46.077468
 20
-60.471418
 11
46.238623
 21
-60.662785
  0
CIRCLE
  8
ボルト／ビス
  6
CONTINUOUS
 62
    64
 10
46.323777
 20
-60.427535
 40
0.216668
  0
ENDBLK
  0
BLOCK
  2
*DIM_0021
 70
    65
 10
0.0
 20
0.0
  0
LINE
  8
寸法
  6
CONTINUOUS
 10
153.076993
 20
-43.459155
 11
120.64366
 21
-43.459155
  0
POINT
  8
寸法
 10
153.076993
 20
-43.459155
  0
POINT
  8
寸法
 10
120.64366
 20
-43.459155
  0
TEXT
  7
TextStyle03
  8
寸法
  6
CONTINUOUS
 10
134.4125
 20
-43.1
  1
973
 40
3.0
 72
     5
 11
139.2875
 21
-43.1
  0
ENDBLK
  0
BLOCK
  2
*DIM_0022
 70
    65
 10
0.0
 20
0.0
  0
LINE
  8
寸法
  6
BYBLOCK
 62
     0
 10
77.16726
 20
-69.076395
 11
77.16726
 21
-57.409728
  0
POINT
  8
寸法
 62
     0
 10
77.16726
 20
-69.076395
  0
POINT
  8
寸法
 62
     0
 10
77.16726
 20
-57.409728
  0
TEXT
  7
TextStyle03
  8
寸法
  6
CONTINUOUS
 62
     0
 10
76.325
 20
-55.41875
  1
上昇304以上
 40
3.0
 50
90.0
 72
     5
 11
76.325
 21
-37.23125
  0
ENDBLK
  0
BLOCK
  2
*DIM_0023
 70
    65
 10
0.0
 20
0.0
  0
LINE
  8
寸法
  6
BYBLOCK
 62
     0
 10
146.907152
 20
61.81515
 11
135.240485
 21
61.81515
  0
POINT
  8
寸法
 62
     0
 10
146.907152
 20
61.81515
  0
POINT
  8
寸法
 62
     0
 10
135.240485
 20
61.81515
  0
TEXT
  7
TextStyle03
  8
寸法
  6
CONTINUOUS
 62
     0
 10
114.50625
 20
60.25
  1
上昇304以上
 40
3.0
 72
     5
 11
132.69375
 21
60.25
  0
ENDBLK
  0
BLOCK
  2
*DIM_0024
 70
    65
 10
0.0
 20
0.0
  0
LINE
  8
寸法
  6
CONTINUOUS
 10
158.076993
 20
-83.785395
 11
165.08
 21
-83.785395
  0
LINE
  8
寸法
  6
CONTINUOUS
 10
158.076993
 20
-53.785395
 11
165.08
 21
-53.785395
  0
LINE
  8
寸法
  6
CONTINUOUS
 10
165.08
 20
-83.785395
 11
165.08
 21
-53.785395
  0
POINT
  8
寸法
 10
165.08
 20
-83.785395
  0
POINT
  8
寸法
 10
165.08
 20
-53.785395
  0
TEXT
  7
TextStyle03
  8
寸法
  6
CONTINUOUS
 10
164.7
 20
-71.2375
  1
900
 40
3.0
 50
90.0
 72
     5
 11
164.7
 21
-66.3625
  0
ENDBLK
  0
BLOCK
  2
*DIM_0025
 70
    65
 10
0.0
 20
0.0
  0
LINE
  8
寸法
  6
CONTINUOUS
 10
64.66595
 20
-69.076395
 11
77.16726
 21
-69.076395
  0
LINE
  8
寸法
  6
CONTINUOUS
 10
65.753775
 20
-77.192947
 11
77.16726
 21
-77.192947
  0
LINE
  8
寸法
  6
CONTINUOUS
 10
77.16726
 20
-69.076395
 11
77.16726
 21
-77.192947
  0
POINT
  8
寸法
 10
77.16726
 20
-69.076395
  0
POINT
  8
寸法
 10
77.16726
 20
-77.192947
  0
TEXT
  7
TextStyle03
  8
寸法
  6
CONTINUOUS
 10
80.15
 20
-77.275
  1
243.5
 40
3.0
 50
90.0
 72
     5
 11
80.15
 21
-69.025
  0
ENDBLK
  0
BLOCK
  2
*DIM_0026
 70
    65
 10
0.0
 20
0.0
  0
LINE
  8
寸法
  6
CONTINUOUS
 10
146.907152
 20
57.814033
 11
146.907152
 21
61.81515
  0
LINE
  8
寸法
  6
CONTINUOUS
 10
155.023705
 20
57.814033
 11
155.023705
 21
61.81515
  0
LINE
  8
寸法
  6
CONTINUOUS
 10
146.907152
 20
61.81515
 11
155.023705
 21
61.81515
  0
POINT
  8
寸法
 10
146.907152
 20
61.81515
  0
POINT
  8
寸法
 10
155.023705
 20
61.81515
  0
TEXT
  7
TextStyle03
  8
寸法
  6
CONTINUOUS
 10
146.8
 20
62.175
  1
243.5
 40
3.0
 72
     5
 11
155.05
 21
62.175
  0
ENDBLK
  0
ENDSEC
  0
SECTION
  2
ENTITIES
  0
POLYLINE
  8
通り芯
  6
CONTINUOUS
 66
     1
 70
     1
  0
VERTEX
  8
通り芯
 10
-210.0
 20
-148.5
  0
VERTEX
  8
通り芯
 10
210.0
 20
-148.5
  0
VERTEX
  8
通り芯
 10
210.0
 20
148.5
  0
VERTEX
  8
通り芯
 10
-210.0
 20
148.5
  0
SEQEND
  0
INSERT
  2
*GRP_0001
  8
型材断面
  6
CONTINUOUS
 10
0.0
 20
0.0
  0
LINE
  8
型材断面
  6
DASHDOT
 10
57.990438
 20
-77.836442
 11
57.990438
 21
52.814033
  0
LINE
  8
型材断面
  6
DASHDOT
 10
-8.67623
 20
-77.836442
 11
-8.67623
 21
52.814033
  0
LINE
  8
型材断面
  6
DASHDOT
 10
-75.342895
 20
-77.836442
 11
-75.342895
 21
52.814033
  0
LINE
  8
型材断面
  6
DASHDOT
 10
155.6672
 20
52.814033
 11
-75.342895
 21
52.814033
  0
LINE
  8
型材断面
  6
DASHDOT
 10
155.6672
 20
37.814033
 11
-75.342895
 21
37.814033
  0
LINE
  8
型材断面
  6
DASHDOT
 10
155.6672
 20
22.814033
 11
-75.342895
 21
22.814033
  0
LINE
  8
型材断面
  6
DASHDOT
 10
-8.67623
 20
22.814033
 11
-8.67623
 21
52.814033
  0
POLYLINE
  8
型材断面
  6
CONTINUOUS
 66
     1
 70
     1
  0
VERTEX
  8
型材断面
 10
0.847602
 20
13.03811
  0
VERTEX
  8
型材断面
 10
-17.924327
 20
13.03811
  0
VERTEX
  8
型材断面
 10
-17.924327
 20
8.301267
  0
VERTEX
  8
型材断面
 10
0.847602
 20
8.301267
  0
SEQEND
  0
POLYLINE
  8
型材断面
  6
CONTINUOUS
 66
     1
 70
     1
  0
VERTEX
  8
型材断面
 10
0.847602
 20
62.589955
  0
VERTEX
  8
型材断面
 10
-17.924327
 20
62.589955
  0
VERTEX
  8
型材断面
 10
-17.924327
 20
67.326798
  0
VERTEX
  8
型材断面
 10
0.847602
 20
67.326798
  0
SEQEND
  0
LINE
  8
型材断面
  6
CONTINUOUS
 10
-129.221418
 20
90.791505
 11
-128.625363
 21
88.200998
  0
LINE
  8
型材断面
  6
CONTINUOUS
 10
-129.221418
 20
90.791505
 11
-129.817475
 21
88.200998
  0
LINE
  8
型材断面
  6
CONTINUOUS
 10
-129.817475
 20
88.200998
 11
-128.625363
 21
88.200998
  0
LINE
  8
型材断面
  6
CONTINUOUS
 10
-135.244005
 20
84.922105
 11
-89.002228
 21
84.922105
  0
LINE
  8
型材断面
  6
CONTINUOUS
 10
-129.221418
 20
97.32138
 11
-130.717047
 21
94.730873
  0
LINE
  8
型材断面
  6
CONTINUOUS
 10
-129.221418
 20
97.32138
 11
-127.725788
 21
94.730873
  0
LINE
  8
型材断面
  6
CONTINUOUS
 10
-127.725788
 20
94.730873
 11
-130.717047
 21
94.730873
  0
LINE
  8
型材断面
  6
CONTINUOUS
 10
-135.244005
 20
93.792277
 11
-89.002228
 21
93.792277
  0
LINE
  8
型材断面
  6
CONTINUOUS
 10
-135.244005
 20
79.134073
 11
-89.002228
 21
79.134073
  0
LINE
  8
型材断面
  6
CONTINUOUS
 10
-135.244005
 20
73.34604
 11
-89.002228
 21
73.34604
  0
INSERT
  2
*GRP_0017
  8
型材断面
  6
CONTINUOUS
 10
0.0
 20
0.0
  0
INSERT
  2
*GRP_0018
  8
型材断面
  6
CONTINUOUS
 10
0.0
 20
0.0
  0
INSERT
  2
*GRP_0019
  8
型材断面
  6
CONTINUOUS
 10
0.0
 20
0.0
  0
INSERT
  2
*GRP_0020
  8
型材断面
  6
CONTINUOUS
 10
0.0
 20
0.0
  0
LINE
  8
型材断面
  6
CONTINUOUS
 10
-78.106232
 20
20.050845
 11
60.753773
 21
20.050845
  0
LINE
  8
型材断面
  6
CONTINUOUS
 10
-78.106232
 20
55.577218
 11
60.753773
 21
55.577218
  0
LINE
  8
型材断面
  6
CONTINUOUS
 10
-78.106232
 20
37.81403
 11
-80.69674
 21
39.30966
  0
LINE
  8
型材断面
  6
CONTINUOUS
 10
-78.106232
 20
37.81403
 11
-80.69674
 21
36.3184
  0
LINE
  8
型材断面
  6
CONTINUOUS
 10
-80.69674
 20
36.3184
 11
-80.69674
 21
39.30966
  0
LINE
  8
型材断面
  6
CONTINUOUS
 10
-78.106235
 20
49.114033
 11
-80.696745
 21
48.51798
  0
LINE
  8
型材断面
  6
CONTINUOUS
 10
-78.106235
 20
49.114033
 11
-80.696742
 21
49.710093
  0
LINE
  8
型材断面
  6
CONTINUOUS
 10
-80.696742
 20
49.710093
 11
-80.696745
 21
48.51798
  0
LINE
  8
型材断面
  6
CONTINUOUS
 10
-78.106235
 20
26.514027
 11
-80.696745
 21
27.11008
  0
LINE
  8
型材断面
  6
CONTINUOUS
 10
-78.106235
 20
26.514027
 11
-80.696742
 21
25.917967
  0
LINE
  8
型材断面
  6
CONTINUOUS
 10
-80.696742
 20
25.917967
 11
-80.696745
 21
27.11008
  0
LINE
  8
型材断面
  6
CONTINUOUS
 10
-58.676228
 20
55.577218
 11
-60.171857
 21
58.167725
  0
LINE
  8
型材断面
  6
CONTINUOUS
 10
-58.676228
 20
55.577218
 11
-57.180598
 21
58.167725
  0
LINE
  8
型材断面
  6
CONTINUOUS
 10
-57.180598
 20
58.167725
 11
-60.171857
 21
58.167725
  0
LINE
  8
型材断面
  6
CONTINUOUS
 10
41.323768
 20
55.577218
 11
42.819398
 21
58.167725
  0
LINE
  8
型材断面
  6
CONTINUOUS
 10
41.323768
 20
55.577218
 11
39.828138
 21
58.167725
  0
LINE
  8
型材断面
  6
CONTINUOUS
 10
39.828138
 20
58.167725
 11
42.819398
 21
58.167725
  0
LINE
  8
型材断面
  6
CONTINUOUS
 10
60.753773
 20
49.114035
 11
63.344283
 21
48.517982
  0
LINE
  8
型材断面
  6
CONTINUOUS
 10
60.753773
 20
49.114035
 11
63.34428
 21
49.710095
  0
LINE
  8
型材断面
  6
CONTINUOUS
 10
63.34428
 20
49.710095
 11
63.344283
 21
48.517982
  0
LINE
  8
型材断面
  6
CONTINUOUS
 10
60.753773
 20
26.51403
 11
63.344283
 21
27.110082
  0
LINE
  8
型材断面
  6
CONTINUOUS
 10
60.753773
 20
26.51403
 11
63.34428
 21
25.91797
  0
LINE
  8
型材断面
  6
CONTINUOUS
 10
63.34428
 20
25.91797
 11
63.344283
 21
27.110082
  0
LINE
  8
型材断面
  6
CONTINUOUS
 10
-58.676228
 20
20.050845
 11
-60.171857
 21
17.460338
  0
LINE
  8
型材断面
  6
CONTINUOUS
 10
-58.676228
 20
20.050845
 11
-57.180598
 21
17.460338
  0
LINE
  8
型材断面
  6
CONTINUOUS
 10
-57.180598
 20
17.460338
 11
-60.171857
 21
17.460338
  0
LINE
  8
型材断面
  6
CONTINUOUS
 10
41.323768
 20
20.050845
 11
42.819398
 21
17.460338
  0
LINE
  8
型材断面
  6
CONTINUOUS
 10
41.323768
 20
20.050845
 11
39.828138
 21
17.460338
  0
LINE
  8
型材断面
  6
CONTINUOUS
 10
39.828138
 20
17.460338
 11
42.819398
 21
17.460338
  0
LINE
  8
型材断面
  6
CONTINUOUS
 10
60.753773
 20
37.81403
 11
63.34428
 21
39.30966
  0
LINE
  8
型材断面
  6
CONTINUOUS
 10
60.753773
 20
37.81403
 11
63.34428
 21
36.3184
  0
LINE
  8
型材断面
  6
CONTINUOUS
 10
63.34428
 20
36.3184
 11
63.34428
 21
39.30966
  0
LINE
  8
型材断面
  6
DASHDOT
 10
24.947103
 20
22.814033
 11
24.947103
 21
52.814033
  0
LINE
  8
型材断面
  6
CONTINUOUS
 10
26.197103
 20
24.314033
 11
23.697103
 21
24.314035
  0
LINE
  8
型材断面
  6
CONTINUOUS
 10
26.197103
 20
51.314033
 11
23.697103
 21
51.31403
  0
LINE
  8
型材断面
  6
CONTINUOUS
 10
26.197103
 20
24.314033
 11
26.197103
 21
51.314033
  0
LINE
  8
型材断面
  6
CONTINUOUS
 10
23.697103
 20
24.314035
 11
23.697103
 21
51.31403
  0
LINE
  8
型材断面
  6
CONTINUOUS
 10
-7.42623
 20
24.314033
 11
-9.92623
 21
24.314035
  0
LINE
  8
型材断面
  6
CONTINUOUS
 10
-7.42623
 20
51.314033
 11
-9.92623
 21
51.31403
  0
LINE
  8
型材断面
  6
CONTINUOUS
 10
-7.42623
 20
24.314033
 11
-7.42623
 21
51.314033
  0
LINE
  8
型材断面
  6
CONTINUOUS
 10
-9.92623
 20
24.314035
 11
-9.92623
 21
51.31403
  0
LINE
  8
型材断面
  6
CONTINUOUS
 10
41.885438
 20
23.48069
 11
41.885438
 21
20.98069
  0
LINE
  8
型材断面
  6
CONTINUOUS
 10
41.052103
 20
23.48069
 11
41.052103
 21
20.980693
  0
LINE
  8
型材断面
  6
CONTINUOUS
 10
8.552105
 20
23.48069
 11
8.552105
 21
20.98069
  0
LINE
  8
型材断面
  6
CONTINUOUS
 10
7.71877
 20
23.48069
 11
7.71877
 21
20.980693
  0
LINE
  8
型材断面
  6
CONTINUOUS
 10
41.885438
 20
52.147375
 11
41.885438
 21
54.647375
  0
LINE
  8
型材断面
  6
CONTINUOUS
 10
41.052103
 20
52.147375
 11
41.052103
 21
54.647372
  0
LINE
  8
型材断面
  6
CONTINUOUS
 10
8.552105
 20
52.147375
 11
8.552105
 21
54.647375
  0
LINE
  8
型材断面
  6
CONTINUOUS
 10
7.71877
 20
52.147375
 11
7.71877
 21
54.647372
  0
LINE
  8
型材断面
  6
CONTINUOUS
 10
41.052103
 20
23.48069
 11
8.552105
 21
23.480715
  0
LINE
  8
型材断面
  6
CONTINUOUS
 10
7.71877
 20
23.480715
 11
-8.67623
 21
23.480727
  0
LINE
  8
型材断面
  6
CONTINUOUS
 10
41.052103
 20
52.147375
 11
8.552105
 21
52.14735
  0
LINE
  8
型材断面
  6
CONTINUOUS
 10
7.71877
 20
52.14735
 11
-8.67623
 21
52.147337
  0
LINE
  8
型材断面
  6
CONTINUOUS
 10
60.753775
 20
20.050845
 11
60.753775
 21
55.577218
  0
LINE
  8
型材断面
  6
CONTINUOUS
 10
59.588095
 20
20.980677
 11
59.823795
 21
21.216378
  0
LINE
  8
型材断面
  6
CONTINUOUS
 10
57.088092
 20
23.480677
 11
57.323792
 21
23.716378
  0
LINE
  8
型材断面
  6
CONTINUOUS
 10
57.323792
 20
23.716378
 11
59.823795
 21
21.216378
  0
LINE
  8
型材断面
  6
CONTINUOUS
 10
57.088092
 20
23.480677
 11
59.588095
 21
20.980677
  0
LINE
  8
型材断面
  6
CONTINUOUS
 10
60.753628
 20
20.050845
 11
59.705942
 21
21.098525
  0
LINE
  8
型材断面
  6
CONTINUOUS
 10
59.823773
 20
37.814033
 11
59.823795
 21
21.216378
  0
LINE
  8
型材断面
  6
CONTINUOUS
 10
59.588095
 20
54.647387
 11
59.823795
 21
54.411687
  0
LINE
  8
型材断面
  6
CONTINUOUS
 10
57.323792
 20
51.911687
 11
59.823795
 21
54.411687
  0
LINE
  8
型材断面
  6
CONTINUOUS
 10
60.753628
 20
55.57722
 11
59.705942
 21
54.52954
  0
LINE
  8
型材断面
  6
CONTINUOUS
 10
57.088092
 20
52.147387
 11
57.323792
 21
51.911687
  0
LINE
  8
型材断面
  6
CONTINUOUS
 10
59.823773
 20
37.814033
 11
59.823795
 21
54.411687
  0
LINE
  8
型材断面
  6
CONTINUOUS
 10
57.088092
 20
52.147387
 11
59.588095
 21
54.647387
  0
LINE
  8
型材断面
  6
CONTINUOUS
 10
57.323773
 20
38.2307
 11
59.823773
 21
38.2307
  0
LINE
  8
型材断面
  6
CONTINUOUS
 10
57.323773
 20
37.397365
 11
59.823773
 21
37.397365
  0
LINE
  8
型材断面
  6
CONTINUOUS
 10
57.323773
 20
37.397365
 11
57.323792
 21
23.716378
  0
LINE
  8
型材断面
  6
CONTINUOUS
 10
57.323773
 20
38.2307
 11
57.323792
 21
51.911687
  0
LINE
  8
型材断面
  6
CONTINUOUS
 10
-8.67623
 20
54.647335
 11
59.588095
 21
54.647387
  0
LINE
  8
型材断面
  6
CONTINUOUS
 10
41.885438
 20
52.147375
 11
57.088092
 21
52.147387
  0
LINE
  8
型材断面
  6
CONTINUOUS
 10
41.885438
 20
23.48069
 11
57.088092
 21
23.480677
  0
LINE
  8
型材断面
  6
CONTINUOUS
 10
-8.67623
 20
20.98073
 11
59.588095
 21
20.980677
  0
LINE
  8
型材断面
  6
DASHDOT
 10
-42.299562
 20
22.814033
 11
-42.299562
 21
52.814033
  0
LINE
  8
型材断面
  6
CONTINUOUS
 10
-43.549562
 20
24.314033
 11
-41.049562
 21
24.314035
  0
LINE
  8
型材断面
  6
CONTINUOUS
 10
-43.549562
 20
51.314033
 11
-41.049562
 21
51.31403
  0
LINE
  8
型材断面
  6
CONTINUOUS
 10
-43.549562
 20
24.314033
 11
-43.549562
 21
51.314033
  0
LINE
  8
型材断面
  6
CONTINUOUS
 10
-41.049562
 20
24.314035
 11
-41.049562
 21
51.31403
  0
LINE
  8
型材断面
  6
CONTINUOUS
 10
-59.237897
 20
23.48069
 11
-59.237897
 21
20.98069
  0
LINE
  8
型材断面
  6
CONTINUOUS
 10
-58.404562
 20
23.48069
 11
-58.404562
 21
20.980693
  0
LINE
  8
型材断面
  6
CONTINUOUS
 10
-25.904565
 20
23.48069
 11
-25.904565
 21
20.98069
  0
LINE
  8
型材断面
  6
CONTINUOUS
 10
-25.07123
 20
23.48069
 11
-25.07123
 21
20.980693
  0
LINE
  8
型材断面
  6
CONTINUOUS
 10
-59.237897
 20
52.147375
 11
-59.237897
 21
54.647375
  0
LINE
  8
型材断面
  6
CONTINUOUS
 10
-58.404562
 20
52.147375
 11
-58.404562
 21
54.647372
  0
LINE
  8
型材断面
  6
CONTINUOUS
 10
-25.904565
 20
52.147375
 11
-25.904565
 21
54.647375
  0
LINE
  8
型材断面
  6
CONTINUOUS
 10
-25.07123
 20
52.147375
 11
-25.07123
 21
54.647372
  0
LINE
  8
型材断面
  6
CONTINUOUS
 10
-58.404562
 20
23.48069
 11
-25.904565
 21
23.480715
  0
LINE
  8
型材断面
  6
CONTINUOUS
 10
-58.404562
 20
52.147375
 11
-25.904565
 21
52.14735
  0
LINE
  8
型材断面
  6
CONTINUOUS
 10
-78.106235
 20
20.050845
 11
-78.106235
 21
55.577218
  0
LINE
  8
型材断面
  6
CONTINUOUS
 10
-76.940555
 20
20.980677
 11
-77.176255
 21
21.216378
  0
LINE
  8
型材断面
  6
CONTINUOUS
 10
-74.440553
 20
23.480677
 11
-74.676253
 21
23.716378
  0
LINE
  8
型材断面
  6
CONTINUOUS
 10
-74.676253
 20
23.716378
 11
-77.176255
 21
21.216378
  0
LINE
  8
型材断面
  6
CONTINUOUS
 10
-74.440553
 20
23.480677
 11
-76.940555
 21
20.980677
  0
LINE
  8
型材断面
  6
CONTINUOUS
 10
-78.106088
 20
20.050845
 11
-77.058403
 21
21.098525
  0
LINE
  8
型材断面
  6
CONTINUOUS
 10
-77.176232
 20
37.814033
 11
-77.176255
 21
21.216378
  0
LINE
  8
型材断面
  6
CONTINUOUS
 10
-76.940555
 20
54.647387
 11
-77.176255
 21
54.411687
  0
LINE
  8
型材断面
  6
CONTINUOUS
 10
-74.676253
 20
51.911687
 11
-77.176255
 21
54.411687
  0
LINE
  8
型材断面
  6
CONTINUOUS
 10
-78.106088
 20
55.57722
 11
-77.058403
 21
54.52954
  0
LINE
  8
型材断面
  6
CONTINUOUS
 10
-74.440553
 20
52.147387
 11
-74.676253
 21
51.911687
  0
LINE
  8
型材断面
  6
CONTINUOUS
 10
-77.176232
 20
37.814033
 11
-77.176255
 21
54.411687
  0
LINE
  8
型材断面
  6
CONTINUOUS
 10
-74.440553
 20
52.147387
 11
-76.940555
 21
54.647387
  0
LINE
  8
型材断面
  6
CONTINUOUS
 10
-74.676232
 20
38.2307
 11
-77.176232
 21
38.2307
  0
LINE
  8
型材断面
  6
CONTINUOUS
 10
-74.676232
 20
37.397365
 11
-77.176232
 21
37.397365
  0
LINE
  8
型材断面
  6
CONTINUOUS
 10
-74.676232
 20
37.397365
 11
-74.676253
 21
23.716378
  0
LINE
  8
型材断面
  6
CONTINUOUS
 10
-74.676232
 20
38.2307
 11
-74.676253
 21
51.911687
  0
LINE
  8
型材断面
  6
CONTINUOUS
 10
-59.237897
 20
52.147375
 11
-74.440553
 21
52.147387
  0
LINE
  8
型材断面
  6
CONTINUOUS
 10
-59.237897
 20
23.48069
 11
-74.440553
 21
23.480677
  0
LINE
  8
型材断面
  6
CONTINUOUS
 10
-8.67623
 20
23.480727
 11
-25.07123
 21
23.480715
  0
LINE
  8
型材断面
  6
CONTINUOUS
 10
-8.67623
 20
52.147337
 11
-25.07123
 21
52.14735
  0
LINE
  8
型材断面
  6
CONTINUOUS
 10
-8.67623
 20
54.647335
 11
-76.940555
 21
54.647387
  0
LINE
  8
型材断面
  6
CONTINUOUS
 10
-8.67623
 20
20.98073
 11
-76.940555
 21
20.980677
  0
LINE
  8
型材断面
  6
CONTINUOUS
 10
60.253775
 20
-77.192947
 11
60.253775
 21
-77.529612
  0
LINE
  8
型材断面
  6
CONTINUOUS
 10
60.557107
 20
-73.096397
 11
60.753775
 21
-73.293065
  0
LINE
  8
型材断面
  6
CONTINUOUS
 10
60.753775
 20
-73.293065
 11
60.753775
 21
-77.192947
  0
LINE
  8
型材断面
  6
CONTINUOUS
 10
155.023705
 20
55.07722
 11
155.36037
 21
55.07722
  0
LINE
  8
型材断面
  6
CONTINUOUS
 10
150.927155
 20
55.380552
 11
151.123822
 21
55.57722
  0
LINE
  8
型材断面
  6
CONTINUOUS
 10
151.123822
 20
55.57722
 11
155.023705
 21
55.57722
  0
LINE
  8
型材断面
  6
CONTINUOUS
 10
155.36037
 20
55.07722
 11
155.36037
 21
37.814033
  0
LINE
  8
型材断面
  6
CONTINUOUS
 10
155.023705
 20
55.57722
 11
155.023705
 21
37.814033
  0
LINE
  8
型材断面
  6
CONTINUOUS
 62
    47
 10
150.9272
 20
55.380595
 11
150.9272
 21
37.814033
  0
LINE
  8
型材断面
  6
CONTINUOUS
 10
151.123822
 20
55.57722
 11
151.123822
 21
37.814033
  0
LINE
  8
型材断面
  6
CONTINUOUS
 10
155.023705
 20
20.550845
 11
155.36037
 21
20.550845
  0
LINE
  8
型材断面
  6
CONTINUOUS
 10
150.927155
 20
20.247513
 11
151.123822
 21
20.050845
  0
LINE
  8
型材断面
  6
CONTINUOUS
 10
151.123822
 20
20.050845
 11
155.023705
 21
20.050845
  0
LINE
  8
型材断面
  6
CONTINUOUS
 10
155.36037
 20
20.550845
 11
155.36037
 21
37.814033
  0
LINE
  8
型材断面
  6
CONTINUOUS
 10
155.023705
 20
20.050845
 11
155.023705
 21
37.814033
  0
LINE
  8
型材断面
  6
CONTINUOUS
 62
    47
 10
150.9272
 20
20.24747
 11
150.9272
 21
37.814033
  0
LINE
  8
型材断面
  6
CONTINUOUS
 10
151.123822
 20
20.050845
 11
151.123822
 21
37.814033
  0
LINE
  8
型材断面
  6
CONTINUOUS
 10
60.753775
 20
-77.192947
 11
-8.67623
 21
-77.192947
  0
LINE
  8
型材断面
  6
CONTINUOUS
 10
60.253775
 20
-77.529612
 11
-8.67623
 21
-77.529612
  0
LINE
  8
型材断面
  6
CONTINUOUS
 62
    47
 10
60.55715
 20
-73.096443
 11
-8.67623
 21
-73.096443
  0
LINE
  8
型材断面
  6
CONTINUOUS
 10
60.753775
 20
-73.293065
 11
-8.67623
 21
-73.293065
  0
LINE
  8
型材断面
  6
CONTINUOUS
 10
-77.606235
 20
-77.192947
 11
-77.606235
 21
-77.529612
  0
LINE
  8
型材断面
  6
CONTINUOUS
 10
-77.909567
 20
-73.096397
 11
-78.106235
 21
-73.293065
  0
LINE
  8
型材断面
  6
CONTINUOUS
 10
-78.106235
 20
-73.293065
 11
-78.106235
 21
-77.192947
  0
LINE
  8
型材断面
  6
CONTINUOUS
 10
-78.106235
 20
-77.192947
 11
-8.67623
 21
-77.192947
  0
LINE
  8
型材断面
  6
CONTINUOUS
 10
-77.606235
 20
-77.529612
 11
-8.67623
 21
-77.529612
  0
LINE
  8
型材断面
  6
CONTINUOUS
 62
    47
 10
-77.90961
 20
-73.096443
 11
-8.67623
 21
-73.096443
  0
LINE
  8
型材断面
  6
CONTINUOUS
 10
-78.106235
 20
-73.293065
 11
-8.67623
 21
-73.293065
  0
TEXT
  7
TextStyle03
  8
文字
  6
CONTINUOUS
 10
-16.85
 20
9.325
  1
可動装置側
 40
3.0
 72
     5
 11
-0.35
 21
9.325
  0
TEXT
  7
TextStyle03
  8
文字
  6
CONTINUOUS
 10
-16.85
 20
63.275
  1
可動装置側
 40
3.0
 72
     5
 11
-0.35
 21
63.275
  0
TEXT
  7
TextStyle03
  8
文字
  6
CONTINUOUS
 10
-126.45
 20
89.4
  1
はケーシング位置を示す
 40
3.0
 72
     5
 11
-89.7
 21
89.4
  0
TEXT
  7
TextStyle03
  8
文字
  6
CONTINUOUS
 10
-126.45
 20
86.025
  1
４ヶ所中1ヶ所に設定
 40
3.0
 72
     5
 11
-94.7625
 21
86.025
  0
TEXT
  7
TextStyle03
  8
文字
  6
CONTINUOUS
 10
-126.45
 20
94.925
  1
は排水穴位置を示す
 40
3.0
 72
     5
 11
-96.45
 21
94.925
  0
TEXT
  7
TextStyle03
  8
文字
  6
CONTINUOUS
 10
-96.35
 20
16.275
  1
アンカーピッチ
 40
3.0
 50
90.0
 72
     5
 11
-96.35
 21
39.525
  0
TEXT
  7
TextStyle03
  8
文字
  6
CONTINUOUS
 10
-67.25
 20
90.825
  1
アンカーピッチ
 40
3.0
 72
     5
 11
-44.0
 21
90.825
  0
TEXT
  7
TextStyle03
  8
文字
  6
CONTINUOUS
 10
-130.175
 20
80.05
  1
アンカー数量　１６ヶ所
 40
3.0
 72
     5
 11
-93.425
 21
80.05
  0
TEXT
  7
TextStyle03
  8
文字
  6
CONTINUOUS
 10
-130.225
 20
74.3
  1
アームユニット数　４ヶ所
 40
3.0
 72
     5
 11
-90.1
 21
74.3
  0
LINE
  8
文字
  6
CONTINUOUS
 10
149.119465
 20
55.577218
 11
92.010088
 21
55.577218
  0
LINE
  8
文字
  6
CONTINUOUS
 10
149.119465
 20
20.050845
 11
92.010088
 21
20.050845
  0
LINE
  8
文字
  6
CONTINUOUS
 10
135.240485
 20
61.81515
 11
135.240485
 21
56.902377
  0
LINE
  8
文字
  6
CONTINUOUS
 10
-78.106232
 20
-70.743062
 11
-78.106232
 21
-12.609317
  0
LINE
  8
文字
  6
CONTINUOUS
 10
60.753773
 20
-70.743062
 11
60.753773
 21
-12.609317
  0
LINE
  8
文字
  6
CONTINUOUS
 10
77.16726
 20
-57.409728
 11
63.866647
 21
-57.409728
  0
LINE
  8
文字
  6
CONTINUOUS
 10
120.64366
 20
-43.459155
 11
120.64366
 21
-53.062137
  0
LINE
  8
文字
  6
CONTINUOUS
 10
153.076993
 20
-43.459155
 11
153.076993
 21
-53.062137
  0
TEXT
  7
TextStyle03
  8
文字
  6
CONTINUOUS
 10
134.525
 20
-77.375
  1
網入り6.8t
 40
3.0
 72
     5
 11
151.2125
 21
-77.375
  0
TEXT
  7
TextStyle03
  8
文字
  6
CONTINUOUS
 10
141.2
 20
-82.05
  1
×４枚
 40
3.0
 72
     5
 11
150.95
 21
-82.05
  0
TEXT
  7
TextStyle03
  8
文字
  6
CONTINUOUS
 10
64.225
 20
125.25
  1
シリーズ：ＴＦＦＬ
 40
5.0
 72
     5
 11
114.225
 21
125.25
  0
TEXT
  7
TextStyle03
  8
文字
  6
CONTINUOUS
 10
64.225
 20
119.625
  1
　　　　　（上下可動）900×4000タイプ
 40
5.0
 72
     5
 11
167.6625
 21
119.625
  0
TEXT
  7
TextStyle03
  8
文字
  6
CONTINUOUS
 10
64.225
 20
114.0
  1
図面名　：外観姿図
 40
5.0
 72
     5
 11
114.225
 21
114.0
  0
TEXT
  7
TextStyle03
  8
文字
  6
CONTINUOUS
 10
64.225
 20
108.375
  1
　　　　　　
 40
5.0
 72
     5
 11
97.35
 21
108.375
  0
TEXT
  7
TextStyle03
  8
文字
  6
CONTINUOUS
 10
64.375
 20
104.525
  1
ＮＳコード：ＮＳＦＬ
 40
5.0
 72
     5
 11
120.0
 21
104.525
  0
INSERT
  2
*DIM_0002
  8
寸法
  6
CONTINUOUS
 10
0.0
 20
0.0
  0
INSERT
  2
*DIM_0003
  8
寸法
  6
CONTINUOUS
 10
0.0
 20
0.0
  0
INSERT
  2
*DIM_0004
  8
寸法
  6
CONTINUOUS
 10
0.0
 20
0.0
  0
INSERT
  2
*DIM_0005
  8
寸法
  6
CONTINUOUS
 10
0.0
 20
0.0
  0
INSERT
  2
*DIM_0006
  8
寸法
  6
CONTINUOUS
 10
0.0
 20
0.0
  0
INSERT
  2
*DIM_0007
  8
寸法
  6
CONTINUOUS
 10
0.0
 20
0.0
  0
INSERT
  2
*DIM_0008
  8
寸法
  6
CONTINUOUS
 10
0.0
 20
0.0
  0
INSERT
  2
*DIM_0009
  8
寸法
  6
CONTINUOUS
 10
0.0
 20
0.0
  0
INSERT
  2
*DIM_0010
  8
寸法
  6
CONTINUOUS
 10
0.0
 20
0.0
  0
INSERT
  2
*DIM_0011
  8
寸法
  6
CONTINUOUS
 10
0.0
 20
0.0
  0
INSERT
  2
*DIM_0012
  8
寸法
  6
CONTINUOUS
 10
0.0
 20
0.0
  0
INSERT
  2
*DIM_0013
  8
寸法
  6
CONTINUOUS
 10
0.0
 20
0.0
  0
INSERT
  2
*DIM_0014
  8
寸法
  6
CONTINUOUS
 10
0.0
 20
0.0
  0
INSERT
  2
*DIM_0015
  8
寸法
  6
CONTINUOUS
 10
0.0
 20
0.0
  0
INSERT
  2
*DIM_0016
  8
寸法
  6
CONTINUOUS
 10
0.0
 20
0.0
  0
INSERT
  2
*DIM_0021
  8
寸法
  6
CONTINUOUS
 10
0.0
 20
0.0
  0
INSERT
  2
*DIM_0022
  8
寸法
  6
CONTINUOUS
 10
0.0
 20
0.0
  0
INSERT
  2
*DIM_0023
  8
寸法
  6
CONTINUOUS
 10
0.0
 20
0.0
  0
INSERT
  2
*DIM_0024
  8
寸法
  6
CONTINUOUS
 10
0.0
 20
0.0
  0
INSERT
  2
*DIM_0025
  8
寸法
  6
CONTINUOUS
 10
0.0
 20
0.0
  0
INSERT
  2
*DIM_0026
  8
寸法
  6
CONTINUOUS
 10
0.0
 20
0.0
  0
LINE
  8
別途部材
  6
CONTINUOUS
 62
    47
 10
147.007152
 20
54.64722
 11
147.07382
 21
54.64722
  0
ARC
  8
別途部材
  6
CONTINUOUS
 62
    47
 10
147.007156
 20
54.547219
 40
0.1
 50
90.0
 51
180.0
  0
LINE
  8
別途部材
  6
CONTINUOUS
 62
    47
 10
147.07382
 20
54.490697
 11
148.57382
 21
54.490697
  0
LINE
  8
別途部材
  6
CONTINUOUS
 62
    47
 10
147.007152
 20
20.980842
 11
147.07382
 21
20.980842
  0
ARC
  8
別途部材
  6
CONTINUOUS
 62
    47
 10
147.007156
 20
21.080843
 40
0.1
 50
180.0
 51
270.0
  0
LINE
  8
別途部材
  6
CONTINUOUS
 62
    47
 10
147.07382
 20
21.137365
 11
148.57382
 21
21.137365
  0
LINE
  8
別途部材
  6
CONTINUOUS
 62
    47
 10
150.890488
 20
55.577218
 11
150.890488
 21
37.814033
  0
LINE
  8
別途部材
  6
CONTINUOUS
 62
    47
 10
149.723822
 20
55.577218
 11
149.723822
 21
37.814033
  0
LINE
  8
別途部材
  6
CONTINUOUS
 62
    47
 10
148.57382
 20
54.490697
 11
148.57382
 21
37.814033
  0
LINE
  8
別途部材
  6
CONTINUOUS
 62
    47
 10
147.07382
 20
54.64722
 11
147.07382
 21
37.814033
  0
LINE
  8
別途部材
  6
CONTINUOUS
 62
    47
 10
146.907152
 20
54.54722
 11
146.907152
 21
37.814033
  0
LINE
  8
別途部材
  6
CONTINUOUS
 62
    47
 10
150.890488
 20
20.050845
 11
150.890488
 21
37.814033
  0
LINE
  8
別途部材
  6
CONTINUOUS
 62
    47
 10
149.723822
 20
20.050845
 11
149.723822
 21
37.814033
  0
LINE
  8
別途部材
  6
CONTINUOUS
 62
    47
 10
147.07382
 20
20.980842
 11
147.07382
 21
37.814033
  0
LINE
  8
別途部材
  6
CONTINUOUS
 62
    47
 10
146.907152
 20
21.080842
 11
146.907152
 21
37.814033
  0
LINE
  8
別途部材
  6
CONTINUOUS
 62
    47
 10
148.57382
 20
21.137365
 11
148.57382
 21
37.814033
  0
LINE
  8
別途部材
  6
DOT
 62
    47
 10
135.340485
 20
54.64722
 11
135.407152
 21
54.64722
  0
ARC
  8
別途部材
  6
DOT
 62
    47
 10
135.340488
 20
54.547219
 40
0.1
 50
90.0
 51
180.0
  0
LINE
  8
別途部材
  6
DOT
 62
    47
 10
135.407152
 20
54.490697
 11
136.907152
 21
54.490697
  0
LINE
  8
別途部材
  6
DOT
 62
    47
 10
135.340485
 20
20.980842
 11
135.407152
 21
20.980842
  0
ARC
  8
別途部材
  6
DOT
 62
    47
 10
135.340488
 20
21.080843
 40
0.1
 50
180.0
 51
270.0
  0
LINE
  8
別途部材
  6
DOT
 62
    47
 10
135.407152
 20
21.137365
 11
136.907152
 21
21.137365
  0
LINE
  8
別途部材
  6
DOT
 62
    47
 10
139.22382
 20
55.577218
 11
139.22382
 21
37.814033
  0
LINE
  8
別途部材
  6
DOT
 62
    47
 10
138.057155
 20
55.577218
 11
138.057155
 21
37.814033
  0
LINE
  8
別途部材
  6
DOT
 62
    47
 10
136.907152
 20
54.490697
 11
136.907152
 21
37.814033
  0
LINE
  8
別途部材
  6
DOT
 62
    47
 10
135.407152
 20
54.64722
 11
135.407152
 21
37.814033
  0
LINE
  8
別途部材
  6
DOT
 62
    47
 10
135.240485
 20
54.54722
 11
135.240485
 21
37.814033
  0
LINE
  8
別途部材
  6
DOT
 62
    47
 10
138.057155
 20
20.050845
 11
138.057155
 21
37.814033
  0
LINE
  8
別途部材
  6
DOT
 62
    47
 10
139.22382
 20
20.050845
 11
139.22382
 21
37.814033
  0
LINE
  8
別途部材
  6
DOT
 62
    47
 10
135.407152
 20
20.980842
 11
135.407152
 21
37.814033
  0
LINE
  8
別途部材
  6
DOT
 62
    47
 10
135.240485
 20
21.080842
 11
135.240485
 21
37.814033
  0
LINE
  8
別途部材
  6
DOT
 62
    47
 10
136.907152
 20
21.137365
 11
136.907152
 21
37.814033
  0
LINE
  8
別途部材
  6
CONTINUOUS
 62
    47
 10
-77.176235
 20
-69.176395
 11
-77.176235
 21
-69.243062
  0
ARC
  8
別途部材
  6
CONTINUOUS
 62
    47
 10
-77.076233
 20
-69.1764
 40
0.1
 50
90.0
 51
180.0
  0
LINE
  8
別途部材
  6
CONTINUOUS
 62
    47
 10
-77.019712
 20
-69.243062
 11
-77.019712
 21
-70.743062
  0
LINE
  8
別途部材
  6
CONTINUOUS
 62
    47
 10
59.823775
 20
-69.176395
 11
59.823775
 21
-69.243062
  0
ARC
  8
別途部材
  6
CONTINUOUS
 62
    47
 10
59.72377
 20
-69.1764
 40
0.1
 50
0.0
 51
90.0
  0
LINE
  8
別途部材
  6
CONTINUOUS
 62
    47
 10
59.667252
 20
-69.243062
 11
59.667252
 21
-70.743062
  0
LINE
  8
別途部材
  6
CONTINUOUS
 62
    47
 10
-77.019712
 20
-70.743062
 11
-8.67623
 21
-70.743062
  0
LINE
  8
別途部材
  6
CONTINUOUS
 62
    47
 10
-77.076235
 20
-69.076395
 11
-8.67623
 21
-69.076395
  0
LINE
  8
別途部材
  6
CONTINUOUS
 62
    47
 10
-77.176235
 20
-69.243062
 11
-8.67623
 21
-69.243062
  0
LINE
  8
別途部材
  6
CONTINUOUS
 62
    47
 10
-78.106232
 20
-73.05973
 11
-8.67623
 21
-73.05973
  0
LINE
  8
別途部材
  6
CONTINUOUS
 62
    47
 10
-78.106232
 20
-71.893065
 11
-8.67623
 21
-71.893065
  0
LINE
  8
別途部材
  6
CONTINUOUS
 62
    47
 10
60.753773
 20
-73.05973
 11
-8.67623
 21
-73.05973
  0
LINE
  8
別途部材
  6
CONTINUOUS
 62
    47
 10
60.753773
 20
-71.893065
 11
-8.67623
 21
-71.893065
  0
LINE
  8
別途部材
  6
CONTINUOUS
 62
    47
 10
59.667252
 20
-70.743062
 11
-8.67623
 21
-70.743062
  0
LINE
  8
別途部材
  6
CONTINUOUS
 62
    47
 10
59.723775
 20
-69.076395
 11
-8.67623
 21
-69.076395
  0
LINE
  8
別途部材
  6
CONTINUOUS
 62
    47
 10
59.823775
 20
-69.243062
 11
-8.67623
 21
-69.243062
  0
LINE
  8
別途部材
  6
DOT
 62
    47
 10
-77.176235
 20
-57.509728
 11
-77.176235
 21
-57.576395
  0
ARC
  8
別途部材
  6
DOT
 62
    47
 10
-77.076233
 20
-57.509732
 40
0.1
 50
90.0
 51
180.0
  0
LINE
  8
別途部材
  6
DOT
 62
    47
 10
-77.019712
 20
-57.576395
 11
-77.019712
 21
-59.076395
  0
LINE
  8
別途部材
  6
DOT
 62
    47
 10
59.823775
 20
-57.509728
 11
59.823775
 21
-57.576395
  0
ARC
  8
別途部材
  6
DOT
 62
    47
 10
59.72377
 20
-57.509732
 40
0.1
 50
0.0
 51
90.0
  0
LINE
  8
別途部材
  6
DOT
 62
    47
 10
59.667252
 20
-57.576395
 11
59.667252
 21
-59.076395
  0
LINE
  8
別途部材
  6
DOT
 62
    47
 10
-77.176235
 20
-57.576395
 11
-8.67623
 21
-57.576395
  0
LINE
  8
別途部材
  6
DOT
 62
    47
 10
-77.076235
 20
-57.409728
 11
-8.67623
 21
-57.409728
  0
LINE
  8
別途部材
  6
DOT
 62
    47
 10
-78.106232
 20
-61.393062
 11
-8.67623
 21
-61.393062
  0
LINE
  8
別途部材
  6
DOT
 62
    47
 10
-78.106232
 20
-60.226397
 11
-8.67623
 21
-60.226397
  0
LINE
  8
別途部材
  6
DOT
 62
    47
 10
-77.019712
 20
-59.076395
 11
-8.67623
 21
-59.076395
  0
LINE
  8
別途部材
  6
DOT
 62
    47
 10
60.753773
 20
-60.226397
 11
-8.67623
 21
-60.226397
  0
LINE
  8
別途部材
  6
DOT
 62
    47
 10
60.753773
 20
-61.393062
 11
-8.67623
 21
-61.393062
  0
LINE
  8
別途部材
  6
DOT
 62
    47
 10
59.667252
 20
-59.076395
 11
-8.67623
 21
-59.076395
  0
LINE
  8
別途部材
  6
DOT
 62
    47
 10
59.823775
 20
-57.576395
 11
-8.67623
 21
-57.576395
  0
LINE
  8
別途部材
  6
DOT
 62
    47
 10
59.723775
 20
-57.409728
 11
-8.67623
 21
-57.409728
  0
LINE
  8
別途部材
  6
CONTINUOUS
 10
120.64366
 20
-53.785395
 11
120.64366
 21
-83.785395
  0
LINE
  8
曲げ物
  6
CONTINUOUS
 10
42.716167
 20
39.693362
 11
39.020855
 21
35.99805
  0
LINE
  8
曲げ物
  6
CONTINUOUS
 10
42.012697
 20
38.157252
 11
40.556968
 21
36.701522
  0
LINE
  8
曲げ物
  6
CONTINUOUS
 10
41.180057
 20
38.989892
 11
39.724328
 21
37.534162
  0
LINE
  8
曲げ物
  6
CONTINUOUS
 10
10.41293
 20
39.693362
 11
6.717618
 21
35.99805
  0
LINE
  8
曲げ物
  6
CONTINUOUS
 10
9.70946
 20
38.157252
 11
8.25373
 21
36.701522
  0
LINE
  8
曲げ物
  6
CONTINUOUS
 10
8.87682
 20
38.989892
 11
7.42109
 21
37.534162
  0
LINE
  8
曲げ物
  6
CONTINUOUS
 10
-22.68217
 20
39.693362
 11
-26.377483
 21
35.99805
  0
LINE
  8
曲げ物
  6
CONTINUOUS
 10
-23.38564
 20
38.157252
 11
-24.84137
 21
36.701522
  0
LINE
  8
曲げ物
  6
CONTINUOUS
 10
-24.21828
 20
38.989892
 11
-25.67401
 21
37.534162
  0
LINE
  8
曲げ物
  6
CONTINUOUS
 10
-56.347877
 20
39.693362
 11
-60.04319
 21
35.99805
  0
LINE
  8
曲げ物
  6
CONTINUOUS
 10
-57.051347
 20
38.157252
 11
-58.507078
 21
36.701522
  0
LINE
  8
曲げ物
  6
CONTINUOUS
 10
-57.883987
 20
38.989892
 11
-59.339718
 21
37.534162
  0
LINE
  8
曲げ物
  6
CONTINUOUS
 10
153.076993
 20
-53.785395
 11
120.64366
 21
-53.785395
  0
LINE
  8
曲げ物
  6
CONTINUOUS
 10
153.076993
 20
-83.785395
 11
120.64366
 21
-83.785395
  0
LINE
  8
曲げ物
  6
CONTINUOUS
 10
153.076993
 20
-53.785395
 11
153.076993
 21
-83.785395
  0
LINE
  8
鉄骨等
  6
CONTINUOUS
 62
    47
 10
150.890488
 20
55.577218
 11
149.723822
 21
55.577218
  0
LINE
  8
鉄骨等
  6
CONTINUOUS
 62
    47
 10
149.723822
 20
55.577218
 11
148.573822
 21
54.17403
  0
LINE
  8
鉄骨等
  6
CONTINUOUS
 62
    47
 10
150.890488
 20
20.050845
 11
149.723822
 21
20.050845
  0
LINE
  8
鉄骨等
  6
CONTINUOUS
 62
    47
 10
149.723822
 20
20.050845
 11
148.573822
 21
21.45403
  0
LINE
  8
鉄骨等
  6
DOT
 62
    47
 10
139.22382
 20
55.577218
 11
138.057155
 21
55.577218
  0
LINE
  8
鉄骨等
  6
DOT
 62
    47
 10
138.057155
 20
55.577218
 11
136.907155
 21
54.17403
  0
LINE
  8
鉄骨等
  6
DOT
 62
    47
 10
139.22382
 20
20.050845
 11
138.057155
 21
20.050845
  0
LINE
  8
鉄骨等
  6
DOT
 62
    47
 10
138.057155
 20
20.050845
 11
136.907155
 21
21.45403
  0
LINE
  8
鉄骨等
  6
CONTINUOUS
 62
    47
 10
-78.106232
 20
-73.05973
 11
-78.106232
 21
-71.893065
  0
LINE
  8
鉄骨等
  6
CONTINUOUS
 62
    47
 10
-78.106232
 20
-71.893065
 11
-76.703047
 21
-70.743065
  0
LINE
  8
鉄骨等
  6
CONTINUOUS
 62
    47
 10
60.753773
 20
-73.05973
 11
60.753773
 21
-71.893065
  0
LINE
  8
鉄骨等
  6
CONTINUOUS
 62
    47
 10
60.753773
 20
-71.893065
 11
59.350588
 21
-70.743065
  0
LINE
  8
鉄骨等
  6
DOT
 62
    47
 10
-78.106232
 20
-61.393062
 11
-78.106232
 21
-60.226397
  0
LINE
  8
鉄骨等
  6
DOT
 62
    47
 10
-78.106232
 20
-60.226397
 11
-76.703047
 21
-59.076397
  0
LINE
  8
鉄骨等
  6
DOT
 62
    47
 10
60.753773
 20
-61.393062
 11
60.753773
 21
-60.226397
  0
LINE
  8
鉄骨等
  6
DOT
 62
    47
 10
60.753773
 20
-60.226397
 11
59.350588
 21
-59.076397
  0
ENDSEC
  0
EOF
