  0
SECTION
  2
HEADER
  9
$EXTMIN
 10
-210.0
 20
-148.5
  9
$EXTMAX
 10
210.0
 20
148.5
  9
$PDMODE
 70
    32
  9
$PDSIZE
 40
1.5
  9
$LTSCALE
 40
10.0
  0
ENDSEC
  0
SECTION
  2
TABLES
  0
TABLE
  2
LTYPE
 70
    15
  0
LTYPE
  2
CONTINUOUS
 70
    64
  3
実線
 72
    65
 73
     0
 40
0.0
  0
LTYPE
  2
DASHED
 70
    64
  3
破線A
 72
    65
 73
     2
 40
0.6
 49
0.4
 49
-0.2
  0
LTYPE
  2
DASHEDX2
 70
    64
  3
破線B
 72
    65
 73
     2
 40
1.3
 49
0.9
 49
-0.4
  0
LTYPE
  2
DASHDOT
 70
    64
  3
１点鎖線A
 72
    65
 73
     4
 40
0.5375
 49
0.375
 49
-0.05
 49
0.0625
 49
-0.05
  0
LTYPE
  2
DASHDOTX2
 70
    64
  3
１点鎖線B
 72
    65
 73
     4
 40
1.075
 49
0.75
 49
-0.1
 49
0.125
 49
-0.1
  0
LTYPE
  2
DIVIDE2
 70
    64
  3
２点鎖線A
 72
    65
 73
     6
 40
0.5125
 49
0.3
 49
-0.0375
 49
0.05
 49
-0.0375
 49
0.05
 49
-0.0375
  0
LTYPE
  2
DIVIDE
 70
    64
  3
２点鎖線B
 72
    65
 73
     6
 40
1.05
 49
0.55
 49
-0.1
 49
0.1
 49
-0.1
 49
0.1
 49
-0.1
  0
LTYPE
  2
DOT
 70
    64
  3
点線A
 72
    65
 73
     2
 40
0.1125
 49
0.0625
 49
-0.05
  0
LTYPE
  2
DOTX2
 70
    64
  3
点線B
 72
    65
 73
     2
 40
0.275
 49
0.15
 49
-0.125
  0
LTYPE
  2
CONTINUOUS
 70
    64
  3
実線
 72
    65
 73
     0
 40
0.0
  0
LTYPE
  2
CONTINUOUS
 70
    64
  3
実線
 72
    65
 73
     0
 40
0.0
  0
LTYPE
  2
CONTINUOUS
 70
    64
  3
実線
 72
    65
 73
     0
 40
0.0
  0
LTYPE
  2
CONTINUOUS
 70
    64
  3
実線
 72
    65
 73
     0
 40
0.0
  0
LTYPE
  2
CONTINUOUS
 70
    64
  3
実線
 72
    65
 73
     0
 40
0.0
  0
LTYPE
  2
CONTINUOUS
 70
    64
  3
実線
 72
    65
 73
     0
 40
0.0
  0
ENDTAB
  0
TABLE
  2
LAYER
 70
    34
  0
LAYER
  2
通り芯
 70
     0
 62
    15
  6
CONTINUOUS
  0
LAYER
  2
補助線
 70
     0
 62
    16
  6
DOT
  0
LAYER
  2
躯体
 70
     0
 62
    31
  6
CONTINUOUS
  0
LAYER
  2
型材
 70
     0
 62
    32
  6
CONTINUOUS
  0
LAYER
  2
型材断面
 70
     0
 62
    47
  6
CONTINUOUS
  0
LAYER
  2
ガラス
 70
     0
 62
    48
  6
CONTINUOUS
  0
LAYER
  2
ゴム等
 70
     0
 62
    63
  6
CONTINUOUS
  0
LAYER
  2
ボルト／ビス
 70
     0
 62
    64
  6
CONTINUOUS
  0
LAYER
  2
文字
 70
     0
 62
    79
  6
CONTINUOUS
  0
LAYER
  2
寸法
 70
     0
 62
    80
  6
CONTINUOUS
  0
LAYER
  2
ﾊｯﾁﾝｸﾞ
 70
     0
 62
    95
  6
CONTINUOUS
  0
LAYER
  2
別途部材
 70
     0
 62
    96
  6
CONTINUOUS
  0
LAYER
  2
曲げ物
 70
     0
 62
   111
  6
CONTINUOUS
  0
LAYER
  2
鉄骨等
 70
     0
 62
   112
  6
CONTINUOUS
  0
LAYER
  2
St
 70
     0
 62
   127
  6
CONTINUOUS
  0
LAYER
  2
その他部品等
 70
     0
 62
   128
  6
CONTINUOUS
  0
LAYER
  2
ｶﾞｽｹｯﾄ
 70
     0
 62
   143
  6
CONTINUOUS
  0
LAYER
  2
ｽｹｯﾁ
 70
     0
 62
    14
  6
CONTINUOUS
  0
LAYER
  2
0
 70
     0
 62
    17
  6
CONTINUOUS
  0
LAYER
  2
1
 70
     0
 62
    30
  6
CONTINUOUS
  0
LAYER
  2
4
 70
     0
 62
    33
  6
CONTINUOUS
  0
LAYER
  2
ﾚｲﾔ3
 70
     0
 62
    46
  6
CONTINUOUS
  0
LAYER
  2
外形線
 70
     0
 62
    49
  6
CONTINUOUS
  0
LAYER
  2
部品
 70
     0
 62
    14
  6
CONTINUOUS
  0
LAYER
  2
サッシ芯
 70
     0
 62
    17
  6
DASHDOTX2
  0
LAYER
  2
寸法線
 70
     0
 62
    62
  6
CONTINUOUS
  0
LAYER
  2
姿図外形線
 70
     0
 62
    65
  6
CONTINUOUS
  0
LAYER
  2
姿補助線
 70
     0
 62
    30
  6
CONTINUOUS
  0
LAYER
  2
透視線
 70
     0
 62
    78
  6
DOT
  0
LAYER
  2
用紙
 70
     0
 62
    81
  6
CONTINUOUS
  0
LAYER
  2
実線図枠
 70
     0
 62
    94
  6
CONTINUOUS
  0
LAYER
  2
補助図枠
 70
     0
 62
    97
  6
CONTINUOUS
  0
LAYER
  2
建具記号
 70
     0
 62
   110
  6
CONTINUOUS
  0
LAYER
  2
補助文字
 70
     0
 62
   113
  6
CONTINUOUS
  0
ENDTAB
  0
TABLE
  2
STYLE
 70
    10
  0
STYLE
  2
STANDARD
 70
     0
 40
1.0
 41
1.0
 42
1.0
 50
0.0
 71
     0
  3
TXT
  4
BIGFONT
  0
STYLE
  2
TATE
 70
     4
 40
1.0
 41
1.0
 42
1.0
 50
0.0
 71
     0
  3
TXT
  4
BIGFONT
  0
STYLE
  2
TextStyle03
 70
     0
 40
1.0
 41
1.0
 42
1.0
 50
0.0
 71
     0
  3
MONOTXT
  4
BIGFONT
  0
STYLE
  2
TextStyle04
 70
     0
 40
1.0
 41
1.0
 42
1.0
 50
0.0
 71
     0
  3
MONOTXT
  4
BIGFONT
  0
STYLE
  2
TextStyle05
 70
     0
 40
1.0
 41
1.0
 42
1.0
 50
0.0
 71
     0
  3
MONOTXT
  4
BIGFONT
  0
STYLE
  2
TextStyle06
 70
     0
 40
1.0
 41
1.0
 42
1.0
 50
0.0
 71
     0
  3
MONOTXT
  4
BIGFONT
  0
STYLE
  2
TextStyle07
 70
     0
 40
1.0
 41
1.0
 42
1.0
 50
0.0
 71
     0
  3
MONOTXT
  4
BIGFONT
  0
STYLE
  2
TextStyle08
 70
     0
 40
1.0
 41
1.0
 42
1.0
 50
0.0
 71
     0
  3
MONOTXT
  4
BIGFONT
  0
STYLE
  2
TextStyle09
 70
     0
 40
1.0
 41
1.0
 42
1.0
 50
0.0
 71
     0
  3
MONOTXT
  4
BIGFONT
  0
STYLE
  2
TextStyle10
 70
     0
 40
1.0
 41
1.0
 42
1.0
 50
0.0
 71
     0
  3
MONOTXT
  4
BIGFONT
  0
ENDTAB
  0
ENDSEC
  0
SECTION
  2
BLOCKS
  0
BLOCK
  2
*GRP_0001
 70
    65
 10
0.0
 20
0.0
  0
LINE
  8
型材断面
  6
CONTINUOUS
 10
195.0
 20
133.5
 11
195.0
 21
-133.5
  0
LINE
  8
型材断面
  6
CONTINUOUS
 10
195.0
 20
-133.5
 11
-185.0
 21
-133.5
  0
LINE
  8
型材断面
  6
CONTINUOUS
 10
-185.0
 20
-133.5
 11
-185.0
 21
133.5
  0
LINE
  8
型材断面
  6
CONTINUOUS
 10
195.0
 20
133.5
 11
-185.0
 21
133.5
  0
LINE
  8
型材断面
  6
CONTINUOUS
 10
145.0
 20
-133.5
 11
145.0
 21
-118.5
  0
LINE
  8
型材断面
  6
CONTINUOUS
 10
195.0
 20
-118.5
 11
145.0
 21
-118.5
  0
ENDBLK
  0
BLOCK
  2
*DIM_0002
 70
    65
 10
0.0
 20
0.0
  0
LINE
  8
寸法
  6
BYBLOCK
 62
     0
 10
-61.930265
 20
19.183902
 11
-61.930265
 21
14.10329
  0
LINE
  8
寸法
  6
BYBLOCK
 62
     0
 10
4.7364
 20
19.183902
 11
4.7364
 21
14.10329
  0
LINE
  8
寸法
  6
BYBLOCK
 62
     0
 10
-61.930265
 20
14.10329
 11
4.7364
 21
14.10329
  0
POINT
  8
寸法
 62
     0
 10
-61.930265
 20
14.10329
  0
POINT
  8
寸法
 62
     0
 10
4.7364
 20
14.10329
  0
TEXT
  7
TextStyle03
  8
寸法
  6
CONTINUOUS
 62
     0
 10
-31.88125
 20
14.475
  1
2000
 40
3.0
 72
     5
 11
-25.31875
 21
14.475
  0
ENDBLK
  0
BLOCK
  2
*DIM_0003
 70
    65
 10
0.0
 20
0.0
  0
LINE
  8
寸法
  6
BYBLOCK
 62
     0
 10
22.403067
 20
52.814035
 11
32.12735
 21
52.814035
  0
LINE
  8
寸法
  6
BYBLOCK
 62
     0
 10
25.033197
 20
49.114035
 11
32.12735
 21
49.114035
  0
LINE
  8
寸法
  6
BYBLOCK
 62
     0
 10
32.12735
 20
52.814035
 11
32.12735
 21
49.114035
  0
POINT
  8
寸法
 62
     0
 10
32.12735
 20
52.814035
  0
POINT
  8
寸法
 62
     0
 10
32.12735
 20
49.114035
  0
TEXT
  7
TextStyle03
  8
寸法
  6
CONTINUOUS
 62
     0
 10
31.8
 20
53.8125
  1
111
 40
3.0
 50
90.0
 72
     5
 11
31.8
 21
58.6875
  0
ENDBLK
  0
BLOCK
  2
*DIM_0004
 70
    65
 10
0.0
 20
0.0
  0
LINE
  8
寸法
  6
BYBLOCK
 62
     0
 10
22.403067
 20
22.81403
 11
32.12735
 21
22.814027
  0
LINE
  8
寸法
  6
BYBLOCK
 62
     0
 10
25.033197
 20
26.51403
 11
32.12735
 21
26.514027
  0
LINE
  8
寸法
  6
BYBLOCK
 62
     0
 10
32.12735
 20
22.814027
 11
32.12735
 21
26.514027
  0
POINT
  8
寸法
 62
     0
 10
32.12735
 20
22.814027
  0
POINT
  8
寸法
 62
     0
 10
32.12735
 20
26.514027
  0
TEXT
  7
TextStyle03
  8
寸法
  6
CONTINUOUS
 62
     0
 10
31.8
 20
16.9375
  1
111
 40
3.0
 50
90.0
 72
     5
 11
31.8
 21
21.8125
  0
ENDBLK
  0
BLOCK
  2
*DIM_0005
 70
    65
 10
0.0
 20
0.0
  0
LINE
  8
寸法
  6
BYBLOCK
 62
     0
 10
-81.596933
 20
47.814033
 11
-94.88977
 21
47.814033
  0
LINE
  8
寸法
  6
BYBLOCK
 62
     0
 10
-81.596933
 20
27.814033
 11
-94.88977
 21
27.814033
  0
LINE
  8
寸法
  6
BYBLOCK
 62
     0
 10
-94.88977
 20
47.814033
 11
-94.88977
 21
27.814033
  0
POINT
  8
寸法
 62
     0
 10
-94.88977
 20
47.814033
  0
POINT
  8
寸法
 62
     0
 10
-94.88977
 20
27.814033
  0
TEXT
  7
TextStyle03
  8
寸法
  6
CONTINUOUS
 62
     0
 10
-95.25
 20
35.3625
  1
600
 40
3.0
 50
90.0
 72
     5
 11
-95.25
 21
40.2375
  0
ENDBLK
  0
BLOCK
  2
*DIM_0006
 70
    65
 10
0.0
 20
0.0
  0
LINE
  8
寸法
  6
BYBLOCK
 62
     0
 10
-68.596933
 20
55.814033
 11
-68.596933
 21
84.922105
  0
LINE
  8
寸法
  6
BYBLOCK
 62
     0
 10
-41.930265
 20
55.814033
 11
-41.930265
 21
84.922105
  0
LINE
  8
寸法
  6
BYBLOCK
 62
     0
 10
-68.596933
 20
84.922105
 11
-41.930265
 21
84.922105
  0
POINT
  8
寸法
 62
     0
 10
-68.596933
 20
84.922105
  0
POINT
  8
寸法
 62
     0
 10
-41.930265
 20
84.922105
  0
TEXT
  7
TextStyle03
  8
寸法
  6
CONTINUOUS
 62
     0
 10
-57.7375
 20
85.275
  1
800
 40
3.0
 72
     5
 11
-52.8625
 21
85.275
  0
ENDBLK
  0
BLOCK
  2
*DIM_0007
 70
    65
 10
0.0
 20
0.0
  0
LINE
  8
寸法
  6
BYBLOCK
 62
     0
 10
-15.2636
 20
55.814033
 11
-15.2636
 21
84.922105
  0
LINE
  8
寸法
  6
BYBLOCK
 62
     0
 10
-41.930265
 20
84.922105
 11
-15.2636
 21
84.922105
  0
POINT
  8
寸法
 62
     0
 10
-15.2636
 20
84.922105
  0
TEXT
  7
TextStyle03
  8
寸法
  6
CONTINUOUS
 62
     0
 10
-31.0625
 20
85.275
  1
800
 40
3.0
 72
     5
 11
-26.1875
 21
85.275
  0
ENDBLK
  0
BLOCK
  2
*DIM_0008
 70
    65
 10
0.0
 20
0.0
  0
LINE
  8
寸法
  6
BYBLOCK
 62
     0
 10
11.403067
 20
55.814033
 11
11.403067
 21
84.922105
  0
LINE
  8
寸法
  6
BYBLOCK
 62
     0
 10
-15.2636
 20
84.922105
 11
11.403067
 21
84.922105
  0
POINT
  8
寸法
 62
     0
 10
11.403067
 20
84.922105
  0
TEXT
  7
TextStyle03
  8
寸法
  6
CONTINUOUS
 62
     0
 10
-4.3875
 20
85.275
  1
800
 40
3.0
 72
     5
 11
0.4875
 21
85.275
  0
ENDBLK
  0
BLOCK
  2
*DIM_0009
 70
    65
 10
0.0
 20
0.0
  0
LINE
  8
寸法
  6
CONTINUOUS
 10
55.422717
 20
55.577218
 11
55.422717
 21
52.814033
  0
POINT
  8
寸法
 10
55.422717
 20
55.577218
  0
POINT
  8
寸法
 10
55.422717
 20
52.814033
  0
TEXT
  7
TextStyle03
  8
寸法
  6
CONTINUOUS
 10
56.8
 20
56.64375
  1
82.9
 40
3.0
 50
90.0
 72
     5
 11
56.8
 21
63.20625
  0
ENDBLK
  0
BLOCK
  2
*DIM_0010
 70
    65
 10
0.0
 20
0.0
  0
LINE
  8
寸法
  6
CONTINUOUS
 10
55.422717
 20
22.814033
 11
55.422717
 21
20.050845
  0
POINT
  8
寸法
 10
55.422717
 20
22.814033
  0
POINT
  8
寸法
 10
55.422717
 20
20.050845
  0
TEXT
  7
TextStyle03
  8
寸法
  6
CONTINUOUS
 10
56.8
 20
12.41875
  1
82.9
 40
3.0
 50
90.0
 72
     5
 11
56.8
 21
18.98125
  0
ENDBLK
  0
BLOCK
  2
*DIM_0011
 70
    65
 10
0.0
 20
0.0
  0
LINE
  8
寸法
  6
CONTINUOUS
 10
55.422717
 20
52.814033
 11
55.422717
 21
22.814033
  0
POINT
  8
寸法
 10
55.422717
 20
52.814033
  0
POINT
  8
寸法
 10
55.422717
 20
22.814033
  0
TEXT
  7
TextStyle03
  8
寸法
  6
CONTINUOUS
 10
55.0
 20
26.925
  1
呼称寸法　900
 40
3.0
 50
90.0
 72
     5
 11
55.0
 21
48.675
  0
ENDBLK
  0
BLOCK
  2
*DIM_0012
 70
    65
 10
0.0
 20
0.0
  0
LINE
  8
寸法
  6
CONTINUOUS
 10
-78.596935
 20
-12.609317
 11
-81.360268
 21
-12.609317
  0
POINT
  8
寸法
 10
-78.596935
 20
-12.609317
  0
POINT
  8
寸法
 10
-81.360268
 20
-12.609317
  0
TEXT
  7
TextStyle03
  8
寸法
  6
CONTINUOUS
 10
-85.93125
 20
-11.7
  1
82.9
 40
3.0
 72
     5
 11
-79.36875
 21
-11.7
  0
ENDBLK
  0
BLOCK
  2
*DIM_0013
 70
    65
 10
0.0
 20
0.0
  0
LINE
  8
寸法
  6
CONTINUOUS
 10
24.166403
 20
-12.609317
 11
21.403067
 21
-12.609317
  0
POINT
  8
寸法
 10
24.166403
 20
-12.609317
  0
POINT
  8
寸法
 10
21.403067
 20
-12.609317
  0
TEXT
  7
TextStyle03
  8
寸法
  6
CONTINUOUS
 10
22.49375
 20
-11.75
  1
82.9
 40
3.0
 72
     5
 11
29.05625
 21
-11.75
  0
ENDBLK
  0
BLOCK
  2
*DIM_0014
 70
    65
 10
0.0
 20
0.0
  0
LINE
  8
寸法
  6
CONTINUOUS
 10
-78.596935
 20
-12.609317
 11
21.403065
 21
-12.609317
  0
POINT
  8
寸法
 10
-78.596935
 20
-12.609317
  0
POINT
  8
寸法
 10
21.403065
 20
-12.609317
  0
TEXT
  7
TextStyle03
  8
寸法
  6
CONTINUOUS
 10
-40.31875
 20
-12.275
  1
呼称寸法　3000
 40
3.0
 72
     5
 11
-16.88125
 21
-12.275
  0
ENDBLK
  0
BLOCK
  2
*GRP_0015
 70
    65
 10
0.0
 20
0.0
  0
LINE
  8
補助線
  6
BYBLOCK
 62
    64
 10
-75.199855
 20
-74.59943
 11
-75.32734
 21
-74.70679
  0
LINE
  8
補助線
  6
BYBLOCK
 62
    64
 10
-75.317278
 20
-74.589365
 11
-75.209918
 21
-74.716853
  0
LINE
  8
補助線
  6
BYBLOCK
 62
    64
 10
-66.709437
 20
-67.449407
 11
-66.836923
 21
-67.556762
  0
LINE
  8
補助線
  6
BYBLOCK
 62
    64
 10
-66.82686
 20
-67.439343
 11
-66.7195
 21
-67.566825
  0
LINE
  8
補助線
  6
BYBLOCK
 62
    64
 10
-58.346503
 20
-60.406737
 11
-58.21902
 21
-60.29938
  0
LINE
  8
補助線
  6
BYBLOCK
 62
    64
 10
-58.336442
 20
-60.289315
 11
-58.229083
 21
-60.416802
  0
LINE
  8
型材断面
  6
CONTINUOUS
 10
-76.055353
 20
-74.230407
 11
-76.11573
 21
-74.934933
  0
LINE
  8
型材断面
  6
CONTINUOUS
 10
-76.11573
 20
-74.934933
 11
-75.686297
 21
-75.444867
  0
LINE
  8
型材断面
  6
CONTINUOUS
 10
-75.686297
 20
-75.444867
 11
-74.981772
 21
-75.505245
  0
LINE
  8
型材断面
  6
CONTINUOUS
 10
-58.564585
 20
-59.500928
 11
-57.86006
 21
-59.561305
  0
LINE
  8
型材断面
  6
CONTINUOUS
 10
-57.86006
 20
-59.561305
 11
-57.430627
 21
-60.07124
  0
LINE
  8
型材断面
  6
CONTINUOUS
 10
-57.430627
 20
-60.07124
 11
-57.491005
 21
-60.775765
  0
LINE
  8
型材断面
  6
CONTINUOUS
 10
-76.055353
 20
-74.230407
 11
-58.564585
 21
-59.500928
  0
LINE
  8
型材断面
  6
CONTINUOUS
 10
-74.981772
 20
-75.505245
 11
-57.491005
 21
-60.775765
  0
CIRCLE
  8
ボルト／ビス
  6
CONTINUOUS
 10
-75.263598
 20
-74.65311
 40
0.250185
  0
CIRCLE
  8
ボルト／ビス
  6
CONTINUOUS
 10
-75.263598
 20
-74.65311
 40
0.301025
  0
LINE
  8
ボルト／ビス
  6
CONTINUOUS
 62
    64
 10
-75.509905
 20
-74.696993
 11
-75.424752
 21
-74.461745
  0
LINE
  8
ボルト／ビス
  6
CONTINUOUS
 62
    64
 10
-75.178445
 20
-74.41786
 11
-75.424752
 21
-74.461745
  0
LINE
  8
ボルト／ビス
  6
CONTINUOUS
 62
    64
 10
-75.34875
 20
-74.88836
 11
-75.102442
 21
-74.844475
  0
LINE
  8
ボルト／ビス
  6
CONTINUOUS
 62
    64
 10
-75.01729
 20
-74.609228
 11
-75.102442
 21
-74.844475
  0
LINE
  8
ボルト／ビス
  6
CONTINUOUS
 62
    64
 10
-75.509905
 20
-74.696993
 11
-75.34875
 21
-74.88836
  0
LINE
  8
ボルト／ビス
  6
CONTINUOUS
 62
    64
 10
-75.178445
 20
-74.41786
 11
-75.01729
 21
-74.609228
  0
CIRCLE
  8
ボルト／ビス
  6
CONTINUOUS
 62
    64
 10
-75.263598
 20
-74.65311
 40
0.216668
  0
CIRCLE
  8
ボルト／ビス
  6
CONTINUOUS
 10
-66.77318
 20
-67.503085
 40
0.250185
  0
CIRCLE
  8
ボルト／ビス
  6
CONTINUOUS
 10
-66.77318
 20
-67.503085
 40
0.301025
  0
LINE
  8
ボルト／ビス
  6
CONTINUOUS
 62
    64
 10
-67.019488
 20
-67.546968
 11
-66.934335
 21
-67.311718
  0
LINE
  8
ボルト／ビス
  6
CONTINUOUS
 62
    64
 10
-66.688028
 20
-67.267835
 11
-66.934335
 21
-67.311718
  0
LINE
  8
ボルト／ビス
  6
CONTINUOUS
 62
    64
 10
-66.858332
 20
-67.738335
 11
-66.612022
 21
-67.694452
  0
LINE
  8
ボルト／ビス
  6
CONTINUOUS
 62
    64
 10
-66.526872
 20
-67.459205
 11
-66.612022
 21
-67.694452
  0
LINE
  8
ボルト／ビス
  6
CONTINUOUS
 62
    64
 10
-67.019488
 20
-67.546968
 11
-66.858332
 21
-67.738335
  0
LINE
  8
ボルト／ビス
  6
CONTINUOUS
 62
    64
 10
-66.688028
 20
-67.267835
 11
-66.526872
 21
-67.459205
  0
CIRCLE
  8
ボルト／ビス
  6
CONTINUOUS
 62
    64
 10
-66.77318
 20
-67.503085
 40
0.216668
  0
CIRCLE
  8
ボルト／ビス
  6
CONTINUOUS
 10
-58.28276
 20
-60.35306
 40
0.250185
  0
CIRCLE
  8
ボルト／ビス
  6
CONTINUOUS
 10
-58.28276
 20
-60.35306
 40
0.301025
  0
LINE
  8
ボルト／ビス
  6
CONTINUOUS
 62
    64
 10
-58.197607
 20
-60.11781
 11
-58.443918
 21
-60.161695
  0
LINE
  8
ボルト／ビス
  6
CONTINUOUS
 62
    64
 10
-58.52907
 20
-60.396943
 11
-58.443918
 21
-60.161695
  0
LINE
  8
ボルト／ビス
  6
CONTINUOUS
 62
    64
 10
-58.036455
 20
-60.309177
 11
-58.121605
 21
-60.544425
  0
LINE
  8
ボルト／ビス
  6
CONTINUOUS
 62
    64
 10
-58.367915
 20
-60.58831
 11
-58.121605
 21
-60.544425
  0
LINE
  8
ボルト／ビス
  6
CONTINUOUS
 62
    64
 10
-58.197607
 20
-60.11781
 11
-58.036455
 21
-60.309177
  0
LINE
  8
ボルト／ビス
  6
CONTINUOUS
 62
    64
 10
-58.52907
 20
-60.396943
 11
-58.367915
 21
-60.58831
  0
CIRCLE
  8
ボルト／ビス
  6
CONTINUOUS
 62
    64
 10
-58.28276
 20
-60.35306
 40
0.216668
  0
ENDBLK
  0
BLOCK
  2
*GRP_0016
 70
    65
 10
0.0
 20
0.0
  0
LINE
  8
補助線
  6
BYBLOCK
 62
    64
 10
-58.346505
 20
-74.59943
 11
-58.21902
 21
-74.70679
  0
LINE
  8
補助線
  6
BYBLOCK
 62
    64
 10
-58.229083
 20
-74.589365
 11
-58.336442
 21
-74.716853
  0
LINE
  8
補助線
  6
BYBLOCK
 62
    64
 10
-66.836923
 20
-67.449407
 11
-66.709437
 21
-67.556762
  0
LINE
  8
補助線
  6
BYBLOCK
 62
    64
 10
-66.7195
 20
-67.439343
 11
-66.82686
 21
-67.566825
  0
LINE
  8
補助線
  6
BYBLOCK
 62
    64
 10
-75.199857
 20
-60.406737
 11
-75.32734
 21
-60.29938
  0
LINE
  8
補助線
  6
BYBLOCK
 62
    64
 10
-75.209918
 20
-60.289315
 11
-75.317278
 21
-60.416802
  0
LINE
  8
型材断面
  6
CONTINUOUS
 10
-57.491007
 20
-74.230407
 11
-57.43063
 21
-74.934933
  0
LINE
  8
型材断面
  6
CONTINUOUS
 10
-57.43063
 20
-74.934933
 11
-57.860063
 21
-75.444867
  0
LINE
  8
型材断面
  6
CONTINUOUS
 10
-57.860063
 20
-75.444867
 11
-58.564588
 21
-75.505245
  0
LINE
  8
型材断面
  6
CONTINUOUS
 10
-74.981775
 20
-59.500928
 11
-75.6863
 21
-59.561305
  0
LINE
  8
型材断面
  6
CONTINUOUS
 10
-75.6863
 20
-59.561305
 11
-76.115733
 21
-60.07124
  0
LINE
  8
型材断面
  6
CONTINUOUS
 10
-76.115733
 20
-60.07124
 11
-76.055355
 21
-60.775765
  0
LINE
  8
型材断面
  6
CONTINUOUS
 10
-57.491007
 20
-74.230407
 11
-74.981775
 21
-59.500928
  0
LINE
  8
型材断面
  6
CONTINUOUS
 10
-58.564588
 20
-75.505245
 11
-76.055355
 21
-60.775765
  0
CIRCLE
  8
ボルト／ビス
  6
CONTINUOUS
 10
-58.282762
 20
-74.65311
 40
0.250185
  0
CIRCLE
  8
ボルト／ビス
  6
CONTINUOUS
 10
-58.282762
 20
-74.65311
 40
0.301025
  0
LINE
  8
ボルト／ビス
  6
CONTINUOUS
 62
    64
 10
-58.036455
 20
-74.696993
 11
-58.121608
 21
-74.461745
  0
LINE
  8
ボルト／ビス
  6
CONTINUOUS
 62
    64
 10
-58.367915
 20
-74.41786
 11
-58.121608
 21
-74.461745
  0
LINE
  8
ボルト／ビス
  6
CONTINUOUS
 62
    64
 10
-58.19761
 20
-74.88836
 11
-58.443918
 21
-74.844475
  0
LINE
  8
ボルト／ビス
  6
CONTINUOUS
 62
    64
 10
-58.52907
 20
-74.609228
 11
-58.443918
 21
-74.844475
  0
LINE
  8
ボルト／ビス
  6
CONTINUOUS
 62
    64
 10
-58.036455
 20
-74.696993
 11
-58.19761
 21
-74.88836
  0
LINE
  8
ボルト／ビス
  6
CONTINUOUS
 62
    64
 10
-58.367915
 20
-74.41786
 11
-58.52907
 21
-74.609228
  0
CIRCLE
  8
ボルト／ビス
  6
CONTINUOUS
 62
    64
 10
-58.282762
 20
-74.65311
 40
0.216668
  0
CIRCLE
  8
ボルト／ビス
  6
CONTINUOUS
 10
-66.77318
 20
-67.503085
 40
0.250185
  0
CIRCLE
  8
ボルト／ビス
  6
CONTINUOUS
 10
-66.77318
 20
-67.503085
 40
0.301025
  0
LINE
  8
ボルト／ビス
  6
CONTINUOUS
 62
    64
 10
-66.526872
 20
-67.546968
 11
-66.612025
 21
-67.311718
  0
LINE
  8
ボルト／ビス
  6
CONTINUOUS
 62
    64
 10
-66.858332
 20
-67.267835
 11
-66.612025
 21
-67.311718
  0
LINE
  8
ボルト／ビス
  6
CONTINUOUS
 62
    64
 10
-66.688028
 20
-67.738335
 11
-66.934338
 21
-67.694452
  0
LINE
  8
ボルト／ビス
  6
CONTINUOUS
 62
    64
 10
-67.019488
 20
-67.459205
 11
-66.934338
 21
-67.694452
  0
LINE
  8
ボルト／ビス
  6
CONTINUOUS
 62
    64
 10
-66.526872
 20
-67.546968
 11
-66.688028
 21
-67.738335
  0
LINE
  8
ボルト／ビス
  6
CONTINUOUS
 62
    64
 10
-66.858332
 20
-67.267835
 11
-67.019488
 21
-67.459205
  0
CIRCLE
  8
ボルト／ビス
  6
CONTINUOUS
 62
    64
 10
-66.77318
 20
-67.503085
 40
0.216668
  0
CIRCLE
  8
ボルト／ビス
  6
CONTINUOUS
 10
-75.2636
 20
-60.35306
 40
0.250185
  0
CIRCLE
  8
ボルト／ビス
  6
CONTINUOUS
 10
-75.2636
 20
-60.35306
 40
0.301025
  0
LINE
  8
ボルト／ビス
  6
CONTINUOUS
 62
    64
 10
-75.348752
 20
-60.11781
 11
-75.102442
 21
-60.161695
  0
LINE
  8
ボルト／ビス
  6
CONTINUOUS
 62
    64
 10
-75.01729
 20
-60.396943
 11
-75.102442
 21
-60.161695
  0
LINE
  8
ボルト／ビス
  6
CONTINUOUS
 62
    64
 10
-75.509905
 20
-60.309177
 11
-75.424755
 21
-60.544425
  0
LINE
  8
ボルト／ビス
  6
CONTINUOUS
 62
    64
 10
-75.178445
 20
-60.58831
 11
-75.424755
 21
-60.544425
  0
LINE
  8
ボルト／ビス
  6
CONTINUOUS
 62
    64
 10
-75.348752
 20
-60.11781
 11
-75.509905
 21
-60.309177
  0
LINE
  8
ボルト／ビス
  6
CONTINUOUS
 62
    64
 10
-75.01729
 20
-60.396943
 11
-75.178445
 21
-60.58831
  0
CIRCLE
  8
ボルト／ビス
  6
CONTINUOUS
 62
    64
 10
-75.2636
 20
-60.35306
 40
0.216668
  0
ENDBLK
  0
BLOCK
  2
*GRP_0017
 70
    65
 10
0.0
 20
0.0
  0
LINE
  8
補助線
  6
BYBLOCK
 62
    64
 10
18.005995
 20
-74.59943
 11
18.13348
 21
-74.70679
  0
LINE
  8
補助線
  6
BYBLOCK
 62
    64
 10
18.123417
 20
-74.589365
 11
18.016057
 21
-74.716853
  0
LINE
  8
補助線
  6
BYBLOCK
 62
    64
 10
9.515577
 20
-67.449407
 11
9.643063
 21
-67.556762
  0
LINE
  8
補助線
  6
BYBLOCK
 62
    64
 10
9.633
 20
-67.439343
 11
9.52564
 21
-67.566825
  0
LINE
  8
補助線
  6
BYBLOCK
 62
    64
 10
1.152643
 20
-60.406737
 11
1.02516
 21
-60.29938
  0
LINE
  8
補助線
  6
BYBLOCK
 62
    64
 10
1.142583
 20
-60.289315
 11
1.035223
 21
-60.416802
  0
LINE
  8
型材断面
  6
CONTINUOUS
 10
18.861492
 20
-74.230407
 11
18.92187
 21
-74.934933
  0
LINE
  8
型材断面
  6
CONTINUOUS
 10
18.92187
 20
-74.934933
 11
18.492438
 21
-75.444867
  0
LINE
  8
型材断面
  6
CONTINUOUS
 10
18.492438
 20
-75.444867
 11
17.787912
 21
-75.505245
  0
LINE
  8
型材断面
  6
CONTINUOUS
 10
1.370725
 20
-59.500928
 11
0.6662
 21
-59.561305
  0
LINE
  8
型材断面
  6
CONTINUOUS
 10
0.6662
 20
-59.561305
 11
0.236767
 21
-60.07124
  0
LINE
  8
型材断面
  6
CONTINUOUS
 10
0.236767
 20
-60.07124
 11
0.297145
 21
-60.775765
  0
LINE
  8
型材断面
  6
CONTINUOUS
 10
18.861492
 20
-74.230407
 11
1.370725
 21
-59.500928
  0
LINE
  8
型材断面
  6
CONTINUOUS
 10
17.787912
 20
-75.505245
 11
0.297145
 21
-60.775765
  0
CIRCLE
  8
ボルト／ビス
  6
CONTINUOUS
 10
18.069737
 20
-74.65311
 40
0.250185
  0
CIRCLE
  8
ボルト／ビス
  6
CONTINUOUS
 10
18.069737
 20
-74.65311
 40
0.301025
  0
LINE
  8
ボルト／ビス
  6
CONTINUOUS
 62
    64
 10
18.316045
 20
-74.696993
 11
18.230892
 21
-74.461745
  0
LINE
  8
ボルト／ビス
  6
CONTINUOUS
 62
    64
 10
17.984585
 20
-74.41786
 11
18.230892
 21
-74.461745
  0
LINE
  8
ボルト／ビス
  6
CONTINUOUS
 62
    64
 10
18.15489
 20
-74.88836
 11
17.908583
 21
-74.844475
  0
LINE
  8
ボルト／ビス
  6
CONTINUOUS
 62
    64
 10
17.82343
 20
-74.609228
 11
17.908583
 21
-74.844475
  0
LINE
  8
ボルト／ビス
  6
CONTINUOUS
 62
    64
 10
18.316045
 20
-74.696993
 11
18.15489
 21
-74.88836
  0
LINE
  8
ボルト／ビス
  6
CONTINUOUS
 62
    64
 10
17.984585
 20
-74.41786
 11
17.82343
 21
-74.609228
  0
CIRCLE
  8
ボルト／ビス
  6
CONTINUOUS
 62
    64
 10
18.069737
 20
-74.65311
 40
0.216668
  0
CIRCLE
  8
ボルト／ビス
  6
CONTINUOUS
 10
9.57932
 20
-67.503085
 40
0.250185
  0
CIRCLE
  8
ボルト／ビス
  6
CONTINUOUS
 10
9.57932
 20
-67.503085
 40
0.301025
  0
LINE
  8
ボルト／ビス
  6
CONTINUOUS
 62
    64
 10
9.825627
 20
-67.546968
 11
9.740475
 21
-67.311718
  0
LINE
  8
ボルト／ビス
  6
CONTINUOUS
 62
    64
 10
9.494168
 20
-67.267835
 11
9.740475
 21
-67.311718
  0
LINE
  8
ボルト／ビス
  6
CONTINUOUS
 62
    64
 10
9.664473
 20
-67.738335
 11
9.418162
 21
-67.694452
  0
LINE
  8
ボルト／ビス
  6
CONTINUOUS
 62
    64
 10
9.333013
 20
-67.459205
 11
9.418162
 21
-67.694452
  0
LINE
  8
ボルト／ビス
  6
CONTINUOUS
 62
    64
 10
9.825627
 20
-67.546968
 11
9.664473
 21
-67.738335
  0
LINE
  8
ボルト／ビス
  6
CONTINUOUS
 62
    64
 10
9.494168
 20
-67.267835
 11
9.333013
 21
-67.459205
  0
CIRCLE
  8
ボルト／ビス
  6
CONTINUOUS
 62
    64
 10
9.57932
 20
-67.503085
 40
0.216668
  0
CIRCLE
  8
ボルト／ビス
  6
CONTINUOUS
 10
1.0889
 20
-60.35306
 40
0.250185
  0
CIRCLE
  8
ボルト／ビス
  6
CONTINUOUS
 10
1.0889
 20
-60.35306
 40
0.301025
  0
LINE
  8
ボルト／ビス
  6
CONTINUOUS
 62
    64
 10
1.003747
 20
-60.11781
 11
1.250058
 21
-60.161695
  0
LINE
  8
ボルト／ビス
  6
CONTINUOUS
 62
    64
 10
1.33521
 20
-60.396943
 11
1.250058
 21
-60.161695
  0
LINE
  8
ボルト／ビス
  6
CONTINUOUS
 62
    64
 10
0.842595
 20
-60.309177
 11
0.927745
 21
-60.544425
  0
LINE
  8
ボルト／ビス
  6
CONTINUOUS
 62
    64
 10
1.174055
 20
-60.58831
 11
0.927745
 21
-60.544425
  0
LINE
  8
ボルト／ビス
  6
CONTINUOUS
 62
    64
 10
1.003747
 20
-60.11781
 11
0.842595
 21
-60.309177
  0
LINE
  8
ボルト／ビス
  6
CONTINUOUS
 62
    64
 10
1.33521
 20
-60.396943
 11
1.174055
 21
-60.58831
  0
CIRCLE
  8
ボルト／ビス
  6
CONTINUOUS
 62
    64
 10
1.0889
 20
-60.35306
 40
0.216668
  0
ENDBLK
  0
BLOCK
  2
*GRP_0018
 70
    65
 10
0.0
 20
0.0
  0
LINE
  8
補助線
  6
BYBLOCK
 62
    64
 10
1.152645
 20
-74.59943
 11
1.02516
 21
-74.70679
  0
LINE
  8
補助線
  6
BYBLOCK
 62
    64
 10
1.035223
 20
-74.589365
 11
1.142583
 21
-74.716853
  0
LINE
  8
補助線
  6
BYBLOCK
 62
    64
 10
9.643063
 20
-67.449407
 11
9.515577
 21
-67.556762
  0
LINE
  8
補助線
  6
BYBLOCK
 62
    64
 10
9.52564
 20
-67.439343
 11
9.633
 21
-67.566825
  0
LINE
  8
補助線
  6
BYBLOCK
 62
    64
 10
18.005998
 20
-60.406737
 11
18.13348
 21
-60.29938
  0
LINE
  8
補助線
  6
BYBLOCK
 62
    64
 10
18.016057
 20
-60.289315
 11
18.123417
 21
-60.416802
  0
LINE
  8
型材断面
  6
CONTINUOUS
 10
0.297148
 20
-74.230407
 11
0.23677
 21
-74.934933
  0
LINE
  8
型材断面
  6
CONTINUOUS
 10
0.23677
 20
-74.934933
 11
0.666202
 21
-75.444867
  0
LINE
  8
型材断面
  6
CONTINUOUS
 10
0.666202
 20
-75.444867
 11
1.370728
 21
-75.505245
  0
LINE
  8
型材断面
  6
CONTINUOUS
 10
17.787915
 20
-59.500928
 11
18.49244
 21
-59.561305
  0
LINE
  8
型材断面
  6
CONTINUOUS
 10
18.49244
 20
-59.561305
 11
18.921873
 21
-60.07124
  0
LINE
  8
型材断面
  6
CONTINUOUS
 10
18.921873
 20
-60.07124
 11
18.861495
 21
-60.775765
  0
LINE
  8
型材断面
  6
CONTINUOUS
 10
0.297148
 20
-74.230407
 11
17.787915
 21
-59.500928
  0
LINE
  8
型材断面
  6
CONTINUOUS
 10
1.370728
 20
-75.505245
 11
18.861495
 21
-60.775765
  0
CIRCLE
  8
ボルト／ビス
  6
CONTINUOUS
 10
1.088903
 20
-74.65311
 40
0.250185
  0
CIRCLE
  8
ボルト／ビス
  6
CONTINUOUS
 10
1.088903
 20
-74.65311
 40
0.301025
  0
LINE
  8
ボルト／ビス
  6
CONTINUOUS
 62
    64
 10
0.842595
 20
-74.696993
 11
0.927748
 21
-74.461745
  0
LINE
  8
ボルト／ビス
  6
CONTINUOUS
 62
    64
 10
1.174055
 20
-74.41786
 11
0.927748
 21
-74.461745
  0
LINE
  8
ボルト／ビス
  6
CONTINUOUS
 62
    64
 10
1.00375
 20
-74.88836
 11
1.250058
 21
-74.844475
  0
LINE
  8
ボルト／ビス
  6
CONTINUOUS
 62
    64
 10
1.33521
 20
-74.609228
 11
1.250058
 21
-74.844475
  0
LINE
  8
ボルト／ビス
  6
CONTINUOUS
 62
    64
 10
0.842595
 20
-74.696993
 11
1.00375
 21
-74.88836
  0
LINE
  8
ボルト／ビス
  6
CONTINUOUS
 62
    64
 10
1.174055
 20
-74.41786
 11
1.33521
 21
-74.609228
  0
CIRCLE
  8
ボルト／ビス
  6
CONTINUOUS
 62
    64
 10
1.088903
 20
-74.65311
 40
0.216668
  0
CIRCLE
  8
ボルト／ビス
  6
CONTINUOUS
 10
9.57932
 20
-67.503085
 40
0.250185
  0
CIRCLE
  8
ボルト／ビス
  6
CONTINUOUS
 10
9.57932
 20
-67.503085
 40
0.301025
  0
LINE
  8
ボルト／ビス
  6
CONTINUOUS
 62
    64
 10
9.333013
 20
-67.546968
 11
9.418165
 21
-67.311718
  0
LINE
  8
ボルト／ビス
  6
CONTINUOUS
 62
    64
 10
9.664473
 20
-67.267835
 11
9.418165
 21
-67.311718
  0
LINE
  8
ボルト／ビス
  6
CONTINUOUS
 62
    64
 10
9.494168
 20
-67.738335
 11
9.740478
 21
-67.694452
  0
LINE
  8
ボルト／ビス
  6
CONTINUOUS
 62
    64
 10
9.825627
 20
-67.459205
 11
9.740478
 21
-67.694452
  0
LINE
  8
ボルト／ビス
  6
CONTINUOUS
 62
    64
 10
9.333013
 20
-67.546968
 11
9.494168
 21
-67.738335
  0
LINE
  8
ボルト／ビス
  6
CONTINUOUS
 62
    64
 10
9.664473
 20
-67.267835
 11
9.825627
 21
-67.459205
  0
CIRCLE
  8
ボルト／ビス
  6
CONTINUOUS
 62
    64
 10
9.57932
 20
-67.503085
 40
0.216668
  0
CIRCLE
  8
ボルト／ビス
  6
CONTINUOUS
 10
18.06974
 20
-60.35306
 40
0.250185
  0
CIRCLE
  8
ボルト／ビス
  6
CONTINUOUS
 10
18.06974
 20
-60.35306
 40
0.301025
  0
LINE
  8
ボルト／ビス
  6
CONTINUOUS
 62
    64
 10
18.154892
 20
-60.11781
 11
17.908583
 21
-60.161695
  0
LINE
  8
ボルト／ビス
  6
CONTINUOUS
 62
    64
 10
17.82343
 20
-60.396943
 11
17.908583
 21
-60.161695
  0
LINE
  8
ボルト／ビス
  6
CONTINUOUS
 62
    64
 10
18.316045
 20
-60.309177
 11
18.230895
 21
-60.544425
  0
LINE
  8
ボルト／ビス
  6
CONTINUOUS
 62
    64
 10
17.984585
 20
-60.58831
 11
18.230895
 21
-60.544425
  0
LINE
  8
ボルト／ビス
  6
CONTINUOUS
 62
    64
 10
18.154892
 20
-60.11781
 11
18.316045
 21
-60.309177
  0
LINE
  8
ボルト／ビス
  6
CONTINUOUS
 62
    64
 10
17.82343
 20
-60.396943
 11
17.984585
 21
-60.58831
  0
CIRCLE
  8
ボルト／ビス
  6
CONTINUOUS
 62
    64
 10
18.06974
 20
-60.35306
 40
0.216668
  0
ENDBLK
  0
BLOCK
  2
*DIM_0019
 70
    65
 10
0.0
 20
0.0
  0
LINE
  8
寸法
  6
CONTINUOUS
 10
116.489623
 20
-45.539355
 11
83.95629
 21
-45.539355
  0
POINT
  8
寸法
 10
116.489623
 20
-45.539355
  0
POINT
  8
寸法
 10
83.95629
 20
-45.539355
  0
TEXT
  7
TextStyle03
  8
寸法
  6
CONTINUOUS
 10
97.7625
 20
-45.2
  1
976
 40
3.0
 72
     5
 11
102.6375
 21
-45.2
  0
ENDBLK
  0
BLOCK
  2
*DIM_0020
 70
    65
 10
0.0
 20
0.0
  0
LINE
  8
寸法
  6
BYBLOCK
 62
     0
 10
40.57989
 20
-69.076395
 11
40.57989
 21
-59.076395
  0
POINT
  8
寸法
 62
     0
 10
40.57989
 20
-69.076395
  0
POINT
  8
寸法
 62
     0
 10
40.57989
 20
-59.076395
  0
TEXT
  7
TextStyle03
  8
寸法
  6
CONTINUOUS
 62
     0
 10
40.275
 20
-56.96875
  1
上昇282以上
 40
3.0
 50
90.0
 72
     5
 11
40.275
 21
-38.78125
  0
ENDBLK
  0
BLOCK
  2
*DIM_0021
 70
    65
 10
0.0
 20
0.0
  0
LINE
  8
寸法
  6
BYBLOCK
 62
     0
 10
110.319782
 20
61.81515
 11
100.319782
 21
61.81515
  0
POINT
  8
寸法
 62
     0
 10
110.319782
 20
61.81515
  0
POINT
  8
寸法
 62
     0
 10
100.319782
 20
61.81515
  0
TEXT
  7
TextStyle03
  8
寸法
  6
CONTINUOUS
 62
     0
 10
79.50625
 20
60.625
  1
上昇282以上
 40
3.0
 72
     5
 11
97.69375
 21
60.625
  0
ENDBLK
  0
BLOCK
  2
*DIM_0022
 70
    65
 10
0.0
 20
0.0
  0
LINE
  8
寸法
  6
CONTINUOUS
 10
121.489623
 20
-53.785395
 11
129.575785
 21
-53.785395
  0
LINE
  8
寸法
  6
CONTINUOUS
 10
121.489623
 20
-83.785395
 11
129.575785
 21
-83.785395
  0
LINE
  8
寸法
  6
CONTINUOUS
 10
129.575785
 20
-53.785395
 11
129.575785
 21
-83.785395
  0
POINT
  8
寸法
 10
129.575785
 20
-53.785395
  0
POINT
  8
寸法
 10
129.575785
 20
-83.785395
  0
TEXT
  7
TextStyle03
  8
寸法
  6
CONTINUOUS
 10
129.2
 20
-71.2375
  1
900
 40
3.0
 50
90.0
 72
     5
 11
129.2
 21
-66.3625
  0
ENDBLK
  0
BLOCK
  2
*DIM_0023
 70
    65
 10
0.0
 20
0.0
  0
LINE
  8
寸法
  6
CONTINUOUS
 10
28.07858
 20
-69.076395
 11
40.57989
 21
-69.076395
  0
LINE
  8
寸法
  6
CONTINUOUS
 10
29.166405
 20
-77.192947
 11
40.57989
 21
-77.192947
  0
LINE
  8
寸法
  6
CONTINUOUS
 10
40.57989
 20
-69.076395
 11
40.57989
 21
-77.192947
  0
POINT
  8
寸法
 10
40.57989
 20
-69.076395
  0
POINT
  8
寸法
 10
40.57989
 20
-77.192947
  0
TEXT
  7
TextStyle03
  8
寸法
  6
CONTINUOUS
 10
43.6
 20
-77.275
  1
243.5
 40
3.0
 50
90.0
 72
     5
 11
43.6
 21
-69.025
  0
ENDBLK
  0
BLOCK
  2
*DIM_0024
 70
    65
 10
0.0
 20
0.0
  0
LINE
  8
寸法
  6
CONTINUOUS
 10
110.319782
 20
57.814033
 11
110.319782
 21
61.81515
  0
LINE
  8
寸法
  6
CONTINUOUS
 10
118.436335
 20
57.814033
 11
118.436335
 21
61.81515
  0
LINE
  8
寸法
  6
CONTINUOUS
 10
110.319782
 20
61.81515
 11
118.436335
 21
61.81515
  0
POINT
  8
寸法
 10
110.319782
 20
61.81515
  0
POINT
  8
寸法
 10
118.436335
 20
61.81515
  0
TEXT
  7
TextStyle03
  8
寸法
  6
CONTINUOUS
 10
110.25
 20
62.175
  1
243.5
 40
3.0
 72
     5
 11
118.5
 21
62.175
  0
ENDBLK
  0
ENDSEC
  0
SECTION
  2
ENTITIES
  0
POLYLINE
  8
通り芯
  6
CONTINUOUS
 66
     1
 70
     1
  0
VERTEX
  8
通り芯
 10
-210.0
 20
-148.5
  0
VERTEX
  8
通り芯
 10
210.0
 20
-148.5
  0
VERTEX
  8
通り芯
 10
210.0
 20
148.5
  0
VERTEX
  8
通り芯
 10
-210.0
 20
148.5
  0
SEQEND
  0
INSERT
  2
*GRP_0001
  8
型材断面
  6
CONTINUOUS
 10
0.0
 20
0.0
  0
LINE
  8
型材断面
  6
DASHDOT
 10
21.403067
 20
-77.836442
 11
21.403067
 21
52.814033
  0
LINE
  8
型材断面
  6
DASHDOT
 10
-28.596933
 20
-77.836442
 11
-28.596933
 21
52.814033
  0
LINE
  8
型材断面
  6
DASHDOT
 10
-78.596933
 20
-77.836442
 11
-78.596933
 21
52.814033
  0
LINE
  8
型材断面
  6
DASHDOT
 10
119.07983
 20
52.814033
 11
-78.596933
 21
52.814033
  0
LINE
  8
型材断面
  6
DASHDOT
 10
119.07983
 20
37.814033
 11
-78.596933
 21
37.814033
  0
LINE
  8
型材断面
  6
DASHDOT
 10
119.07983
 20
22.814033
 11
-78.596933
 21
22.814033
  0
POLYLINE
  8
型材断面
  6
CONTINUOUS
 66
     1
 70
     1
  0
VERTEX
  8
型材断面
 10
-19.131995
 20
13.03811
  0
VERTEX
  8
型材断面
 10
-37.903925
 20
13.03811
  0
VERTEX
  8
型材断面
 10
-37.903925
 20
8.301267
  0
VERTEX
  8
型材断面
 10
-19.131995
 20
8.301267
  0
SEQEND
  0
POLYLINE
  8
型材断面
  6
CONTINUOUS
 66
     1
 70
     1
  0
VERTEX
  8
型材断面
 10
-19.131995
 20
62.589955
  0
VERTEX
  8
型材断面
 10
-37.903925
 20
62.589955
  0
VERTEX
  8
型材断面
 10
-37.903925
 20
67.326798
  0
VERTEX
  8
型材断面
 10
-19.131995
 20
67.326798
  0
SEQEND
  0
LINE
  8
型材断面
  6
CONTINUOUS
 10
-132.475455
 20
90.791505
 11
-131.8794
 21
88.200998
  0
LINE
  8
型材断面
  6
CONTINUOUS
 10
-132.475455
 20
90.791505
 11
-133.071512
 21
88.200998
  0
LINE
  8
型材断面
  6
CONTINUOUS
 10
-133.071512
 20
88.200998
 11
-131.8794
 21
88.200998
  0
LINE
  8
型材断面
  6
CONTINUOUS
 10
-138.498042
 20
84.922105
 11
-92.256265
 21
84.922105
  0
LINE
  8
型材断面
  6
CONTINUOUS
 10
-132.475455
 20
97.32138
 11
-133.971085
 21
94.730873
  0
LINE
  8
型材断面
  6
CONTINUOUS
 10
-132.475455
 20
97.32138
 11
-130.979825
 21
94.730873
  0
LINE
  8
型材断面
  6
CONTINUOUS
 10
-130.979825
 20
94.730873
 11
-133.971085
 21
94.730873
  0
LINE
  8
型材断面
  6
CONTINUOUS
 10
-138.498042
 20
93.792277
 11
-92.256265
 21
93.792277
  0
LINE
  8
型材断面
  6
CONTINUOUS
 10
-138.498042
 20
79.134073
 11
-92.256265
 21
79.134073
  0
LINE
  8
型材断面
  6
CONTINUOUS
 10
-138.498042
 20
73.34604
 11
-92.256265
 21
73.34604
  0
LINE
  8
型材断面
  6
CONTINUOUS
 10
-80.430292
 20
54.647387
 11
-28.596933
 21
54.647348
  0
LINE
  8
型材断面
  6
CONTINUOUS
 10
-80.430292
 20
20.980677
 11
-28.596933
 21
20.980717
  0
LINE
  8
型材断面
  6
DOT
 10
-28.596933
 20
-70.743062
 11
-28.596933
 21
-12.609317
  0
INSERT
  2
*GRP_0015
  8
型材断面
  6
CONTINUOUS
 10
0.0
 20
0.0
  0
INSERT
  2
*GRP_0016
  8
型材断面
  6
CONTINUOUS
 10
0.0
 20
0.0
  0
INSERT
  2
*GRP_0017
  8
型材断面
  6
CONTINUOUS
 10
0.0
 20
0.0
  0
INSERT
  2
*GRP_0018
  8
型材断面
  6
CONTINUOUS
 10
0.0
 20
0.0
  0
LINE
  8
型材断面
  6
CONTINUOUS
 10
40.57989
 20
-59.076395
 11
26.95516
 21
-59.076395
  0
LINE
  8
型材断面
  6
CONTINUOUS
 10
-81.360268
 20
20.050845
 11
24.166403
 21
20.050845
  0
LINE
  8
型材断面
  6
CONTINUOUS
 10
-81.360268
 20
55.577218
 11
24.166403
 21
55.577218
  0
LINE
  8
型材断面
  6
CONTINUOUS
 10
-81.360268
 20
37.81403
 11
-83.950775
 21
39.30966
  0
LINE
  8
型材断面
  6
CONTINUOUS
 10
-81.360268
 20
37.81403
 11
-83.950775
 21
36.3184
  0
LINE
  8
型材断面
  6
CONTINUOUS
 10
-83.950775
 20
36.3184
 11
-83.950775
 21
39.30966
  0
LINE
  8
型材断面
  6
CONTINUOUS
 10
-81.360268
 20
49.114033
 11
-83.950778
 21
48.51798
  0
LINE
  8
型材断面
  6
CONTINUOUS
 10
-81.360268
 20
49.114033
 11
-83.950775
 21
49.710093
  0
LINE
  8
型材断面
  6
CONTINUOUS
 10
-83.950775
 20
49.710093
 11
-83.950778
 21
48.51798
  0
LINE
  8
型材断面
  6
CONTINUOUS
 10
-81.360268
 20
26.514027
 11
-83.950778
 21
27.11008
  0
LINE
  8
型材断面
  6
CONTINUOUS
 10
-81.360268
 20
26.514027
 11
-83.950775
 21
25.917967
  0
LINE
  8
型材断面
  6
CONTINUOUS
 10
-83.950775
 20
25.917967
 11
-83.950778
 21
27.11008
  0
LINE
  8
型材断面
  6
CONTINUOUS
 10
-61.930265
 20
55.577218
 11
-63.425895
 21
58.167725
  0
LINE
  8
型材断面
  6
CONTINUOUS
 10
-61.930265
 20
55.577218
 11
-60.434635
 21
58.167725
  0
LINE
  8
型材断面
  6
CONTINUOUS
 10
-60.434635
 20
58.167725
 11
-63.425895
 21
58.167725
  0
LINE
  8
型材断面
  6
CONTINUOUS
 10
4.7364
 20
55.577218
 11
6.23203
 21
58.167725
  0
LINE
  8
型材断面
  6
CONTINUOUS
 10
4.7364
 20
55.577218
 11
3.24077
 21
58.167725
  0
LINE
  8
型材断面
  6
CONTINUOUS
 10
3.24077
 20
58.167725
 11
6.23203
 21
58.167725
  0
LINE
  8
型材断面
  6
CONTINUOUS
 10
24.166403
 20
49.114035
 11
26.756912
 21
48.517982
  0
LINE
  8
型材断面
  6
CONTINUOUS
 10
24.166403
 20
49.114035
 11
26.75691
 21
49.710095
  0
LINE
  8
型材断面
  6
CONTINUOUS
 10
26.75691
 20
49.710095
 11
26.756912
 21
48.517982
  0
LINE
  8
型材断面
  6
CONTINUOUS
 10
24.166403
 20
26.51403
 11
26.756912
 21
27.110082
  0
LINE
  8
型材断面
  6
CONTINUOUS
 10
24.166403
 20
26.51403
 11
26.75691
 21
25.91797
  0
LINE
  8
型材断面
  6
CONTINUOUS
 10
26.75691
 20
25.91797
 11
26.756912
 21
27.110082
  0
LINE
  8
型材断面
  6
CONTINUOUS
 10
-61.930265
 20
20.050845
 11
-63.425895
 21
17.460338
  0
LINE
  8
型材断面
  6
CONTINUOUS
 10
-61.930265
 20
20.050845
 11
-60.434635
 21
17.460338
  0
LINE
  8
型材断面
  6
CONTINUOUS
 10
-60.434635
 20
17.460338
 11
-63.425895
 21
17.460338
  0
LINE
  8
型材断面
  6
CONTINUOUS
 10
4.7364
 20
20.050845
 11
6.23203
 21
17.460338
  0
LINE
  8
型材断面
  6
CONTINUOUS
 10
4.7364
 20
20.050845
 11
3.24077
 21
17.460338
  0
LINE
  8
型材断面
  6
CONTINUOUS
 10
3.24077
 20
17.460338
 11
6.23203
 21
17.460338
  0
LINE
  8
型材断面
  6
CONTINUOUS
 10
24.166403
 20
37.81403
 11
26.75691
 21
39.30966
  0
LINE
  8
型材断面
  6
CONTINUOUS
 10
24.166403
 20
37.81403
 11
26.75691
 21
36.3184
  0
LINE
  8
型材断面
  6
CONTINUOUS
 10
26.75691
 20
36.3184
 11
26.75691
 21
39.30966
  0
LINE
  8
型材断面
  6
DASHDOT
 10
-11.736932
 20
22.814033
 11
-11.736932
 21
52.814033
  0
LINE
  8
型材断面
  6
CONTINUOUS
 10
-10.486932
 20
24.314033
 11
-12.986932
 21
24.314035
  0
LINE
  8
型材断面
  6
CONTINUOUS
 10
-10.486932
 20
51.314033
 11
-12.986932
 21
51.31403
  0
LINE
  8
型材断面
  6
CONTINUOUS
 10
-10.486932
 20
24.314033
 11
-10.486932
 21
51.314033
  0
LINE
  8
型材断面
  6
CONTINUOUS
 10
-12.986932
 20
24.314035
 11
-12.986932
 21
51.31403
  0
LINE
  8
型材断面
  6
CONTINUOUS
 10
4.4164
 20
23.48069
 11
4.4164
 21
20.980693
  0
LINE
  8
型材断面
  6
CONTINUOUS
 10
5.249735
 20
23.48069
 11
5.249735
 21
20.980693
  0
LINE
  8
型材断面
  6
CONTINUOUS
 10
-29.0136
 20
23.48069
 11
-29.0136
 21
20.980693
  0
LINE
  8
型材断面
  6
CONTINUOUS
 10
-28.180265
 20
23.48069
 11
-28.180265
 21
20.980693
  0
LINE
  8
型材断面
  6
CONTINUOUS
 10
4.4164
 20
52.147375
 11
4.4164
 21
54.647372
  0
LINE
  8
型材断面
  6
CONTINUOUS
 10
5.249735
 20
52.147375
 11
5.249735
 21
54.647372
  0
LINE
  8
型材断面
  6
CONTINUOUS
 10
-29.0136
 20
52.147375
 11
-29.0136
 21
54.647372
  0
LINE
  8
型材断面
  6
CONTINUOUS
 10
-28.180265
 20
52.147375
 11
-28.180265
 21
54.647372
  0
LINE
  8
型材断面
  6
CONTINUOUS
 10
4.4164
 20
23.48069
 11
-28.180265
 21
23.480715
  0
LINE
  8
型材断面
  6
CONTINUOUS
 10
4.4164
 20
52.147375
 11
-28.180265
 21
52.14735
  0
LINE
  8
型材断面
  6
CONTINUOUS
 10
24.166405
 20
20.050845
 11
24.166405
 21
55.577218
  0
LINE
  8
型材断面
  6
CONTINUOUS
 10
23.000725
 20
20.980677
 11
23.236425
 21
21.216378
  0
LINE
  8
型材断面
  6
CONTINUOUS
 10
20.500722
 20
23.480677
 11
20.736422
 21
23.716378
  0
LINE
  8
型材断面
  6
CONTINUOUS
 10
20.736422
 20
23.716378
 11
23.236425
 21
21.216378
  0
LINE
  8
型材断面
  6
CONTINUOUS
 10
20.500722
 20
23.480677
 11
23.000725
 21
20.980677
  0
LINE
  8
型材断面
  6
CONTINUOUS
 10
24.166258
 20
20.050845
 11
23.118572
 21
21.098525
  0
LINE
  8
型材断面
  6
CONTINUOUS
 10
23.236403
 20
37.814033
 11
23.236425
 21
21.216378
  0
LINE
  8
型材断面
  6
CONTINUOUS
 10
23.000725
 20
54.647387
 11
23.236425
 21
54.411687
  0
LINE
  8
型材断面
  6
CONTINUOUS
 10
20.736422
 20
51.911687
 11
23.236425
 21
54.411687
  0
LINE
  8
型材断面
  6
CONTINUOUS
 10
24.166258
 20
55.57722
 11
23.118572
 21
54.52954
  0
LINE
  8
型材断面
  6
CONTINUOUS
 10
20.500722
 20
52.147387
 11
20.736422
 21
51.911687
  0
LINE
  8
型材断面
  6
CONTINUOUS
 10
23.236403
 20
37.814033
 11
23.236425
 21
54.411687
  0
LINE
  8
型材断面
  6
CONTINUOUS
 10
20.500722
 20
52.147387
 11
23.000725
 21
54.647387
  0
LINE
  8
型材断面
  6
CONTINUOUS
 10
20.736403
 20
38.2307
 11
23.236403
 21
38.2307
  0
LINE
  8
型材断面
  6
CONTINUOUS
 10
20.736403
 20
37.397365
 11
23.236403
 21
37.397365
  0
LINE
  8
型材断面
  6
CONTINUOUS
 10
20.736403
 20
37.397365
 11
20.736422
 21
23.716378
  0
LINE
  8
型材断面
  6
CONTINUOUS
 10
20.736403
 20
38.2307
 11
20.736422
 21
51.911687
  0
LINE
  8
型材断面
  6
CONTINUOUS
 10
-28.596933
 20
54.647348
 11
23.000725
 21
54.647387
  0
LINE
  8
型材断面
  6
CONTINUOUS
 10
5.249735
 20
52.147375
 11
20.500722
 21
52.147387
  0
LINE
  8
型材断面
  6
CONTINUOUS
 10
5.249735
 20
23.48069
 11
20.500722
 21
23.480677
  0
LINE
  8
型材断面
  6
CONTINUOUS
 10
-28.596933
 20
20.980717
 11
23.000725
 21
20.980677
  0
LINE
  8
型材断面
  6
DASHDOT
 10
-45.456933
 20
22.814033
 11
-45.456933
 21
52.814033
  0
LINE
  8
型材断面
  6
CONTINUOUS
 10
-46.706933
 20
24.314033
 11
-44.206933
 21
24.314035
  0
LINE
  8
型材断面
  6
CONTINUOUS
 10
-46.706933
 20
51.314033
 11
-44.206933
 21
51.31403
  0
LINE
  8
型材断面
  6
CONTINUOUS
 10
-46.706933
 20
24.314033
 11
-46.706933
 21
51.314033
  0
LINE
  8
型材断面
  6
CONTINUOUS
 10
-44.206933
 20
24.314035
 11
-44.206933
 21
51.31403
  0
LINE
  8
型材断面
  6
CONTINUOUS
 10
-61.610265
 20
23.48069
 11
-61.610265
 21
20.980693
  0
LINE
  8
型材断面
  6
CONTINUOUS
 10
-62.4436
 20
23.48069
 11
-62.4436
 21
20.980693
  0
LINE
  8
型材断面
  6
CONTINUOUS
 10
-61.610265
 20
52.147375
 11
-61.610265
 21
54.647372
  0
LINE
  8
型材断面
  6
CONTINUOUS
 10
-62.4436
 20
52.147375
 11
-62.4436
 21
54.647372
  0
LINE
  8
型材断面
  6
CONTINUOUS
 10
-81.36027
 20
20.050845
 11
-81.36027
 21
55.577218
  0
LINE
  8
型材断面
  6
CONTINUOUS
 10
-80.19459
 20
20.980677
 11
-80.43029
 21
21.216378
  0
LINE
  8
型材断面
  6
CONTINUOUS
 10
-77.694588
 20
23.480677
 11
-77.930288
 21
23.716378
  0
LINE
  8
型材断面
  6
CONTINUOUS
 10
-77.930288
 20
23.716378
 11
-80.43029
 21
21.216378
  0
LINE
  8
型材断面
  6
CONTINUOUS
 10
-77.694588
 20
23.480677
 11
-80.19459
 21
20.980677
  0
LINE
  8
型材断面
  6
CONTINUOUS
 10
-81.360123
 20
20.050845
 11
-80.312438
 21
21.098525
  0
LINE
  8
型材断面
  6
CONTINUOUS
 10
-80.430267
 20
37.814033
 11
-80.43029
 21
21.216378
  0
LINE
  8
型材断面
  6
CONTINUOUS
 10
-80.19459
 20
54.647387
 11
-80.43029
 21
54.411687
  0
LINE
  8
型材断面
  6
CONTINUOUS
 10
-77.930288
 20
51.911687
 11
-80.43029
 21
54.411687
  0
LINE
  8
型材断面
  6
CONTINUOUS
 10
-81.360123
 20
55.57722
 11
-80.312438
 21
54.52954
  0
LINE
  8
型材断面
  6
CONTINUOUS
 10
-77.694588
 20
52.147387
 11
-77.930288
 21
51.911687
  0
LINE
  8
型材断面
  6
CONTINUOUS
 10
-80.430267
 20
37.814033
 11
-80.43029
 21
54.411687
  0
LINE
  8
型材断面
  6
CONTINUOUS
 10
-77.694588
 20
52.147387
 11
-80.19459
 21
54.647387
  0
LINE
  8
型材断面
  6
CONTINUOUS
 10
-77.930267
 20
38.2307
 11
-80.430267
 21
38.2307
  0
LINE
  8
型材断面
  6
CONTINUOUS
 10
-77.930267
 20
37.397365
 11
-80.430267
 21
37.397365
  0
LINE
  8
型材断面
  6
CONTINUOUS
 10
-77.930267
 20
37.397365
 11
-77.930288
 21
23.716378
  0
LINE
  8
型材断面
  6
CONTINUOUS
 10
-77.930267
 20
38.2307
 11
-77.930288
 21
51.911687
  0
LINE
  8
型材断面
  6
CONTINUOUS
 10
-62.4436
 20
52.147375
 11
-77.694588
 21
52.147387
  0
LINE
  8
型材断面
  6
CONTINUOUS
 10
-62.4436
 20
23.48069
 11
-77.694588
 21
23.480677
  0
LINE
  8
型材断面
  6
CONTINUOUS
 10
-29.0136
 20
52.14735
 11
-61.610265
 21
52.147375
  0
LINE
  8
型材断面
  6
CONTINUOUS
 10
-29.0136
 20
23.480715
 11
-61.610265
 21
23.48069
  0
LINE
  8
型材断面
  6
CONTINUOUS
 10
23.666405
 20
-77.192947
 11
23.666405
 21
-77.529612
  0
LINE
  8
型材断面
  6
CONTINUOUS
 10
23.969737
 20
-73.096397
 11
24.166405
 21
-73.293065
  0
LINE
  8
型材断面
  6
CONTINUOUS
 10
24.166405
 20
-73.293065
 11
24.166405
 21
-77.192947
  0
LINE
  8
型材断面
  6
CONTINUOUS
 10
118.436335
 20
55.07722
 11
118.773
 21
55.07722
  0
LINE
  8
型材断面
  6
CONTINUOUS
 10
114.339785
 20
55.380552
 11
114.536453
 21
55.57722
  0
LINE
  8
型材断面
  6
CONTINUOUS
 10
114.536453
 20
55.57722
 11
118.436335
 21
55.57722
  0
LINE
  8
型材断面
  6
CONTINUOUS
 10
118.773
 20
55.07722
 11
118.773
 21
37.814033
  0
LINE
  8
型材断面
  6
CONTINUOUS
 10
118.436335
 20
55.57722
 11
118.436335
 21
37.814033
  0
LINE
  8
型材断面
  6
CONTINUOUS
 62
    47
 10
114.33983
 20
55.380595
 11
114.33983
 21
37.814033
  0
LINE
  8
型材断面
  6
CONTINUOUS
 10
114.536453
 20
55.57722
 11
114.536453
 21
37.814033
  0
LINE
  8
型材断面
  6
CONTINUOUS
 10
118.436335
 20
20.550845
 11
118.773
 21
20.550845
  0
LINE
  8
型材断面
  6
CONTINUOUS
 10
114.339785
 20
20.247513
 11
114.536453
 21
20.050845
  0
LINE
  8
型材断面
  6
CONTINUOUS
 10
114.536453
 20
20.050845
 11
118.436335
 21
20.050845
  0
LINE
  8
型材断面
  6
CONTINUOUS
 10
118.773
 20
20.550845
 11
118.773
 21
37.814033
  0
LINE
  8
型材断面
  6
CONTINUOUS
 10
118.436335
 20
20.050845
 11
118.436335
 21
37.814033
  0
LINE
  8
型材断面
  6
CONTINUOUS
 62
    47
 10
114.33983
 20
20.24747
 11
114.33983
 21
37.814033
  0
LINE
  8
型材断面
  6
CONTINUOUS
 10
114.536453
 20
20.050845
 11
114.536453
 21
37.814033
  0
LINE
  8
型材断面
  6
CONTINUOUS
 10
23.666405
 20
-77.529612
 11
-28.596933
 21
-77.529612
  0
LINE
  8
型材断面
  6
CONTINUOUS
 10
24.166405
 20
-77.192947
 11
-28.596933
 21
-77.192947
  0
LINE
  8
型材断面
  6
CONTINUOUS
 62
    47
 10
23.96978
 20
-73.096443
 11
-28.596933
 21
-73.096443
  0
LINE
  8
型材断面
  6
CONTINUOUS
 10
24.166405
 20
-73.293065
 11
-28.596933
 21
-73.293065
  0
LINE
  8
型材断面
  6
CONTINUOUS
 10
-80.86027
 20
-77.192947
 11
-80.86027
 21
-77.529612
  0
LINE
  8
型材断面
  6
CONTINUOUS
 10
-81.163602
 20
-73.096397
 11
-81.36027
 21
-73.293065
  0
LINE
  8
型材断面
  6
CONTINUOUS
 10
-81.36027
 20
-73.293065
 11
-81.36027
 21
-77.192947
  0
LINE
  8
型材断面
  6
CONTINUOUS
 10
-80.86027
 20
-77.529612
 11
-28.596933
 21
-77.529612
  0
LINE
  8
型材断面
  6
CONTINUOUS
 10
-81.36027
 20
-77.192947
 11
-28.596933
 21
-77.192947
  0
LINE
  8
型材断面
  6
CONTINUOUS
 62
    47
 10
-81.163645
 20
-73.096443
 11
-28.596933
 21
-73.096443
  0
LINE
  8
型材断面
  6
CONTINUOUS
 10
-81.36027
 20
-73.293065
 11
-28.596933
 21
-73.293065
  0
TEXT
  7
TextStyle03
  8
文字
  6
CONTINUOUS
 10
-36.8
 20
9.325
  1
可動装置側
 40
3.0
 72
     5
 11
-20.3
 21
9.325
  0
TEXT
  7
TextStyle03
  8
文字
  6
CONTINUOUS
 10
-36.8
 20
63.275
  1
可動装置側
 40
3.0
 72
     5
 11
-20.3
 21
63.275
  0
TEXT
  7
TextStyle03
  8
文字
  6
CONTINUOUS
 10
-129.675
 20
89.4
  1
はケーシング位置を示す
 40
3.0
 72
     5
 11
-92.925
 21
89.4
  0
TEXT
  7
TextStyle03
  8
文字
  6
CONTINUOUS
 10
-129.675
 20
86.025
  1
４ヶ所中1ヶ所に設定
 40
3.0
 72
     5
 11
-97.9875
 21
86.025
  0
TEXT
  7
TextStyle03
  8
文字
  6
CONTINUOUS
 10
-129.675
 20
94.925
  1
は排水穴位置を示す
 40
3.0
 72
     5
 11
-99.675
 21
94.925
  0
TEXT
  7
TextStyle03
  8
文字
  6
CONTINUOUS
 10
-99.575
 20
16.275
  1
アンカーピッチ
 40
3.0
 50
90.0
 72
     5
 11
-99.575
 21
39.525
  0
TEXT
  7
TextStyle03
  8
文字
  6
CONTINUOUS
 10
-68.65
 20
90.2
  1
アンカーピッチ
 40
3.0
 72
     5
 11
-45.4
 21
90.2
  0
TEXT
  7
TextStyle03
  8
文字
  6
CONTINUOUS
 10
-133.4
 20
80.05
  1
アンカー数量　１２ヶ所
 40
3.0
 72
     5
 11
-96.65
 21
80.05
  0
TEXT
  7
TextStyle03
  8
文字
  6
CONTINUOUS
 10
-133.45
 20
74.3
  1
アームユニット数　４ヶ所
 40
3.0
 72
     5
 11
-93.325
 21
74.3
  0
LINE
  8
文字
  6
CONTINUOUS
 10
112.532095
 20
55.577218
 11
55.422717
 21
55.577218
  0
LINE
  8
文字
  6
CONTINUOUS
 10
112.532095
 20
20.050845
 11
55.422717
 21
20.050845
  0
LINE
  8
文字
  6
CONTINUOUS
 10
100.319782
 20
61.81515
 11
100.319782
 21
56.902377
  0
LINE
  8
文字
  6
CONTINUOUS
 10
-81.360268
 20
-70.743062
 11
-81.360268
 21
-12.609317
  0
LINE
  8
文字
  6
CONTINUOUS
 10
24.166403
 20
-70.743062
 11
24.166403
 21
-12.609317
  0
LINE
  8
文字
  6
CONTINUOUS
 10
116.489623
 20
-45.539355
 11
116.489623
 21
-52.636917
  0
LINE
  8
文字
  6
CONTINUOUS
 10
83.95629
 20
-45.539355
 11
83.95629
 21
-52.636917
  0
TEXT
  7
TextStyle03
  8
文字
  6
CONTINUOUS
 10
97.975
 20
-77.375
  1
網入り6.8t
 40
3.0
 72
     5
 11
114.6625
 21
-77.375
  0
TEXT
  7
TextStyle03
  8
文字
  6
CONTINUOUS
 10
104.65
 20
-82.05
  1
×３枚
 40
3.0
 72
     5
 11
114.4
 21
-82.05
  0
TEXT
  7
TextStyle03
  8
文字
  6
CONTINUOUS
 10
60.575
 20
125.25
  1
シリーズ：ＴＦＦＬ
 40
5.0
 72
     5
 11
110.575
 21
125.25
  0
TEXT
  7
TextStyle03
  8
文字
  6
CONTINUOUS
 10
60.575
 20
119.625
  1
　　　　　（上下可動）900×3000タイプ
 40
5.0
 72
     5
 11
164.0125
 21
119.625
  0
TEXT
  7
TextStyle03
  8
文字
  6
CONTINUOUS
 10
60.575
 20
114.0
  1
図面名　：外観姿図
 40
5.0
 72
     5
 11
110.575
 21
114.0
  0
TEXT
  7
TextStyle03
  8
文字
  6
CONTINUOUS
 10
60.575
 20
108.375
  1
　　　　　　
 40
5.0
 72
     5
 11
93.7
 21
108.375
  0
TEXT
  7
TextStyle03
  8
文字
  6
CONTINUOUS
 10
60.725
 20
104.525
  1
ＮＳコード：ＮＳＦＬ
 40
5.0
 72
     5
 11
116.35
 21
104.525
  0
INSERT
  2
*DIM_0002
  8
寸法
  6
CONTINUOUS
 10
0.0
 20
0.0
  0
INSERT
  2
*DIM_0003
  8
寸法
  6
CONTINUOUS
 10
0.0
 20
0.0
  0
INSERT
  2
*DIM_0004
  8
寸法
  6
CONTINUOUS
 10
0.0
 20
0.0
  0
INSERT
  2
*DIM_0005
  8
寸法
  6
CONTINUOUS
 10
0.0
 20
0.0
  0
INSERT
  2
*DIM_0006
  8
寸法
  6
CONTINUOUS
 10
0.0
 20
0.0
  0
INSERT
  2
*DIM_0007
  8
寸法
  6
CONTINUOUS
 10
0.0
 20
0.0
  0
INSERT
  2
*DIM_0008
  8
寸法
  6
CONTINUOUS
 10
0.0
 20
0.0
  0
INSERT
  2
*DIM_0009
  8
寸法
  6
CONTINUOUS
 10
0.0
 20
0.0
  0
INSERT
  2
*DIM_0010
  8
寸法
  6
CONTINUOUS
 10
0.0
 20
0.0
  0
INSERT
  2
*DIM_0011
  8
寸法
  6
CONTINUOUS
 10
0.0
 20
0.0
  0
INSERT
  2
*DIM_0012
  8
寸法
  6
CONTINUOUS
 10
0.0
 20
0.0
  0
INSERT
  2
*DIM_0013
  8
寸法
  6
CONTINUOUS
 10
0.0
 20
0.0
  0
INSERT
  2
*DIM_0014
  8
寸法
  6
CONTINUOUS
 10
0.0
 20
0.0
  0
INSERT
  2
*DIM_0019
  8
寸法
  6
CONTINUOUS
 10
0.0
 20
0.0
  0
INSERT
  2
*DIM_0020
  8
寸法
  6
CONTINUOUS
 10
0.0
 20
0.0
  0
INSERT
  2
*DIM_0021
  8
寸法
  6
CONTINUOUS
 10
0.0
 20
0.0
  0
INSERT
  2
*DIM_0022
  8
寸法
  6
CONTINUOUS
 10
0.0
 20
0.0
  0
INSERT
  2
*DIM_0023
  8
寸法
  6
CONTINUOUS
 10
0.0
 20
0.0
  0
INSERT
  2
*DIM_0024
  8
寸法
  6
CONTINUOUS
 10
0.0
 20
0.0
  0
LINE
  8
別途部材
  6
CONTINUOUS
 62
    47
 10
110.419782
 20
54.64722
 11
110.48645
 21
54.64722
  0
ARC
  8
別途部材
  6
CONTINUOUS
 62
    47
 10
110.419785
 20
54.547219
 40
0.1
 50
90.0
 51
180.0
  0
LINE
  8
別途部材
  6
CONTINUOUS
 62
    47
 10
110.48645
 20
54.490697
 11
111.98645
 21
54.490697
  0
LINE
  8
別途部材
  6
CONTINUOUS
 62
    47
 10
110.419782
 20
20.980842
 11
110.48645
 21
20.980842
  0
ARC
  8
別途部材
  6
CONTINUOUS
 62
    47
 10
110.419785
 20
21.080843
 40
0.1
 50
180.0
 51
270.0
  0
LINE
  8
別途部材
  6
CONTINUOUS
 62
    47
 10
110.48645
 20
21.137365
 11
111.98645
 21
21.137365
  0
LINE
  8
別途部材
  6
CONTINUOUS
 62
    47
 10
114.303118
 20
55.577218
 11
114.303118
 21
37.814033
  0
LINE
  8
別途部材
  6
CONTINUOUS
 62
    47
 10
113.136453
 20
55.577218
 11
113.136453
 21
37.814033
  0
LINE
  8
別途部材
  6
CONTINUOUS
 62
    47
 10
111.98645
 20
54.490697
 11
111.98645
 21
37.814033
  0
LINE
  8
別途部材
  6
CONTINUOUS
 62
    47
 10
110.48645
 20
54.64722
 11
110.48645
 21
37.814033
  0
LINE
  8
別途部材
  6
CONTINUOUS
 62
    47
 10
110.319782
 20
54.54722
 11
110.319782
 21
37.814033
  0
LINE
  8
別途部材
  6
CONTINUOUS
 62
    47
 10
114.303118
 20
20.050845
 11
114.303118
 21
37.814033
  0
LINE
  8
別途部材
  6
CONTINUOUS
 62
    47
 10
113.136453
 20
20.050845
 11
113.136453
 21
37.814033
  0
LINE
  8
別途部材
  6
CONTINUOUS
 62
    47
 10
110.48645
 20
20.980842
 11
110.48645
 21
37.814033
  0
LINE
  8
別途部材
  6
CONTINUOUS
 62
    47
 10
110.319782
 20
21.080842
 11
110.319782
 21
37.814033
  0
LINE
  8
別途部材
  6
CONTINUOUS
 62
    47
 10
111.98645
 20
21.137365
 11
111.98645
 21
37.814033
  0
LINE
  8
別途部材
  6
DOT
 62
    47
 10
100.419782
 20
54.64722
 11
100.48645
 21
54.64722
  0
ARC
  8
別途部材
  6
DOT
 62
    47
 10
100.419784
 20
54.547219
 40
0.1
 50
90.0
 51
180.0
  0
LINE
  8
別途部材
  6
DOT
 62
    47
 10
100.48645
 20
54.490697
 11
101.98645
 21
54.490697
  0
LINE
  8
別途部材
  6
DOT
 62
    47
 10
100.419782
 20
20.980842
 11
100.48645
 21
20.980842
  0
ARC
  8
別途部材
  6
DOT
 62
    47
 10
100.419784
 20
21.080843
 40
0.1
 50
180.0
 51
270.0
  0
LINE
  8
別途部材
  6
DOT
 62
    47
 10
100.48645
 20
21.137365
 11
101.98645
 21
21.137365
  0
LINE
  8
別途部材
  6
DOT
 62
    47
 10
104.303118
 20
55.577218
 11
104.303118
 21
37.814033
  0
LINE
  8
別途部材
  6
DOT
 62
    47
 10
103.136453
 20
55.577218
 11
103.136453
 21
37.814033
  0
LINE
  8
別途部材
  6
DOT
 62
    47
 10
101.98645
 20
54.490697
 11
101.98645
 21
37.814033
  0
LINE
  8
別途部材
  6
DOT
 62
    47
 10
100.48645
 20
54.64722
 11
100.48645
 21
37.814033
  0
LINE
  8
別途部材
  6
DOT
 62
    47
 10
100.319782
 20
54.54722
 11
100.319782
 21
37.814033
  0
LINE
  8
別途部材
  6
DOT
 62
    47
 10
103.136453
 20
20.050845
 11
103.136453
 21
37.814033
  0
LINE
  8
別途部材
  6
DOT
 62
    47
 10
104.303118
 20
20.050845
 11
104.303118
 21
37.814033
  0
LINE
  8
別途部材
  6
DOT
 62
    47
 10
100.48645
 20
20.980842
 11
100.48645
 21
37.814033
  0
LINE
  8
別途部材
  6
DOT
 62
    47
 10
100.319782
 20
21.080842
 11
100.319782
 21
37.814033
  0
LINE
  8
別途部材
  6
DOT
 62
    47
 10
101.98645
 20
21.137365
 11
101.98645
 21
37.814033
  0
LINE
  8
別途部材
  6
CONTINUOUS
 62
    47
 10
-80.43027
 20
-69.176395
 11
-80.43027
 21
-69.243062
  0
ARC
  8
別途部材
  6
CONTINUOUS
 62
    47
 10
-80.330268
 20
-69.176399
 40
0.1
 50
90.0
 51
180.0
  0
LINE
  8
別途部材
  6
CONTINUOUS
 62
    47
 10
-80.273747
 20
-69.243062
 11
-80.273747
 21
-70.743062
  0
LINE
  8
別途部材
  6
CONTINUOUS
 62
    47
 10
23.236405
 20
-69.176395
 11
23.236405
 21
-69.243062
  0
ARC
  8
別途部材
  6
CONTINUOUS
 62
    47
 10
23.136401
 20
-69.176399
 40
0.1
 50
0.0
 51
90.0
  0
LINE
  8
別途部材
  6
CONTINUOUS
 62
    47
 10
23.079882
 20
-69.243062
 11
23.079882
 21
-70.743062
  0
LINE
  8
別途部材
  6
CONTINUOUS
 62
    47
 10
-81.360268
 20
-73.05973
 11
-28.596933
 21
-73.05973
  0
LINE
  8
別途部材
  6
CONTINUOUS
 62
    47
 10
-81.360268
 20
-71.893065
 11
-28.596933
 21
-71.893065
  0
LINE
  8
別途部材
  6
CONTINUOUS
 62
    47
 10
-80.273747
 20
-70.743062
 11
-28.596933
 21
-70.743062
  0
LINE
  8
別途部材
  6
CONTINUOUS
 62
    47
 10
-80.33027
 20
-69.076395
 11
-28.596933
 21
-69.076395
  0
LINE
  8
別途部材
  6
CONTINUOUS
 62
    47
 10
-80.43027
 20
-69.243062
 11
-28.596933
 21
-69.243062
  0
LINE
  8
別途部材
  6
CONTINUOUS
 62
    47
 10
24.166403
 20
-73.05973
 11
-28.596933
 21
-73.05973
  0
LINE
  8
別途部材
  6
CONTINUOUS
 62
    47
 10
24.166403
 20
-71.893065
 11
-28.596933
 21
-71.893065
  0
LINE
  8
別途部材
  6
CONTINUOUS
 62
    47
 10
23.079882
 20
-70.743062
 11
-28.596933
 21
-70.743062
  0
LINE
  8
別途部材
  6
CONTINUOUS
 62
    47
 10
23.136405
 20
-69.076395
 11
-28.596933
 21
-69.076395
  0
LINE
  8
別途部材
  6
CONTINUOUS
 62
    47
 10
23.236405
 20
-69.243062
 11
-28.596933
 21
-69.243062
  0
LINE
  8
別途部材
  6
DOT
 62
    47
 10
-80.43027
 20
-59.176395
 11
-80.43027
 21
-59.243062
  0
ARC
  8
別途部材
  6
DOT
 62
    47
 10
-80.330268
 20
-59.176397
 40
0.1
 50
90.0
 51
180.0
  0
LINE
  8
別途部材
  6
DOT
 62
    47
 10
-80.273747
 20
-59.243062
 11
-80.273747
 21
-60.743062
  0
LINE
  8
別途部材
  6
DOT
 62
    47
 10
23.236405
 20
-59.176395
 11
23.236405
 21
-59.243062
  0
ARC
  8
別途部材
  6
DOT
 62
    47
 10
23.136401
 20
-59.176397
 40
0.1
 50
0.0
 51
90.0
  0
LINE
  8
別途部材
  6
DOT
 62
    47
 10
23.079882
 20
-59.243062
 11
23.079882
 21
-60.743062
  0
LINE
  8
別途部材
  6
DOT
 62
    47
 10
-80.273747
 20
-60.743062
 11
-28.596933
 21
-60.743062
  0
LINE
  8
別途部材
  6
DOT
 62
    47
 10
-80.33027
 20
-59.076395
 11
-28.596933
 21
-59.076395
  0
LINE
  8
別途部材
  6
DOT
 62
    47
 10
-80.43027
 20
-59.243062
 11
-28.596933
 21
-59.243062
  0
LINE
  8
別途部材
  6
DOT
 62
    47
 10
-81.360268
 20
-61.893065
 11
-28.596933
 21
-61.893065
  0
LINE
  8
別途部材
  6
DOT
 62
    47
 10
-81.360268
 20
-63.05973
 11
-28.596933
 21
-63.05973
  0
LINE
  8
別途部材
  6
DOT
 62
    47
 10
24.166403
 20
-61.893065
 11
-28.596933
 21
-61.893065
  0
LINE
  8
別途部材
  6
DOT
 62
    47
 10
23.079882
 20
-60.743062
 11
-28.596933
 21
-60.743062
  0
LINE
  8
別途部材
  6
DOT
 62
    47
 10
23.136405
 20
-59.076395
 11
-28.596933
 21
-59.076395
  0
LINE
  8
別途部材
  6
DOT
 62
    47
 10
23.236405
 20
-59.243062
 11
-28.596933
 21
-59.243062
  0
LINE
  8
別途部材
  6
DOT
 62
    47
 10
24.166403
 20
-63.05973
 11
-28.596933
 21
-63.05973
  0
LINE
  8
別途部材
  6
CONTINUOUS
 10
83.95629
 20
-53.785395
 11
83.95629
 21
-83.785395
  0
LINE
  8
曲げ物
  6
CONTINUOUS
 10
7.174907
 20
39.693362
 11
3.479595
 21
35.99805
  0
LINE
  8
曲げ物
  6
CONTINUOUS
 10
6.471437
 20
38.157252
 11
5.015707
 21
36.701522
  0
LINE
  8
曲げ物
  6
CONTINUOUS
 10
5.638797
 20
38.989892
 11
4.183067
 21
37.534162
  0
LINE
  8
曲げ物
  6
CONTINUOUS
 10
-26.958828
 20
39.693362
 11
-30.65414
 21
35.99805
  0
LINE
  8
曲げ物
  6
CONTINUOUS
 10
-27.662298
 20
38.157252
 11
-29.118027
 21
36.701522
  0
LINE
  8
曲げ物
  6
CONTINUOUS
 10
-28.494938
 20
38.989892
 11
-29.950667
 21
37.534162
  0
LINE
  8
曲げ物
  6
CONTINUOUS
 10
-59.340672
 20
39.693362
 11
-63.035985
 21
35.99805
  0
LINE
  8
曲げ物
  6
CONTINUOUS
 10
-60.044143
 20
38.157252
 11
-61.499873
 21
36.701522
  0
LINE
  8
曲げ物
  6
CONTINUOUS
 10
-60.876782
 20
38.989892
 11
-62.332513
 21
37.534162
  0
LINE
  8
曲げ物
  6
CONTINUOUS
 10
116.489623
 20
-53.785395
 11
83.95629
 21
-53.785395
  0
LINE
  8
曲げ物
  6
CONTINUOUS
 10
116.489623
 20
-83.785395
 11
83.95629
 21
-83.785395
  0
LINE
  8
曲げ物
  6
CONTINUOUS
 10
116.489623
 20
-53.785395
 11
116.489623
 21
-83.785395
  0
LINE
  8
鉄骨等
  6
CONTINUOUS
 62
    47
 10
114.303118
 20
55.577218
 11
113.136453
 21
55.577218
  0
LINE
  8
鉄骨等
  6
CONTINUOUS
 62
    47
 10
113.136453
 20
55.577218
 11
111.986453
 21
54.17403
  0
LINE
  8
鉄骨等
  6
CONTINUOUS
 62
    47
 10
114.303118
 20
20.050845
 11
113.136453
 21
20.050845
  0
LINE
  8
鉄骨等
  6
CONTINUOUS
 62
    47
 10
113.136453
 20
20.050845
 11
111.986453
 21
21.45403
  0
LINE
  8
鉄骨等
  6
DOT
 62
    47
 10
104.303118
 20
55.577218
 11
103.136453
 21
55.577218
  0
LINE
  8
鉄骨等
  6
DOT
 62
    47
 10
103.136453
 20
55.577218
 11
101.986453
 21
54.17403
  0
LINE
  8
鉄骨等
  6
DOT
 62
    47
 10
104.303118
 20
20.050845
 11
103.136453
 21
20.050845
  0
LINE
  8
鉄骨等
  6
DOT
 62
    47
 10
103.136453
 20
20.050845
 11
101.986453
 21
21.45403
  0
LINE
  8
鉄骨等
  6
CONTINUOUS
 62
    47
 10
-81.360268
 20
-73.05973
 11
-81.360268
 21
-71.893065
  0
LINE
  8
鉄骨等
  6
CONTINUOUS
 62
    47
 10
-81.360268
 20
-71.893065
 11
-79.957082
 21
-70.743065
  0
LINE
  8
鉄骨等
  6
CONTINUOUS
 62
    47
 10
24.166403
 20
-73.05973
 11
24.166403
 21
-71.893065
  0
LINE
  8
鉄骨等
  6
CONTINUOUS
 62
    47
 10
24.166403
 20
-71.893065
 11
22.763218
 21
-70.743065
  0
LINE
  8
鉄骨等
  6
DOT
 62
    47
 10
-81.360268
 20
-63.05973
 11
-81.360268
 21
-61.893065
  0
LINE
  8
鉄骨等
  6
DOT
 62
    47
 10
-81.360268
 20
-61.893065
 11
-79.957082
 21
-60.743065
  0
LINE
  8
鉄骨等
  6
DOT
 62
    47
 10
24.166403
 20
-63.05973
 11
24.166403
 21
-61.893065
  0
LINE
  8
鉄骨等
  6
DOT
 62
    47
 10
24.166403
 20
-61.893065
 11
22.763218
 21
-60.743065
  0
ENDSEC
  0
EOF
