  0
SECTION
  2
HEADER
  9
$EXTMIN
 10
-210.0
 20
-148.5
  9
$EXTMAX
 10
210.0
 20
148.5
  9
$PDMODE
 70
    32
  9
$PDSIZE
 40
1.5
  9
$LTSCALE
 40
10.0
  0
ENDSEC
  0
SECTION
  2
TABLES
  0
TABLE
  2
LTYPE
 70
    15
  0
LTYPE
  2
CONTINUOUS
 70
    64
  3
実線
 72
    65
 73
     0
 40
0.0
  0
LTYPE
  2
DASHED
 70
    64
  3
破線A
 72
    65
 73
     2
 40
0.6
 49
0.4
 49
-0.2
  0
LTYPE
  2
DASHEDX2
 70
    64
  3
破線B
 72
    65
 73
     2
 40
1.3
 49
0.9
 49
-0.4
  0
LTYPE
  2
DASHDOT
 70
    64
  3
１点鎖線A
 72
    65
 73
     4
 40
0.5375
 49
0.375
 49
-0.05
 49
0.0625
 49
-0.05
  0
LTYPE
  2
DASHDOTX2
 70
    64
  3
１点鎖線B
 72
    65
 73
     4
 40
1.075
 49
0.75
 49
-0.1
 49
0.125
 49
-0.1
  0
LTYPE
  2
DIVIDE2
 70
    64
  3
２点鎖線A
 72
    65
 73
     6
 40
0.5125
 49
0.3
 49
-0.0375
 49
0.05
 49
-0.0375
 49
0.05
 49
-0.0375
  0
LTYPE
  2
DIVIDE
 70
    64
  3
２点鎖線B
 72
    65
 73
     6
 40
1.05
 49
0.55
 49
-0.1
 49
0.1
 49
-0.1
 49
0.1
 49
-0.1
  0
LTYPE
  2
DOT
 70
    64
  3
点線A
 72
    65
 73
     2
 40
0.1125
 49
0.0625
 49
-0.05
  0
LTYPE
  2
DOTX2
 70
    64
  3
点線B
 72
    65
 73
     2
 40
0.275
 49
0.15
 49
-0.125
  0
LTYPE
  2
CONTINUOUS
 70
    64
  3
実線
 72
    65
 73
     0
 40
0.0
  0
LTYPE
  2
CONTINUOUS
 70
    64
  3
実線
 72
    65
 73
     0
 40
0.0
  0
LTYPE
  2
CONTINUOUS
 70
    64
  3
実線
 72
    65
 73
     0
 40
0.0
  0
LTYPE
  2
CONTINUOUS
 70
    64
  3
実線
 72
    65
 73
     0
 40
0.0
  0
LTYPE
  2
CONTINUOUS
 70
    64
  3
実線
 72
    65
 73
     0
 40
0.0
  0
LTYPE
  2
CONTINUOUS
 70
    64
  3
実線
 72
    65
 73
     0
 40
0.0
  0
ENDTAB
  0
TABLE
  2
LAYER
 70
    34
  0
LAYER
  2
通り芯
 70
     0
 62
    15
  6
CONTINUOUS
  0
LAYER
  2
補助線
 70
     0
 62
    16
  6
DOT
  0
LAYER
  2
躯体
 70
     0
 62
    31
  6
CONTINUOUS
  0
LAYER
  2
型材
 70
     0
 62
    32
  6
CONTINUOUS
  0
LAYER
  2
型材断面
 70
     0
 62
    47
  6
CONTINUOUS
  0
LAYER
  2
ガラス
 70
     0
 62
    48
  6
CONTINUOUS
  0
LAYER
  2
ゴム等
 70
     0
 62
    63
  6
CONTINUOUS
  0
LAYER
  2
ボルト／ビス
 70
     0
 62
    64
  6
CONTINUOUS
  0
LAYER
  2
文字
 70
     0
 62
    79
  6
CONTINUOUS
  0
LAYER
  2
寸法
 70
     0
 62
    80
  6
CONTINUOUS
  0
LAYER
  2
ﾊｯﾁﾝｸﾞ
 70
     0
 62
    95
  6
CONTINUOUS
  0
LAYER
  2
別途部材
 70
     0
 62
    96
  6
CONTINUOUS
  0
LAYER
  2
曲げ物
 70
     0
 62
   111
  6
CONTINUOUS
  0
LAYER
  2
鉄骨等
 70
     0
 62
   112
  6
CONTINUOUS
  0
LAYER
  2
St
 70
     0
 62
   127
  6
CONTINUOUS
  0
LAYER
  2
その他部品等
 70
     0
 62
   128
  6
CONTINUOUS
  0
LAYER
  2
ｶﾞｽｹｯﾄ
 70
     0
 62
   143
  6
CONTINUOUS
  0
LAYER
  2
ｽｹｯﾁ
 70
     0
 62
    14
  6
CONTINUOUS
  0
LAYER
  2
0
 70
     0
 62
    17
  6
CONTINUOUS
  0
LAYER
  2
1
 70
     0
 62
    30
  6
CONTINUOUS
  0
LAYER
  2
4
 70
     0
 62
    33
  6
CONTINUOUS
  0
LAYER
  2
ﾚｲﾔ3
 70
     0
 62
    46
  6
CONTINUOUS
  0
LAYER
  2
外形線
 70
     0
 62
    49
  6
CONTINUOUS
  0
LAYER
  2
部品
 70
     0
 62
    14
  6
CONTINUOUS
  0
LAYER
  2
サッシ芯
 70
     0
 62
    17
  6
DASHDOTX2
  0
LAYER
  2
寸法線
 70
     0
 62
    62
  6
CONTINUOUS
  0
LAYER
  2
姿図外形線
 70
     0
 62
    65
  6
CONTINUOUS
  0
LAYER
  2
姿補助線
 70
     0
 62
    30
  6
CONTINUOUS
  0
LAYER
  2
透視線
 70
     0
 62
    78
  6
DOT
  0
LAYER
  2
用紙
 70
     0
 62
    81
  6
CONTINUOUS
  0
LAYER
  2
実線図枠
 70
     0
 62
    94
  6
CONTINUOUS
  0
LAYER
  2
補助図枠
 70
     0
 62
    97
  6
CONTINUOUS
  0
LAYER
  2
建具記号
 70
     0
 62
   110
  6
CONTINUOUS
  0
LAYER
  2
補助文字
 70
     0
 62
   113
  6
CONTINUOUS
  0
ENDTAB
  0
TABLE
  2
STYLE
 70
    10
  0
STYLE
  2
STANDARD
 70
     0
 40
1.0
 41
1.0
 42
1.0
 50
0.0
 71
     0
  3
TXT
  4
BIGFONT
  0
STYLE
  2
TATE
 70
     4
 40
1.0
 41
1.0
 42
1.0
 50
0.0
 71
     0
  3
TXT
  4
BIGFONT
  0
STYLE
  2
TextStyle03
 70
     0
 40
1.0
 41
1.0
 42
1.0
 50
0.0
 71
     0
  3
MONOTXT
  4
BIGFONT
  0
STYLE
  2
TextStyle04
 70
     0
 40
1.0
 41
1.0
 42
1.0
 50
0.0
 71
     0
  3
MONOTXT
  4
BIGFONT
  0
STYLE
  2
TextStyle05
 70
     0
 40
1.0
 41
1.0
 42
1.0
 50
0.0
 71
     0
  3
MONOTXT
  4
BIGFONT
  0
STYLE
  2
TextStyle06
 70
     0
 40
1.0
 41
1.0
 42
1.0
 50
0.0
 71
     0
  3
MONOTXT
  4
BIGFONT
  0
STYLE
  2
TextStyle07
 70
     0
 40
1.0
 41
1.0
 42
1.0
 50
0.0
 71
     0
  3
MONOTXT
  4
BIGFONT
  0
STYLE
  2
TextStyle08
 70
     0
 40
1.0
 41
1.0
 42
1.0
 50
0.0
 71
     0
  3
MONOTXT
  4
BIGFONT
  0
STYLE
  2
TextStyle09
 70
     0
 40
1.0
 41
1.0
 42
1.0
 50
0.0
 71
     0
  3
MONOTXT
  4
BIGFONT
  0
STYLE
  2
TextStyle10
 70
     0
 40
1.0
 41
1.0
 42
1.0
 50
0.0
 71
     0
  3
MONOTXT
  4
BIGFONT
  0
ENDTAB
  0
ENDSEC
  0
SECTION
  2
BLOCKS
  0
BLOCK
  2
*GRP_0001
 70
    65
 10
0.0
 20
0.0
  0
LINE
  8
型材断面
  6
CONTINUOUS
 10
195.0
 20
133.5
 11
195.0
 21
-133.5
  0
LINE
  8
型材断面
  6
CONTINUOUS
 10
195.0
 20
-133.5
 11
-185.0
 21
-133.5
  0
LINE
  8
型材断面
  6
CONTINUOUS
 10
-185.0
 20
-133.5
 11
-185.0
 21
133.5
  0
LINE
  8
型材断面
  6
CONTINUOUS
 10
195.0
 20
133.5
 11
-185.0
 21
133.5
  0
LINE
  8
型材断面
  6
CONTINUOUS
 10
145.0
 20
-133.5
 11
145.0
 21
-118.5
  0
LINE
  8
型材断面
  6
CONTINUOUS
 10
195.0
 20
-118.5
 11
145.0
 21
-118.5
  0
ENDBLK
  0
BLOCK
  2
*DIM_0002
 70
    65
 10
0.0
 20
0.0
  0
LINE
  8
寸法
  6
BYBLOCK
 62
     0
 10
-45.263598
 20
19.183902
 11
-45.263598
 21
14.01842
  0
LINE
  8
寸法
  6
BYBLOCK
 62
     0
 10
4.736398
 20
19.183902
 11
4.736398
 21
14.01842
  0
LINE
  8
寸法
  6
BYBLOCK
 62
     0
 10
-45.263598
 20
14.01842
 11
4.736398
 21
14.01842
  0
POINT
  8
寸法
 62
     0
 10
-45.263598
 20
14.01842
  0
POINT
  8
寸法
 62
     0
 10
4.736398
 20
14.01842
  0
TEXT
  7
TextStyle03
  8
寸法
  6
CONTINUOUS
 62
     0
 10
-23.55625
 20
14.375
  1
1500
 40
3.0
 72
     5
 11
-16.99375
 21
14.375
  0
ENDBLK
  0
BLOCK
  2
*DIM_0003
 70
    65
 10
0.0
 20
0.0
  0
LINE
  8
寸法
  6
BYBLOCK
 62
     0
 10
22.403067
 20
52.814035
 11
32.12735
 21
52.814035
  0
LINE
  8
寸法
  6
BYBLOCK
 62
     0
 10
25.033197
 20
49.114035
 11
32.12735
 21
49.114035
  0
LINE
  8
寸法
  6
BYBLOCK
 62
     0
 10
32.12735
 20
52.814035
 11
32.12735
 21
49.114035
  0
POINT
  8
寸法
 62
     0
 10
32.12735
 20
52.814035
  0
POINT
  8
寸法
 62
     0
 10
32.12735
 20
49.114035
  0
TEXT
  7
TextStyle03
  8
寸法
  6
CONTINUOUS
 62
     0
 10
31.8
 20
53.8125
  1
111
 40
3.0
 50
90.0
 72
     5
 11
31.8
 21
58.6875
  0
ENDBLK
  0
BLOCK
  2
*DIM_0004
 70
    65
 10
0.0
 20
0.0
  0
LINE
  8
寸法
  6
BYBLOCK
 62
     0
 10
22.403067
 20
22.81403
 11
32.12735
 21
22.814027
  0
LINE
  8
寸法
  6
BYBLOCK
 62
     0
 10
25.033197
 20
26.51403
 11
32.12735
 21
26.514027
  0
LINE
  8
寸法
  6
BYBLOCK
 62
     0
 10
32.12735
 20
22.814027
 11
32.12735
 21
26.514027
  0
POINT
  8
寸法
 62
     0
 10
32.12735
 20
22.814027
  0
POINT
  8
寸法
 62
     0
 10
32.12735
 20
26.514027
  0
TEXT
  7
TextStyle03
  8
寸法
  6
CONTINUOUS
 62
     0
 10
31.8
 20
16.9375
  1
111
 40
3.0
 50
90.0
 72
     5
 11
31.8
 21
21.8125
  0
ENDBLK
  0
BLOCK
  2
*DIM_0005
 70
    65
 10
0.0
 20
0.0
  0
LINE
  8
寸法
  6
BYBLOCK
 62
     0
 10
-64.930265
 20
47.814033
 11
-78.223103
 21
47.814033
  0
LINE
  8
寸法
  6
BYBLOCK
 62
     0
 10
-64.930265
 20
27.814033
 11
-78.223103
 21
27.814033
  0
LINE
  8
寸法
  6
BYBLOCK
 62
     0
 10
-78.223103
 20
47.814033
 11
-78.223103
 21
27.814033
  0
POINT
  8
寸法
 62
     0
 10
-78.223103
 20
47.814033
  0
POINT
  8
寸法
 62
     0
 10
-78.223103
 20
27.814033
  0
TEXT
  7
TextStyle03
  8
寸法
  6
CONTINUOUS
 62
     0
 10
-78.6
 20
35.3625
  1
600
 40
3.0
 50
90.0
 72
     5
 11
-78.6
 21
40.2375
  0
ENDBLK
  0
BLOCK
  2
*DIM_0006
 70
    65
 10
0.0
 20
0.0
  0
LINE
  8
寸法
  6
BYBLOCK
 62
     0
 10
-55.2636
 20
55.814033
 11
-55.2636
 21
85.561652
  0
LINE
  8
寸法
  6
BYBLOCK
 62
     0
 10
-31.930267
 20
55.814033
 11
-31.930267
 21
85.561652
  0
LINE
  8
寸法
  6
BYBLOCK
 62
     0
 10
-55.2636
 20
85.561652
 11
-31.930267
 21
85.561652
  0
POINT
  8
寸法
 62
     0
 10
-55.2636
 20
85.561652
  0
POINT
  8
寸法
 62
     0
 10
-31.930267
 20
85.561652
  0
TEXT
  7
TextStyle03
  8
寸法
  6
CONTINUOUS
 62
     0
 10
-46.0375
 20
85.925
  1
700
 40
3.0
 72
     5
 11
-41.1625
 21
85.925
  0
ENDBLK
  0
BLOCK
  2
*DIM_0007
 70
    65
 10
0.0
 20
0.0
  0
LINE
  8
寸法
  6
BYBLOCK
 62
     0
 10
-8.596933
 20
55.814033
 11
-8.596933
 21
85.561652
  0
LINE
  8
寸法
  6
BYBLOCK
 62
     0
 10
-31.930267
 20
85.561652
 11
-8.596933
 21
85.561652
  0
POINT
  8
寸法
 62
     0
 10
-8.596933
 20
85.561652
  0
TEXT
  7
TextStyle03
  8
寸法
  6
CONTINUOUS
 62
     0
 10
-22.7125
 20
85.925
  1
700
 40
3.0
 72
     5
 11
-17.8375
 21
85.925
  0
ENDBLK
  0
BLOCK
  2
*DIM_0008
 70
    65
 10
0.0
 20
0.0
  0
LINE
  8
寸法
  6
BYBLOCK
 62
     0
 10
14.7364
 20
55.814033
 11
14.7364
 21
85.561652
  0
LINE
  8
寸法
  6
BYBLOCK
 62
     0
 10
-8.596933
 20
85.561652
 11
14.7364
 21
85.561652
  0
POINT
  8
寸法
 62
     0
 10
14.7364
 20
85.561652
  0
TEXT
  7
TextStyle03
  8
寸法
  6
CONTINUOUS
 62
     0
 10
0.6375
 20
85.925
  1
700
 40
3.0
 72
     5
 11
5.5125
 21
85.925
  0
ENDBLK
  0
BLOCK
  2
*DIM_0009
 70
    65
 10
0.0
 20
0.0
  0
LINE
  8
寸法
  6
CONTINUOUS
 10
55.422717
 20
55.577218
 11
55.422717
 21
52.814033
  0
POINT
  8
寸法
 10
55.422717
 20
55.577218
  0
POINT
  8
寸法
 10
55.422717
 20
52.814033
  0
TEXT
  7
TextStyle03
  8
寸法
  6
CONTINUOUS
 10
56.825
 20
56.64375
  1
82.9
 40
3.0
 50
90.0
 72
     5
 11
56.825
 21
63.20625
  0
ENDBLK
  0
BLOCK
  2
*DIM_0010
 70
    65
 10
0.0
 20
0.0
  0
LINE
  8
寸法
  6
CONTINUOUS
 10
55.422717
 20
22.814033
 11
55.422717
 21
20.050845
  0
POINT
  8
寸法
 10
55.422717
 20
22.814033
  0
POINT
  8
寸法
 10
55.422717
 20
20.050845
  0
TEXT
  7
TextStyle03
  8
寸法
  6
CONTINUOUS
 10
56.825
 20
12.41875
  1
82.9
 40
3.0
 50
90.0
 72
     5
 11
56.825
 21
18.98125
  0
ENDBLK
  0
BLOCK
  2
*DIM_0011
 70
    65
 10
0.0
 20
0.0
  0
LINE
  8
寸法
  6
CONTINUOUS
 10
55.422717
 20
52.814033
 11
55.422717
 21
22.814033
  0
POINT
  8
寸法
 10
55.422717
 20
52.814033
  0
POINT
  8
寸法
 10
55.422717
 20
22.814033
  0
TEXT
  7
TextStyle03
  8
寸法
  6
CONTINUOUS
 10
55.025
 20
26.925
  1
呼称寸法　900
 40
3.0
 50
90.0
 72
     5
 11
55.025
 21
48.675
  0
ENDBLK
  0
BLOCK
  2
*DIM_0012
 70
    65
 10
0.0
 20
0.0
  0
LINE
  8
寸法
  6
CONTINUOUS
 10
-61.93027
 20
-12.609317
 11
-64.693602
 21
-12.609317
  0
POINT
  8
寸法
 10
-61.93027
 20
-12.609317
  0
POINT
  8
寸法
 10
-64.693602
 20
-12.609317
  0
TEXT
  7
TextStyle03
  8
寸法
  6
CONTINUOUS
 10
-69.30625
 20
-11.725
  1
82.9
 40
3.0
 72
     5
 11
-62.74375
 21
-11.725
  0
ENDBLK
  0
BLOCK
  2
*DIM_0013
 70
    65
 10
0.0
 20
0.0
  0
LINE
  8
寸法
  6
CONTINUOUS
 10
24.1664
 20
-12.609317
 11
21.403065
 21
-12.609317
  0
POINT
  8
寸法
 10
24.1664
 20
-12.609317
  0
POINT
  8
寸法
 10
21.403065
 20
-12.609317
  0
TEXT
  7
TextStyle03
  8
寸法
  6
CONTINUOUS
 10
22.46875
 20
-11.775
  1
82.9
 40
3.0
 72
     5
 11
29.03125
 21
-11.775
  0
ENDBLK
  0
BLOCK
  2
*DIM_0014
 70
    65
 10
0.0
 20
0.0
  0
LINE
  8
寸法
  6
CONTINUOUS
 10
-61.930267
 20
-12.609317
 11
21.403065
 21
-12.609317
  0
POINT
  8
寸法
 10
-61.930267
 20
-12.609317
  0
POINT
  8
寸法
 10
21.403065
 20
-12.609317
  0
TEXT
  7
TextStyle03
  8
寸法
  6
CONTINUOUS
 10
-31.99375
 20
-12.25
  1
呼称寸法　2500
 40
3.0
 72
     5
 11
-8.55625
 21
-12.25
  0
ENDBLK
  0
BLOCK
  2
*GRP_0015
 70
    65
 10
0.0
 20
0.0
  0
LINE
  8
補助線
  6
BYBLOCK
 62
    64
 10
-58.52841
 20
-74.605688
 11
-58.66546
 21
-74.700533
  0
LINE
  8
補助線
  6
BYBLOCK
 62
    64
 10
-58.644358
 20
-74.584583
 11
-58.549513
 21
-74.721635
  0
LINE
  8
補助線
  6
BYBLOCK
 62
    64
 10
-49.401008
 20
-68.288998
 11
-49.538058
 21
-68.38384
  0
LINE
  8
補助線
  6
BYBLOCK
 62
    64
 10
-49.516955
 20
-68.267893
 11
-49.42211
 21
-68.404943
  0
LINE
  8
補助線
  6
BYBLOCK
 62
    64
 10
-40.410655
 20
-62.06715
 11
-40.273607
 21
-61.972305
  0
LINE
  8
補助線
  6
BYBLOCK
 62
    64
 10
-40.389555
 20
-61.9512
 11
-40.294708
 21
-62.088252
  0
LINE
  8
型材断面
  6
CONTINUOUS
 10
-59.345255
 20
-74.157563
 11
-59.471865
 21
-74.853243
  0
LINE
  8
型材断面
  6
CONTINUOUS
 10
-59.471865
 20
-74.853243
 11
-59.092483
 21
-75.401433
  0
LINE
  8
型材断面
  6
CONTINUOUS
 10
-59.092483
 20
-75.401433
 11
-58.396803
 21
-75.528042
  0
LINE
  8
型材断面
  6
CONTINUOUS
 10
-40.542263
 20
-61.144798
 11
-39.846583
 21
-61.271407
  0
LINE
  8
型材断面
  6
CONTINUOUS
 10
-39.846583
 20
-61.271407
 11
-39.4672
 21
-61.819597
  0
LINE
  8
型材断面
  6
CONTINUOUS
 10
-39.4672
 20
-61.819597
 11
-39.59381
 21
-62.515277
  0
LINE
  8
型材断面
  6
CONTINUOUS
 10
-59.345255
 20
-74.157563
 11
-40.542263
 21
-61.144798
  0
LINE
  8
型材断面
  6
CONTINUOUS
 10
-58.396803
 20
-75.528042
 11
-39.59381
 21
-62.515277
  0
CIRCLE
  8
ボルト／ビス
  6
CONTINUOUS
 10
-58.596935
 20
-74.65311
 40
0.250185
  0
CIRCLE
  8
ボルト／ビス
  6
CONTINUOUS
 10
-58.596935
 20
-74.65311
 40
0.301025
  0
LINE
  8
ボルト／ビス
  6
CONTINUOUS
 62
    64
 10
-58.846285
 20
-74.673548
 11
-58.739307
 21
-74.447387
  0
LINE
  8
ボルト／ビス
  6
CONTINUOUS
 62
    64
 10
-58.489958
 20
-74.42695
 11
-58.739307
 21
-74.447387
  0
LINE
  8
ボルト／ビス
  6
CONTINUOUS
 62
    64
 10
-58.703913
 20
-74.87927
 11
-58.454562
 21
-74.858832
  0
LINE
  8
ボルト／ビス
  6
CONTINUOUS
 62
    64
 10
-58.347585
 20
-74.632672
 11
-58.454562
 21
-74.858832
  0
LINE
  8
ボルト／ビス
  6
CONTINUOUS
 62
    64
 10
-58.846285
 20
-74.673548
 11
-58.703913
 21
-74.87927
  0
LINE
  8
ボルト／ビス
  6
CONTINUOUS
 62
    64
 10
-58.489958
 20
-74.42695
 11
-58.347585
 21
-74.632672
  0
CIRCLE
  8
ボルト／ビス
  6
CONTINUOUS
 62
    64
 10
-58.596935
 20
-74.65311
 40
0.216668
  0
CIRCLE
  8
ボルト／ビス
  6
CONTINUOUS
 10
-49.469532
 20
-68.336417
 40
0.250185
  0
CIRCLE
  8
ボルト／ビス
  6
CONTINUOUS
 10
-49.469532
 20
-68.336417
 40
0.301025
  0
LINE
  8
ボルト／ビス
  6
CONTINUOUS
 62
    64
 10
-49.718885
 20
-68.356855
 11
-49.611907
 21
-68.130695
  0
LINE
  8
ボルト／ビス
  6
CONTINUOUS
 62
    64
 10
-49.362555
 20
-68.110257
 11
-49.611907
 21
-68.130695
  0
LINE
  8
ボルト／ビス
  6
CONTINUOUS
 62
    64
 10
-49.57651
 20
-68.56258
 11
-49.32716
 21
-68.542143
  0
LINE
  8
ボルト／ビス
  6
CONTINUOUS
 62
    64
 10
-49.220185
 20
-68.315982
 11
-49.32716
 21
-68.542143
  0
LINE
  8
ボルト／ビス
  6
CONTINUOUS
 62
    64
 10
-49.718885
 20
-68.356855
 11
-49.57651
 21
-68.56258
  0
LINE
  8
ボルト／ビス
  6
CONTINUOUS
 62
    64
 10
-49.362555
 20
-68.110257
 11
-49.220185
 21
-68.315982
  0
CIRCLE
  8
ボルト／ビス
  6
CONTINUOUS
 62
    64
 10
-49.469532
 20
-68.336417
 40
0.216668
  0
CIRCLE
  8
ボルト／ビス
  6
CONTINUOUS
 10
-40.34213
 20
-62.019728
 40
0.250185
  0
CIRCLE
  8
ボルト／ビス
  6
CONTINUOUS
 10
-40.34213
 20
-62.019728
 40
0.301025
  0
LINE
  8
ボルト／ビス
  6
CONTINUOUS
 62
    64
 10
-40.235153
 20
-61.793565
 11
-40.484502
 21
-61.814005
  0
LINE
  8
ボルト／ビス
  6
CONTINUOUS
 62
    64
 10
-40.59148
 20
-62.040165
 11
-40.484502
 21
-61.814005
  0
LINE
  8
ボルト／ビス
  6
CONTINUOUS
 62
    64
 10
-40.092782
 20
-61.99929
 11
-40.199758
 21
-62.22545
  0
LINE
  8
ボルト／ビス
  6
CONTINUOUS
 62
    64
 10
-40.449107
 20
-62.245888
 11
-40.199758
 21
-62.22545
  0
LINE
  8
ボルト／ビス
  6
CONTINUOUS
 62
    64
 10
-40.235153
 20
-61.793565
 11
-40.092782
 21
-61.99929
  0
LINE
  8
ボルト／ビス
  6
CONTINUOUS
 62
    64
 10
-40.59148
 20
-62.040165
 11
-40.449107
 21
-62.245888
  0
CIRCLE
  8
ボルト／ビス
  6
CONTINUOUS
 62
    64
 10
-40.34213
 20
-62.019728
 40
0.216668
  0
ENDBLK
  0
BLOCK
  2
*GRP_0016
 70
    65
 10
0.0
 20
0.0
  0
LINE
  8
補助線
  6
BYBLOCK
 62
    64
 10
-40.410655
 20
-74.605688
 11
-40.273605
 21
-74.700533
  0
LINE
  8
補助線
  6
BYBLOCK
 62
    64
 10
-40.294708
 20
-74.584583
 11
-40.389552
 21
-74.721635
  0
LINE
  8
補助線
  6
BYBLOCK
 62
    64
 10
-49.538058
 20
-68.288998
 11
-49.401008
 21
-68.38384
  0
LINE
  8
補助線
  6
BYBLOCK
 62
    64
 10
-49.42211
 20
-68.267893
 11
-49.516955
 21
-68.404943
  0
LINE
  8
補助線
  6
BYBLOCK
 62
    64
 10
-58.52841
 20
-62.06715
 11
-58.665457
 21
-61.972305
  0
LINE
  8
補助線
  6
BYBLOCK
 62
    64
 10
-58.54951
 20
-61.9512
 11
-58.644358
 21
-62.088252
  0
LINE
  8
型材断面
  6
CONTINUOUS
 10
-39.59381
 20
-74.157563
 11
-39.4672
 21
-74.853243
  0
LINE
  8
型材断面
  6
CONTINUOUS
 10
-39.4672
 20
-74.853243
 11
-39.846583
 21
-75.401433
  0
LINE
  8
型材断面
  6
CONTINUOUS
 10
-39.846583
 20
-75.401433
 11
-40.542263
 21
-75.528042
  0
LINE
  8
型材断面
  6
CONTINUOUS
 10
-58.396803
 20
-61.144798
 11
-59.092483
 21
-61.271407
  0
LINE
  8
型材断面
  6
CONTINUOUS
 10
-59.092483
 20
-61.271407
 11
-59.471865
 21
-61.819597
  0
LINE
  8
型材断面
  6
CONTINUOUS
 10
-59.471865
 20
-61.819597
 11
-59.345255
 21
-62.515277
  0
LINE
  8
型材断面
  6
CONTINUOUS
 10
-39.59381
 20
-74.157563
 11
-58.396803
 21
-61.144798
  0
LINE
  8
型材断面
  6
CONTINUOUS
 10
-40.542263
 20
-75.528042
 11
-59.345255
 21
-62.515277
  0
CIRCLE
  8
ボルト／ビス
  6
CONTINUOUS
 10
-40.34213
 20
-74.65311
 40
0.250185
  0
CIRCLE
  8
ボルト／ビス
  6
CONTINUOUS
 10
-40.34213
 20
-74.65311
 40
0.301025
  0
LINE
  8
ボルト／ビス
  6
CONTINUOUS
 62
    64
 10
-40.09278
 20
-74.673548
 11
-40.199758
 21
-74.447387
  0
LINE
  8
ボルト／ビス
  6
CONTINUOUS
 62
    64
 10
-40.449107
 20
-74.42695
 11
-40.199758
 21
-74.447387
  0
LINE
  8
ボルト／ビス
  6
CONTINUOUS
 62
    64
 10
-40.235153
 20
-74.87927
 11
-40.484502
 21
-74.858832
  0
LINE
  8
ボルト／ビス
  6
CONTINUOUS
 62
    64
 10
-40.59148
 20
-74.632672
 11
-40.484502
 21
-74.858832
  0
LINE
  8
ボルト／ビス
  6
CONTINUOUS
 62
    64
 10
-40.09278
 20
-74.673548
 11
-40.235153
 21
-74.87927
  0
LINE
  8
ボルト／ビス
  6
CONTINUOUS
 62
    64
 10
-40.449107
 20
-74.42695
 11
-40.59148
 21
-74.632672
  0
CIRCLE
  8
ボルト／ビス
  6
CONTINUOUS
 62
    64
 10
-40.34213
 20
-74.65311
 40
0.216668
  0
CIRCLE
  8
ボルト／ビス
  6
CONTINUOUS
 10
-49.469532
 20
-68.336417
 40
0.250185
  0
CIRCLE
  8
ボルト／ビス
  6
CONTINUOUS
 10
-49.469532
 20
-68.336417
 40
0.301025
  0
LINE
  8
ボルト／ビス
  6
CONTINUOUS
 62
    64
 10
-49.22018
 20
-68.356855
 11
-49.327157
 21
-68.130695
  0
LINE
  8
ボルト／ビス
  6
CONTINUOUS
 62
    64
 10
-49.57651
 20
-68.110257
 11
-49.327157
 21
-68.130695
  0
LINE
  8
ボルト／ビス
  6
CONTINUOUS
 62
    64
 10
-49.362555
 20
-68.56258
 11
-49.611905
 21
-68.542143
  0
LINE
  8
ボルト／ビス
  6
CONTINUOUS
 62
    64
 10
-49.71888
 20
-68.315982
 11
-49.611905
 21
-68.542143
  0
LINE
  8
ボルト／ビス
  6
CONTINUOUS
 62
    64
 10
-49.22018
 20
-68.356855
 11
-49.362555
 21
-68.56258
  0
LINE
  8
ボルト／ビス
  6
CONTINUOUS
 62
    64
 10
-49.57651
 20
-68.110257
 11
-49.71888
 21
-68.315982
  0
CIRCLE
  8
ボルト／ビス
  6
CONTINUOUS
 62
    64
 10
-49.469532
 20
-68.336417
 40
0.216668
  0
CIRCLE
  8
ボルト／ビス
  6
CONTINUOUS
 10
-58.596935
 20
-62.019728
 40
0.250185
  0
CIRCLE
  8
ボルト／ビス
  6
CONTINUOUS
 10
-58.596935
 20
-62.019728
 40
0.301025
  0
LINE
  8
ボルト／ビス
  6
CONTINUOUS
 62
    64
 10
-58.703913
 20
-61.793565
 11
-58.454562
 21
-61.814005
  0
LINE
  8
ボルト／ビス
  6
CONTINUOUS
 62
    64
 10
-58.347585
 20
-62.040165
 11
-58.454562
 21
-61.814005
  0
LINE
  8
ボルト／ビス
  6
CONTINUOUS
 62
    64
 10
-58.846282
 20
-61.99929
 11
-58.739307
 21
-62.22545
  0
LINE
  8
ボルト／ビス
  6
CONTINUOUS
 62
    64
 10
-58.489958
 20
-62.245888
 11
-58.739307
 21
-62.22545
  0
LINE
  8
ボルト／ビス
  6
CONTINUOUS
 62
    64
 10
-58.703913
 20
-61.793565
 11
-58.846282
 21
-61.99929
  0
LINE
  8
ボルト／ビス
  6
CONTINUOUS
 62
    64
 10
-58.347585
 20
-62.040165
 11
-58.489958
 21
-62.245888
  0
CIRCLE
  8
ボルト／ビス
  6
CONTINUOUS
 62
    64
 10
-58.596935
 20
-62.019728
 40
0.216668
  0
ENDBLK
  0
BLOCK
  2
*GRP_0017
 70
    65
 10
0.0
 20
0.0
  0
LINE
  8
補助線
  6
BYBLOCK
 62
    64
 10
18.00121
 20
-74.605688
 11
18.13826
 21
-74.700533
  0
LINE
  8
補助線
  6
BYBLOCK
 62
    64
 10
18.117158
 20
-74.584583
 11
18.022313
 21
-74.721635
  0
LINE
  8
補助線
  6
BYBLOCK
 62
    64
 10
8.873807
 20
-68.288998
 11
9.010858
 21
-68.38384
  0
LINE
  8
補助線
  6
BYBLOCK
 62
    64
 10
8.989755
 20
-68.267893
 11
8.89491
 21
-68.404943
  0
LINE
  8
補助線
  6
BYBLOCK
 62
    64
 10
-0.116545
 20
-62.06715
 11
-0.253593
 21
-61.972305
  0
LINE
  8
補助線
  6
BYBLOCK
 62
    64
 10
-0.137645
 20
-61.9512
 11
-0.232492
 21
-62.088252
  0
LINE
  8
型材断面
  6
CONTINUOUS
 10
18.818055
 20
-74.157563
 11
18.944665
 21
-74.853243
  0
LINE
  8
型材断面
  6
CONTINUOUS
 10
18.944665
 20
-74.853243
 11
18.565282
 21
-75.401433
  0
LINE
  8
型材断面
  6
CONTINUOUS
 10
18.565282
 20
-75.401433
 11
17.869602
 21
-75.528042
  0
LINE
  8
型材断面
  6
CONTINUOUS
 10
0.015063
 20
-61.144798
 11
-0.680617
 21
-61.271407
  0
LINE
  8
型材断面
  6
CONTINUOUS
 10
-0.680617
 20
-61.271407
 11
-1.06
 21
-61.819597
  0
LINE
  8
型材断面
  6
CONTINUOUS
 10
-1.06
 20
-61.819597
 11
-0.93339
 21
-62.515277
  0
LINE
  8
型材断面
  6
CONTINUOUS
 10
18.818055
 20
-74.157563
 11
0.015063
 21
-61.144798
  0
LINE
  8
型材断面
  6
CONTINUOUS
 10
17.869602
 20
-75.528042
 11
-0.93339
 21
-62.515277
  0
CIRCLE
  8
ボルト／ビス
  6
CONTINUOUS
 10
18.069735
 20
-74.65311
 40
0.250185
  0
CIRCLE
  8
ボルト／ビス
  6
CONTINUOUS
 10
18.069735
 20
-74.65311
 40
0.301025
  0
LINE
  8
ボルト／ビス
  6
CONTINUOUS
 62
    64
 10
18.319085
 20
-74.673548
 11
18.212107
 21
-74.447387
  0
LINE
  8
ボルト／ビス
  6
CONTINUOUS
 62
    64
 10
17.962758
 20
-74.42695
 11
18.212107
 21
-74.447387
  0
LINE
  8
ボルト／ビス
  6
CONTINUOUS
 62
    64
 10
18.176713
 20
-74.87927
 11
17.927362
 21
-74.858832
  0
LINE
  8
ボルト／ビス
  6
CONTINUOUS
 62
    64
 10
17.820385
 20
-74.632672
 11
17.927362
 21
-74.858832
  0
LINE
  8
ボルト／ビス
  6
CONTINUOUS
 62
    64
 10
18.319085
 20
-74.673548
 11
18.176713
 21
-74.87927
  0
LINE
  8
ボルト／ビス
  6
CONTINUOUS
 62
    64
 10
17.962758
 20
-74.42695
 11
17.820385
 21
-74.632672
  0
CIRCLE
  8
ボルト／ビス
  6
CONTINUOUS
 62
    64
 10
18.069735
 20
-74.65311
 40
0.216668
  0
CIRCLE
  8
ボルト／ビス
  6
CONTINUOUS
 10
8.942332
 20
-68.336417
 40
0.250185
  0
CIRCLE
  8
ボルト／ビス
  6
CONTINUOUS
 10
8.942332
 20
-68.336417
 40
0.301025
  0
LINE
  8
ボルト／ビス
  6
CONTINUOUS
 62
    64
 10
9.191685
 20
-68.356855
 11
9.084707
 21
-68.130695
  0
LINE
  8
ボルト／ビス
  6
CONTINUOUS
 62
    64
 10
8.835355
 20
-68.110257
 11
9.084707
 21
-68.130695
  0
LINE
  8
ボルト／ビス
  6
CONTINUOUS
 62
    64
 10
9.04931
 20
-68.56258
 11
8.79996
 21
-68.542143
  0
LINE
  8
ボルト／ビス
  6
CONTINUOUS
 62
    64
 10
8.692985
 20
-68.315982
 11
8.79996
 21
-68.542143
  0
LINE
  8
ボルト／ビス
  6
CONTINUOUS
 62
    64
 10
9.191685
 20
-68.356855
 11
9.04931
 21
-68.56258
  0
LINE
  8
ボルト／ビス
  6
CONTINUOUS
 62
    64
 10
8.835355
 20
-68.110257
 11
8.692985
 21
-68.315982
  0
CIRCLE
  8
ボルト／ビス
  6
CONTINUOUS
 62
    64
 10
8.942332
 20
-68.336417
 40
0.216668
  0
CIRCLE
  8
ボルト／ビス
  6
CONTINUOUS
 10
-0.18507
 20
-62.019728
 40
0.250185
  0
CIRCLE
  8
ボルト／ビス
  6
CONTINUOUS
 10
-0.18507
 20
-62.019728
 40
0.301025
  0
LINE
  8
ボルト／ビス
  6
CONTINUOUS
 62
    64
 10
-0.292047
 20
-61.793565
 11
-0.042698
 21
-61.814005
  0
LINE
  8
ボルト／ビス
  6
CONTINUOUS
 62
    64
 10
0.06428
 20
-62.040165
 11
-0.042698
 21
-61.814005
  0
LINE
  8
ボルト／ビス
  6
CONTINUOUS
 62
    64
 10
-0.434418
 20
-61.99929
 11
-0.327442
 21
-62.22545
  0
LINE
  8
ボルト／ビス
  6
CONTINUOUS
 62
    64
 10
-0.078093
 20
-62.245888
 11
-0.327442
 21
-62.22545
  0
LINE
  8
ボルト／ビス
  6
CONTINUOUS
 62
    64
 10
-0.292047
 20
-61.793565
 11
-0.434418
 21
-61.99929
  0
LINE
  8
ボルト／ビス
  6
CONTINUOUS
 62
    64
 10
0.06428
 20
-62.040165
 11
-0.078093
 21
-62.245888
  0
CIRCLE
  8
ボルト／ビス
  6
CONTINUOUS
 62
    64
 10
-0.18507
 20
-62.019728
 40
0.216668
  0
ENDBLK
  0
BLOCK
  2
*GRP_0018
 70
    65
 10
0.0
 20
0.0
  0
LINE
  8
補助線
  6
BYBLOCK
 62
    64
 10
-0.116545
 20
-74.605688
 11
-0.253595
 21
-74.700533
  0
LINE
  8
補助線
  6
BYBLOCK
 62
    64
 10
-0.232492
 20
-74.584583
 11
-0.137648
 21
-74.721635
  0
LINE
  8
補助線
  6
BYBLOCK
 62
    64
 10
9.010858
 20
-68.288998
 11
8.873807
 21
-68.38384
  0
LINE
  8
補助線
  6
BYBLOCK
 62
    64
 10
8.89491
 20
-68.267893
 11
8.989755
 21
-68.404943
  0
LINE
  8
補助線
  6
BYBLOCK
 62
    64
 10
18.00121
 20
-62.06715
 11
18.138257
 21
-61.972305
  0
LINE
  8
補助線
  6
BYBLOCK
 62
    64
 10
18.02231
 20
-61.9512
 11
18.117158
 21
-62.088252
  0
LINE
  8
型材断面
  6
CONTINUOUS
 10
-0.93339
 20
-74.157563
 11
-1.06
 21
-74.853243
  0
LINE
  8
型材断面
  6
CONTINUOUS
 10
-1.06
 20
-74.853243
 11
-0.680617
 21
-75.401433
  0
LINE
  8
型材断面
  6
CONTINUOUS
 10
-0.680617
 20
-75.401433
 11
0.015063
 21
-75.528042
  0
LINE
  8
型材断面
  6
CONTINUOUS
 10
17.869602
 20
-61.144798
 11
18.565282
 21
-61.271407
  0
LINE
  8
型材断面
  6
CONTINUOUS
 10
18.565282
 20
-61.271407
 11
18.944665
 21
-61.819597
  0
LINE
  8
型材断面
  6
CONTINUOUS
 10
18.944665
 20
-61.819597
 11
18.818055
 21
-62.515277
  0
LINE
  8
型材断面
  6
CONTINUOUS
 10
-0.93339
 20
-74.157563
 11
17.869602
 21
-61.144798
  0
LINE
  8
型材断面
  6
CONTINUOUS
 10
0.015063
 20
-75.528042
 11
18.818055
 21
-62.515277
  0
CIRCLE
  8
ボルト／ビス
  6
CONTINUOUS
 10
-0.18507
 20
-74.65311
 40
0.250185
  0
CIRCLE
  8
ボルト／ビス
  6
CONTINUOUS
 10
-0.18507
 20
-74.65311
 40
0.301025
  0
LINE
  8
ボルト／ビス
  6
CONTINUOUS
 62
    64
 10
-0.43442
 20
-74.673548
 11
-0.327442
 21
-74.447387
  0
LINE
  8
ボルト／ビス
  6
CONTINUOUS
 62
    64
 10
-0.078093
 20
-74.42695
 11
-0.327442
 21
-74.447387
  0
LINE
  8
ボルト／ビス
  6
CONTINUOUS
 62
    64
 10
-0.292047
 20
-74.87927
 11
-0.042698
 21
-74.858832
  0
LINE
  8
ボルト／ビス
  6
CONTINUOUS
 62
    64
 10
0.06428
 20
-74.632672
 11
-0.042698
 21
-74.858832
  0
LINE
  8
ボルト／ビス
  6
CONTINUOUS
 62
    64
 10
-0.43442
 20
-74.673548
 11
-0.292047
 21
-74.87927
  0
LINE
  8
ボルト／ビス
  6
CONTINUOUS
 62
    64
 10
-0.078093
 20
-74.42695
 11
0.06428
 21
-74.632672
  0
CIRCLE
  8
ボルト／ビス
  6
CONTINUOUS
 62
    64
 10
-0.18507
 20
-74.65311
 40
0.216668
  0
CIRCLE
  8
ボルト／ビス
  6
CONTINUOUS
 10
8.942332
 20
-68.336417
 40
0.250185
  0
CIRCLE
  8
ボルト／ビス
  6
CONTINUOUS
 10
8.942332
 20
-68.336417
 40
0.301025
  0
LINE
  8
ボルト／ビス
  6
CONTINUOUS
 62
    64
 10
8.69298
 20
-68.356855
 11
8.799957
 21
-68.130695
  0
LINE
  8
ボルト／ビス
  6
CONTINUOUS
 62
    64
 10
9.04931
 20
-68.110257
 11
8.799957
 21
-68.130695
  0
LINE
  8
ボルト／ビス
  6
CONTINUOUS
 62
    64
 10
8.835355
 20
-68.56258
 11
9.084705
 21
-68.542143
  0
LINE
  8
ボルト／ビス
  6
CONTINUOUS
 62
    64
 10
9.19168
 20
-68.315982
 11
9.084705
 21
-68.542143
  0
LINE
  8
ボルト／ビス
  6
CONTINUOUS
 62
    64
 10
8.69298
 20
-68.356855
 11
8.835355
 21
-68.56258
  0
LINE
  8
ボルト／ビス
  6
CONTINUOUS
 62
    64
 10
9.04931
 20
-68.110257
 11
9.19168
 21
-68.315982
  0
CIRCLE
  8
ボルト／ビス
  6
CONTINUOUS
 62
    64
 10
8.942332
 20
-68.336417
 40
0.216668
  0
CIRCLE
  8
ボルト／ビス
  6
CONTINUOUS
 10
18.069735
 20
-62.019728
 40
0.250185
  0
CIRCLE
  8
ボルト／ビス
  6
CONTINUOUS
 10
18.069735
 20
-62.019728
 40
0.301025
  0
LINE
  8
ボルト／ビス
  6
CONTINUOUS
 62
    64
 10
18.176713
 20
-61.793565
 11
17.927362
 21
-61.814005
  0
LINE
  8
ボルト／ビス
  6
CONTINUOUS
 62
    64
 10
17.820385
 20
-62.040165
 11
17.927362
 21
-61.814005
  0
LINE
  8
ボルト／ビス
  6
CONTINUOUS
 62
    64
 10
18.319082
 20
-61.99929
 11
18.212107
 21
-62.22545
  0
LINE
  8
ボルト／ビス
  6
CONTINUOUS
 62
    64
 10
17.962758
 20
-62.245888
 11
18.212107
 21
-62.22545
  0
LINE
  8
ボルト／ビス
  6
CONTINUOUS
 62
    64
 10
18.176713
 20
-61.793565
 11
18.319082
 21
-61.99929
  0
LINE
  8
ボルト／ビス
  6
CONTINUOUS
 62
    64
 10
17.820385
 20
-62.040165
 11
17.962758
 21
-62.245888
  0
CIRCLE
  8
ボルト／ビス
  6
CONTINUOUS
 62
    64
 10
18.069735
 20
-62.019728
 40
0.216668
  0
ENDBLK
  0
BLOCK
  2
*DIM_0019
 70
    65
 10
0.0
 20
0.0
  0
LINE
  8
寸法
  6
CONTINUOUS
 10
116.489623
 20
-44.805355
 11
75.422955
 21
-44.805355
  0
POINT
  8
寸法
 10
116.489623
 20
-44.805355
  0
POINT
  8
寸法
 10
75.422955
 20
-44.805355
  0
TEXT
  7
TextStyle03
  8
寸法
  6
CONTINUOUS
 10
92.66875
 20
-44.45
  1
1232
 40
3.0
 72
     5
 11
99.23125
 21
-44.45
  0
ENDBLK
  0
BLOCK
  2
*DIM_0020
 70
    65
 10
0.0
 20
0.0
  0
LINE
  8
寸法
  6
BYBLOCK
 62
     0
 10
40.579888
 20
-69.076395
 11
40.579888
 21
-59.076395
  0
POINT
  8
寸法
 62
     0
 10
40.579888
 20
-69.076395
  0
POINT
  8
寸法
 62
     0
 10
40.579888
 20
-59.076395
  0
TEXT
  7
TextStyle03
  8
寸法
  6
CONTINUOUS
 62
     0
 10
39.8
 20
-56.94375
  1
上昇266以上
 40
3.0
 50
90.0
 72
     5
 11
39.8
 21
-38.75625
  0
ENDBLK
  0
BLOCK
  2
*DIM_0021
 70
    65
 10
0.0
 20
0.0
  0
LINE
  8
寸法
  6
BYBLOCK
 62
     0
 10
110.319782
 20
61.81515
 11
100.319782
 21
61.81515
  0
POINT
  8
寸法
 62
     0
 10
110.319782
 20
61.81515
  0
POINT
  8
寸法
 62
     0
 10
100.319782
 20
61.81515
  0
TEXT
  7
TextStyle03
  8
寸法
  6
CONTINUOUS
 62
     0
 10
78.63125
 20
59.95
  1
上昇266以上
 40
3.0
 72
     5
 11
96.81875
 21
59.95
  0
ENDBLK
  0
BLOCK
  2
*DIM_0022
 70
    65
 10
0.0
 20
0.0
  0
LINE
  8
寸法
  6
CONTINUOUS
 10
121.489623
 20
-53.785395
 11
128.963678
 21
-53.785395
  0
LINE
  8
寸法
  6
CONTINUOUS
 10
121.489623
 20
-83.785395
 11
128.963678
 21
-83.785395
  0
LINE
  8
寸法
  6
CONTINUOUS
 10
128.963678
 20
-53.785395
 11
128.963678
 21
-83.785395
  0
POINT
  8
寸法
 10
128.963678
 20
-53.785395
  0
POINT
  8
寸法
 10
128.963678
 20
-83.785395
  0
TEXT
  7
TextStyle03
  8
寸法
  6
CONTINUOUS
 10
128.575
 20
-71.2375
  1
900
 40
3.0
 50
90.0
 72
     5
 11
128.575
 21
-66.3625
  0
ENDBLK
  0
BLOCK
  2
*DIM_0023
 70
    65
 10
0.0
 20
0.0
  0
LINE
  8
寸法
  6
CONTINUOUS
 10
28.078578
 20
-69.076395
 11
40.579888
 21
-69.076395
  0
LINE
  8
寸法
  6
CONTINUOUS
 10
29.166403
 20
-77.192947
 11
40.579888
 21
-77.192947
  0
LINE
  8
寸法
  6
CONTINUOUS
 10
40.579888
 20
-69.076395
 11
40.579888
 21
-77.192947
  0
POINT
  8
寸法
 10
40.579888
 20
-69.076395
  0
POINT
  8
寸法
 10
40.579888
 20
-77.192947
  0
TEXT
  7
TextStyle03
  8
寸法
  6
CONTINUOUS
 10
43.6
 20
-77.275
  1
243.5
 40
3.0
 50
90.0
 72
     5
 11
43.6
 21
-69.025
  0
ENDBLK
  0
BLOCK
  2
*DIM_0024
 70
    65
 10
0.0
 20
0.0
  0
LINE
  8
寸法
  6
CONTINUOUS
 10
110.319782
 20
57.814033
 11
110.319782
 21
61.81515
  0
LINE
  8
寸法
  6
CONTINUOUS
 10
118.436335
 20
57.814033
 11
118.436335
 21
61.81515
  0
LINE
  8
寸法
  6
CONTINUOUS
 10
110.319782
 20
61.81515
 11
118.436335
 21
61.81515
  0
POINT
  8
寸法
 10
110.319782
 20
61.81515
  0
POINT
  8
寸法
 10
118.436335
 20
61.81515
  0
TEXT
  7
TextStyle03
  8
寸法
  6
CONTINUOUS
 10
110.25
 20
62.175
  1
243.5
 40
3.0
 72
     5
 11
118.5
 21
62.175
  0
ENDBLK
  0
ENDSEC
  0
SECTION
  2
ENTITIES
  0
POLYLINE
  8
通り芯
  6
CONTINUOUS
 66
     1
 70
     1
  0
VERTEX
  8
通り芯
 10
-210.0
 20
-148.5
  0
VERTEX
  8
通り芯
 10
210.0
 20
-148.5
  0
VERTEX
  8
通り芯
 10
210.0
 20
148.5
  0
VERTEX
  8
通り芯
 10
-210.0
 20
148.5
  0
SEQEND
  0
INSERT
  2
*GRP_0001
  8
型材断面
  6
CONTINUOUS
 10
0.0
 20
0.0
  0
LINE
  8
型材断面
  6
DASHDOT
 10
21.403067
 20
-77.836442
 11
21.403067
 21
52.814033
  0
LINE
  8
型材断面
  6
DASHDOT
 10
-20.2636
 20
-77.836442
 11
-20.2636
 21
52.814033
  0
LINE
  8
型材断面
  6
DASHDOT
 10
-61.930265
 20
-77.836442
 11
-61.930265
 21
52.814033
  0
LINE
  8
型材断面
  6
DASHDOT
 10
119.07983
 20
52.814033
 11
-61.930265
 21
52.814033
  0
LINE
  8
型材断面
  6
DASHDOT
 10
119.07983
 20
37.814033
 11
-61.930265
 21
37.814033
  0
LINE
  8
型材断面
  6
DASHDOT
 10
119.07983
 20
22.814033
 11
-61.930265
 21
22.814033
  0
LINE
  8
型材断面
  6
DASHDOT
 10
-20.2636
 20
22.814033
 11
-20.2636
 21
52.814033
  0
POLYLINE
  8
型材断面
  6
CONTINUOUS
 66
     1
 70
     1
  0
VERTEX
  8
型材断面
 10
-10.779187
 20
13.03811
  0
VERTEX
  8
型材断面
 10
-29.551117
 20
13.03811
  0
VERTEX
  8
型材断面
 10
-29.551117
 20
8.301267
  0
VERTEX
  8
型材断面
 10
-10.779187
 20
8.301267
  0
SEQEND
  0
POLYLINE
  8
型材断面
  6
CONTINUOUS
 66
     1
 70
     1
  0
VERTEX
  8
型材断面
 10
-10.779187
 20
62.589955
  0
VERTEX
  8
型材断面
 10
-29.551117
 20
62.589955
  0
VERTEX
  8
型材断面
 10
-29.551117
 20
67.326798
  0
VERTEX
  8
型材断面
 10
-10.779187
 20
67.326798
  0
SEQEND
  0
LINE
  8
型材断面
  6
CONTINUOUS
 10
-115.808788
 20
90.791505
 11
-115.212733
 21
88.200998
  0
LINE
  8
型材断面
  6
CONTINUOUS
 10
-115.808788
 20
90.791505
 11
-116.404845
 21
88.200998
  0
LINE
  8
型材断面
  6
CONTINUOUS
 10
-116.404845
 20
88.200998
 11
-115.212733
 21
88.200998
  0
LINE
  8
型材断面
  6
CONTINUOUS
 10
-121.831375
 20
84.922105
 11
-75.589598
 21
84.922105
  0
LINE
  8
型材断面
  6
CONTINUOUS
 10
-115.808788
 20
97.32138
 11
-117.304418
 21
94.730873
  0
LINE
  8
型材断面
  6
CONTINUOUS
 10
-115.808788
 20
97.32138
 11
-114.313158
 21
94.730873
  0
LINE
  8
型材断面
  6
CONTINUOUS
 10
-114.313158
 20
94.730873
 11
-117.304418
 21
94.730873
  0
LINE
  8
型材断面
  6
CONTINUOUS
 10
-121.831375
 20
93.792277
 11
-75.589598
 21
93.792277
  0
LINE
  8
型材断面
  6
CONTINUOUS
 10
-121.831375
 20
79.134073
 11
-75.589598
 21
79.134073
  0
LINE
  8
型材断面
  6
CONTINUOUS
 10
-121.831375
 20
73.34604
 11
-75.589598
 21
73.34604
  0
LINE
  8
型材断面
  6
CONTINUOUS
 10
-63.763625
 20
54.647387
 11
-20.2636
 21
54.647355
  0
LINE
  8
型材断面
  6
CONTINUOUS
 10
-63.763625
 20
20.980677
 11
-20.2636
 21
20.98071
  0
LINE
  8
型材断面
  6
CONTINUOUS
 10
-64.693602
 20
20.050845
 11
24.1664
 21
20.050845
  0
LINE
  8
型材断面
  6
CONTINUOUS
 10
-64.693602
 20
55.577218
 11
24.1664
 21
55.577218
  0
LINE
  8
型材断面
  6
CONTINUOUS
 10
-64.693602
 20
37.81403
 11
-67.28411
 21
39.30966
  0
LINE
  8
型材断面
  6
CONTINUOUS
 10
-64.693602
 20
37.81403
 11
-67.28411
 21
36.3184
  0
LINE
  8
型材断面
  6
CONTINUOUS
 10
-67.28411
 20
36.3184
 11
-67.28411
 21
39.30966
  0
LINE
  8
型材断面
  6
CONTINUOUS
 10
-64.693605
 20
49.114033
 11
-67.284115
 21
48.51798
  0
LINE
  8
型材断面
  6
CONTINUOUS
 10
-64.693605
 20
49.114033
 11
-67.284112
 21
49.710093
  0
LINE
  8
型材断面
  6
CONTINUOUS
 10
-67.284112
 20
49.710093
 11
-67.284115
 21
48.51798
  0
LINE
  8
型材断面
  6
CONTINUOUS
 10
-64.693605
 20
26.514027
 11
-67.284115
 21
27.11008
  0
LINE
  8
型材断面
  6
CONTINUOUS
 10
-64.693605
 20
26.514027
 11
-67.284112
 21
25.917967
  0
LINE
  8
型材断面
  6
CONTINUOUS
 10
-67.284112
 20
25.917967
 11
-67.284115
 21
27.11008
  0
LINE
  8
型材断面
  6
CONTINUOUS
 10
-45.263598
 20
55.577218
 11
-46.759227
 21
58.167725
  0
LINE
  8
型材断面
  6
CONTINUOUS
 10
-45.263598
 20
55.577218
 11
-43.767968
 21
58.167725
  0
LINE
  8
型材断面
  6
CONTINUOUS
 10
-43.767968
 20
58.167725
 11
-46.759227
 21
58.167725
  0
LINE
  8
型材断面
  6
CONTINUOUS
 10
4.736398
 20
55.577218
 11
6.232028
 21
58.167725
  0
LINE
  8
型材断面
  6
CONTINUOUS
 10
4.736398
 20
55.577218
 11
3.240768
 21
58.167725
  0
LINE
  8
型材断面
  6
CONTINUOUS
 10
3.240768
 20
58.167725
 11
6.232028
 21
58.167725
  0
LINE
  8
型材断面
  6
CONTINUOUS
 10
24.1664
 20
37.814033
 11
26.756907
 21
39.309663
  0
LINE
  8
型材断面
  6
CONTINUOUS
 10
24.1664
 20
37.814033
 11
26.756907
 21
36.318403
  0
LINE
  8
型材断面
  6
CONTINUOUS
 10
26.756907
 20
36.318403
 11
26.756907
 21
39.309663
  0
LINE
  8
型材断面
  6
CONTINUOUS
 10
24.166403
 20
49.114035
 11
26.756912
 21
48.517982
  0
LINE
  8
型材断面
  6
CONTINUOUS
 10
24.166403
 20
49.114035
 11
26.75691
 21
49.710095
  0
LINE
  8
型材断面
  6
CONTINUOUS
 10
26.75691
 20
49.710095
 11
26.756912
 21
48.517982
  0
LINE
  8
型材断面
  6
CONTINUOUS
 10
24.166403
 20
26.51403
 11
26.756912
 21
27.110082
  0
LINE
  8
型材断面
  6
CONTINUOUS
 10
24.166403
 20
26.51403
 11
26.75691
 21
25.91797
  0
LINE
  8
型材断面
  6
CONTINUOUS
 10
26.75691
 20
25.91797
 11
26.756912
 21
27.110082
  0
LINE
  8
型材断面
  6
CONTINUOUS
 10
-45.263598
 20
20.050845
 11
-46.759227
 21
17.460338
  0
LINE
  8
型材断面
  6
CONTINUOUS
 10
-45.263598
 20
20.050845
 11
-43.767968
 21
17.460338
  0
LINE
  8
型材断面
  6
CONTINUOUS
 10
-43.767968
 20
17.460338
 11
-46.759227
 21
17.460338
  0
LINE
  8
型材断面
  6
CONTINUOUS
 10
4.736398
 20
20.050845
 11
6.232028
 21
17.460338
  0
LINE
  8
型材断面
  6
CONTINUOUS
 10
4.736398
 20
20.050845
 11
3.240768
 21
17.460338
  0
LINE
  8
型材断面
  6
CONTINUOUS
 10
3.240768
 20
17.460338
 11
6.232028
 21
17.460338
  0
INSERT
  2
*GRP_0015
  8
型材断面
  6
CONTINUOUS
 10
0.0
 20
0.0
  0
INSERT
  2
*GRP_0016
  8
型材断面
  6
CONTINUOUS
 10
0.0
 20
0.0
  0
INSERT
  2
*GRP_0017
  8
型材断面
  6
CONTINUOUS
 10
0.0
 20
0.0
  0
INSERT
  2
*GRP_0018
  8
型材断面
  6
CONTINUOUS
 10
0.0
 20
0.0
  0
LINE
  8
型材断面
  6
CONTINUOUS
 10
-19.0136
 20
24.31404
 11
-21.5136
 21
24.31404
  0
LINE
  8
型材断面
  6
CONTINUOUS
 10
-19.0136
 20
51.314025
 11
-21.5136
 21
51.314025
  0
LINE
  8
型材断面
  6
CONTINUOUS
 10
-19.0136
 20
24.31404
 11
-19.0136
 21
51.314025
  0
LINE
  8
型材断面
  6
CONTINUOUS
 10
-21.5136
 20
24.31404
 11
-21.5136
 21
51.314025
  0
LINE
  8
型材断面
  6
CONTINUOUS
 10
24.166405
 20
20.050845
 11
24.166405
 21
55.577218
  0
LINE
  8
型材断面
  6
CONTINUOUS
 10
23.000725
 20
20.980677
 11
23.236425
 21
21.216378
  0
LINE
  8
型材断面
  6
CONTINUOUS
 10
20.500722
 20
23.480677
 11
20.736422
 21
23.716378
  0
LINE
  8
型材断面
  6
CONTINUOUS
 10
20.736422
 20
23.716378
 11
23.236425
 21
21.216378
  0
LINE
  8
型材断面
  6
CONTINUOUS
 10
20.500722
 20
23.480677
 11
23.000725
 21
20.980677
  0
LINE
  8
型材断面
  6
CONTINUOUS
 10
24.166258
 20
20.050845
 11
23.118572
 21
21.098525
  0
LINE
  8
型材断面
  6
CONTINUOUS
 10
23.236403
 20
37.814033
 11
23.236425
 21
21.216378
  0
LINE
  8
型材断面
  6
CONTINUOUS
 10
23.000725
 20
54.647387
 11
23.236425
 21
54.411687
  0
LINE
  8
型材断面
  6
CONTINUOUS
 10
20.736422
 20
51.911687
 11
23.236425
 21
54.411687
  0
LINE
  8
型材断面
  6
CONTINUOUS
 10
24.166258
 20
55.57722
 11
23.118572
 21
54.52954
  0
LINE
  8
型材断面
  6
CONTINUOUS
 10
20.500722
 20
52.147387
 11
20.736422
 21
51.911687
  0
LINE
  8
型材断面
  6
CONTINUOUS
 10
23.236403
 20
37.814033
 11
23.236425
 21
54.411687
  0
LINE
  8
型材断面
  6
CONTINUOUS
 10
20.500722
 20
52.147387
 11
23.000725
 21
54.647387
  0
LINE
  8
型材断面
  6
CONTINUOUS
 10
20.736403
 20
38.2307
 11
23.236403
 21
38.2307
  0
LINE
  8
型材断面
  6
CONTINUOUS
 10
20.736403
 20
37.397365
 11
23.236403
 21
37.397365
  0
LINE
  8
型材断面
  6
CONTINUOUS
 10
20.736403
 20
37.397365
 11
20.736422
 21
23.716378
  0
LINE
  8
型材断面
  6
CONTINUOUS
 10
20.736403
 20
38.2307
 11
20.736422
 21
51.911687
  0
LINE
  8
型材断面
  6
CONTINUOUS
 10
-20.2636
 20
54.647355
 11
23.000725
 21
54.647387
  0
LINE
  8
型材断面
  6
CONTINUOUS
 10
-20.2636
 20
20.98071
 11
23.000725
 21
20.980677
  0
LINE
  8
型材断面
  6
CONTINUOUS
 10
0.986403
 20
23.480693
 11
0.986403
 21
20.980695
  0
LINE
  8
型材断面
  6
CONTINUOUS
 10
0.153067
 20
23.480693
 11
0.153067
 21
20.980695
  0
LINE
  8
型材断面
  6
CONTINUOUS
 10
0.986403
 20
52.147372
 11
0.986403
 21
54.64737
  0
LINE
  8
型材断面
  6
CONTINUOUS
 10
0.153067
 20
52.147372
 11
0.153067
 21
54.64737
  0
LINE
  8
型材断面
  6
CONTINUOUS
 10
-20.2636
 20
52.147357
 11
0.153067
 21
52.147372
  0
LINE
  8
型材断面
  6
CONTINUOUS
 10
0.986403
 20
52.147372
 11
20.500722
 21
52.147387
  0
LINE
  8
型材断面
  6
CONTINUOUS
 10
-20.2636
 20
23.480708
 11
0.153067
 21
23.480693
  0
LINE
  8
型材断面
  6
CONTINUOUS
 10
0.986403
 20
23.480693
 11
20.500722
 21
23.480677
  0
LINE
  8
型材断面
  6
CONTINUOUS
 10
-64.693605
 20
20.050845
 11
-64.693605
 21
55.577218
  0
LINE
  8
型材断面
  6
CONTINUOUS
 10
-63.527925
 20
20.980677
 11
-63.763625
 21
21.216378
  0
LINE
  8
型材断面
  6
CONTINUOUS
 10
-61.027923
 20
23.480677
 11
-61.263623
 21
23.716378
  0
LINE
  8
型材断面
  6
CONTINUOUS
 10
-61.263623
 20
23.716378
 11
-63.763625
 21
21.216378
  0
LINE
  8
型材断面
  6
CONTINUOUS
 10
-61.027923
 20
23.480677
 11
-63.527925
 21
20.980677
  0
LINE
  8
型材断面
  6
CONTINUOUS
 10
-64.693458
 20
20.050845
 11
-63.645773
 21
21.098525
  0
LINE
  8
型材断面
  6
CONTINUOUS
 10
-63.763602
 20
37.814033
 11
-63.763625
 21
21.216378
  0
LINE
  8
型材断面
  6
CONTINUOUS
 10
-63.527925
 20
54.647387
 11
-63.763625
 21
54.411687
  0
LINE
  8
型材断面
  6
CONTINUOUS
 10
-61.263623
 20
51.911687
 11
-63.763625
 21
54.411687
  0
LINE
  8
型材断面
  6
CONTINUOUS
 10
-64.693458
 20
55.57722
 11
-63.645773
 21
54.52954
  0
LINE
  8
型材断面
  6
CONTINUOUS
 10
-61.027923
 20
52.147387
 11
-61.263623
 21
51.911687
  0
LINE
  8
型材断面
  6
CONTINUOUS
 10
-63.763602
 20
37.814033
 11
-63.763625
 21
54.411687
  0
LINE
  8
型材断面
  6
CONTINUOUS
 10
-61.027923
 20
52.147387
 11
-63.527925
 21
54.647387
  0
LINE
  8
型材断面
  6
CONTINUOUS
 10
-61.263602
 20
38.2307
 11
-63.763602
 21
38.2307
  0
LINE
  8
型材断面
  6
CONTINUOUS
 10
-61.263602
 20
37.397365
 11
-63.763602
 21
37.397365
  0
LINE
  8
型材断面
  6
CONTINUOUS
 10
-61.263602
 20
37.397365
 11
-61.263623
 21
23.716378
  0
LINE
  8
型材断面
  6
CONTINUOUS
 10
-61.263602
 20
38.2307
 11
-61.263623
 21
51.911687
  0
LINE
  8
型材断面
  6
CONTINUOUS
 10
-41.513602
 20
23.480693
 11
-41.513602
 21
20.980695
  0
LINE
  8
型材断面
  6
CONTINUOUS
 10
-40.680267
 20
23.480693
 11
-40.680267
 21
20.980695
  0
LINE
  8
型材断面
  6
CONTINUOUS
 10
-41.513602
 20
52.147372
 11
-41.513602
 21
54.64737
  0
LINE
  8
型材断面
  6
CONTINUOUS
 10
-40.680267
 20
52.147372
 11
-40.680267
 21
54.64737
  0
LINE
  8
型材断面
  6
CONTINUOUS
 10
-41.513602
 20
52.147372
 11
-61.027923
 21
52.147387
  0
LINE
  8
型材断面
  6
CONTINUOUS
 10
-41.513602
 20
23.480693
 11
-61.027923
 21
23.480677
  0
LINE
  8
型材断面
  6
CONTINUOUS
 10
-20.2636
 20
23.480708
 11
-40.680267
 21
23.480693
  0
LINE
  8
型材断面
  6
CONTINUOUS
 10
-20.2636
 20
52.147357
 11
-40.680267
 21
52.147372
  0
LINE
  8
型材断面
  6
CONTINUOUS
 10
23.666403
 20
-77.192947
 11
23.666403
 21
-77.529612
  0
LINE
  8
型材断面
  6
CONTINUOUS
 10
23.969735
 20
-73.096397
 11
24.166403
 21
-73.293065
  0
LINE
  8
型材断面
  6
CONTINUOUS
 10
24.166403
 20
-73.293065
 11
24.166403
 21
-77.192947
  0
LINE
  8
型材断面
  6
CONTINUOUS
 10
118.436335
 20
55.07722
 11
118.773
 21
55.07722
  0
LINE
  8
型材断面
  6
CONTINUOUS
 10
114.339785
 20
55.380552
 11
114.536453
 21
55.57722
  0
LINE
  8
型材断面
  6
CONTINUOUS
 10
114.536453
 20
55.57722
 11
118.436335
 21
55.57722
  0
LINE
  8
型材断面
  6
CONTINUOUS
 10
118.773
 20
55.07722
 11
118.773
 21
37.814033
  0
LINE
  8
型材断面
  6
CONTINUOUS
 10
118.436335
 20
55.57722
 11
118.436335
 21
37.814033
  0
LINE
  8
型材断面
  6
CONTINUOUS
 62
    47
 10
114.33983
 20
55.380595
 11
114.33983
 21
37.814033
  0
LINE
  8
型材断面
  6
CONTINUOUS
 10
114.536453
 20
55.57722
 11
114.536453
 21
37.814033
  0
LINE
  8
型材断面
  6
CONTINUOUS
 10
118.436335
 20
20.550845
 11
118.773
 21
20.550845
  0
LINE
  8
型材断面
  6
CONTINUOUS
 10
114.339785
 20
20.247513
 11
114.536453
 21
20.050845
  0
LINE
  8
型材断面
  6
CONTINUOUS
 10
114.536453
 20
20.050845
 11
118.436335
 21
20.050845
  0
LINE
  8
型材断面
  6
CONTINUOUS
 10
118.773
 20
20.550845
 11
118.773
 21
37.814033
  0
LINE
  8
型材断面
  6
CONTINUOUS
 10
118.436335
 20
20.050845
 11
118.436335
 21
37.814033
  0
LINE
  8
型材断面
  6
CONTINUOUS
 62
    47
 10
114.33983
 20
20.24747
 11
114.33983
 21
37.814033
  0
LINE
  8
型材断面
  6
CONTINUOUS
 10
114.536453
 20
20.050845
 11
114.536453
 21
37.814033
  0
LINE
  8
型材断面
  6
CONTINUOUS
 62
    47
 10
23.969778
 20
-73.096443
 11
-20.2636
 21
-73.096443
  0
LINE
  8
型材断面
  6
CONTINUOUS
 10
24.166403
 20
-73.293065
 11
-20.2636
 21
-73.293065
  0
LINE
  8
型材断面
  6
CONTINUOUS
 10
24.166403
 20
-77.192947
 11
-20.2636
 21
-77.192947
  0
LINE
  8
型材断面
  6
CONTINUOUS
 10
23.666403
 20
-77.529612
 11
-20.2636
 21
-77.529612
  0
LINE
  8
型材断面
  6
CONTINUOUS
 10
-64.193602
 20
-77.192947
 11
-64.193602
 21
-77.529612
  0
LINE
  8
型材断面
  6
CONTINUOUS
 10
-64.496935
 20
-73.096397
 11
-64.693602
 21
-73.293065
  0
LINE
  8
型材断面
  6
CONTINUOUS
 10
-64.693602
 20
-73.293065
 11
-64.693602
 21
-77.192947
  0
LINE
  8
型材断面
  6
CONTINUOUS
 62
    47
 10
-64.496977
 20
-73.096443
 11
-20.2636
 21
-73.096443
  0
LINE
  8
型材断面
  6
CONTINUOUS
 10
-64.693602
 20
-73.293065
 11
-20.2636
 21
-73.293065
  0
LINE
  8
型材断面
  6
CONTINUOUS
 10
-64.693602
 20
-77.192947
 11
-20.2636
 21
-77.192947
  0
LINE
  8
型材断面
  6
CONTINUOUS
 10
-64.193602
 20
-77.529612
 11
-20.2636
 21
-77.529612
  0
TEXT
  7
TextStyle03
  8
文字
  6
CONTINUOUS
 10
-28.45
 20
9.325
  1
可動装置側
 40
3.0
 72
     5
 11
-11.95
 21
9.325
  0
TEXT
  7
TextStyle03
  8
文字
  6
CONTINUOUS
 10
-28.45
 20
63.275
  1
可動装置側
 40
3.0
 72
     5
 11
-11.95
 21
63.275
  0
TEXT
  7
TextStyle03
  8
文字
  6
CONTINUOUS
 10
-113.025
 20
89.4
  1
はケーシング位置を示す
 40
3.0
 72
     5
 11
-76.275
 21
89.4
  0
TEXT
  7
TextStyle03
  8
文字
  6
CONTINUOUS
 10
-113.025
 20
86.025
  1
４ヶ所中1ヶ所に設定
 40
3.0
 72
     5
 11
-81.3375
 21
86.025
  0
TEXT
  7
TextStyle03
  8
文字
  6
CONTINUOUS
 10
-113.025
 20
94.925
  1
は排水穴位置を示す
 40
3.0
 72
     5
 11
-83.025
 21
94.925
  0
TEXT
  7
TextStyle03
  8
文字
  6
CONTINUOUS
 10
-82.925
 20
16.275
  1
アンカーピッチ
 40
3.0
 50
90.0
 72
     5
 11
-82.925
 21
39.525
  0
TEXT
  7
TextStyle03
  8
文字
  6
CONTINUOUS
 10
-55.3
 20
90.825
  1
アンカーピッチ
 40
3.0
 72
     5
 11
-32.05
 21
90.825
  0
TEXT
  7
TextStyle03
  8
文字
  6
CONTINUOUS
 10
-116.75
 20
80.05
  1
アンカー数量　１２ヶ所
 40
3.0
 72
     5
 11
-80.0
 21
80.05
  0
TEXT
  7
TextStyle03
  8
文字
  6
CONTINUOUS
 10
-121.75
 20
69.35
  1
※重量に依るのでご相談ください
 40
3.0
 72
     5
 11
-71.5
 21
69.35
  0
TEXT
  7
TextStyle03
  8
文字
  6
CONTINUOUS
 10
-121.75
 20
74.3
  1
アームユニット数　※２～４ヶ所
 40
3.0
 72
     5
 11
-71.5
 21
74.3
  0
LINE
  8
文字
  6
CONTINUOUS
 10
112.532095
 20
55.577218
 11
55.422717
 21
55.577218
  0
LINE
  8
文字
  6
CONTINUOUS
 10
112.532095
 20
20.050845
 11
55.422717
 21
20.050845
  0
LINE
  8
文字
  6
CONTINUOUS
 10
100.319782
 20
61.81515
 11
100.319782
 21
56.902377
  0
LINE
  8
文字
  6
CONTINUOUS
 10
-64.693602
 20
-70.743062
 11
-64.693602
 21
-12.609317
  0
LINE
  8
文字
  6
CONTINUOUS
 10
24.1664
 20
-70.743062
 11
24.1664
 21
-12.609317
  0
LINE
  8
文字
  6
CONTINUOUS
 10
40.579888
 20
-59.076395
 11
26.976208
 21
-59.076395
  0
LINE
  8
文字
  6
CONTINUOUS
 10
116.489623
 20
-44.805355
 11
116.489623
 21
-52.940035
  0
LINE
  8
文字
  6
CONTINUOUS
 10
75.422955
 20
-44.805355
 11
75.422955
 21
-52.940035
  0
TEXT
  7
TextStyle03
  8
文字
  6
CONTINUOUS
 10
97.975
 20
-77.375
  1
網入り6.8t
 40
3.0
 72
     5
 11
114.6625
 21
-77.375
  0
TEXT
  7
TextStyle03
  8
文字
  6
CONTINUOUS
 10
104.65
 20
-82.05
  1
×２枚
 40
3.0
 72
     5
 11
114.4
 21
-82.05
  0
TEXT
  7
TextStyle03
  8
文字
  6
CONTINUOUS
 10
63.575
 20
125.25
  1
シリーズ：ＴＦＦＬ
 40
5.0
 72
     5
 11
113.575
 21
125.25
  0
TEXT
  7
TextStyle03
  8
文字
  6
CONTINUOUS
 10
63.575
 20
119.625
  1
　　　　　（上下可動）900×2500タイプ
 40
5.0
 72
     5
 11
167.0125
 21
119.625
  0
TEXT
  7
TextStyle03
  8
文字
  6
CONTINUOUS
 10
63.575
 20
114.0
  1
図面名　：外観姿図
 40
5.0
 72
     5
 11
113.575
 21
114.0
  0
TEXT
  7
TextStyle03
  8
文字
  6
CONTINUOUS
 10
63.575
 20
108.375
  1
　　　　　　
 40
5.0
 72
     5
 11
96.7
 21
108.375
  0
TEXT
  7
TextStyle03
  8
文字
  6
CONTINUOUS
 10
63.725
 20
104.525
  1
ＮＳコード：ＮＳＦＬ
 40
5.0
 72
     5
 11
119.35
 21
104.525
  0
INSERT
  2
*DIM_0002
  8
寸法
  6
CONTINUOUS
 10
0.0
 20
0.0
  0
INSERT
  2
*DIM_0003
  8
寸法
  6
CONTINUOUS
 10
0.0
 20
0.0
  0
INSERT
  2
*DIM_0004
  8
寸法
  6
CONTINUOUS
 10
0.0
 20
0.0
  0
INSERT
  2
*DIM_0005
  8
寸法
  6
CONTINUOUS
 10
0.0
 20
0.0
  0
INSERT
  2
*DIM_0006
  8
寸法
  6
CONTINUOUS
 10
0.0
 20
0.0
  0
INSERT
  2
*DIM_0007
  8
寸法
  6
CONTINUOUS
 10
0.0
 20
0.0
  0
INSERT
  2
*DIM_0008
  8
寸法
  6
CONTINUOUS
 10
0.0
 20
0.0
  0
INSERT
  2
*DIM_0009
  8
寸法
  6
CONTINUOUS
 10
0.0
 20
0.0
  0
INSERT
  2
*DIM_0010
  8
寸法
  6
CONTINUOUS
 10
0.0
 20
0.0
  0
INSERT
  2
*DIM_0011
  8
寸法
  6
CONTINUOUS
 10
0.0
 20
0.0
  0
INSERT
  2
*DIM_0012
  8
寸法
  6
CONTINUOUS
 10
0.0
 20
0.0
  0
INSERT
  2
*DIM_0013
  8
寸法
  6
CONTINUOUS
 10
0.0
 20
0.0
  0
INSERT
  2
*DIM_0014
  8
寸法
  6
CONTINUOUS
 10
0.0
 20
0.0
  0
INSERT
  2
*DIM_0019
  8
寸法
  6
CONTINUOUS
 10
0.0
 20
0.0
  0
INSERT
  2
*DIM_0020
  8
寸法
  6
CONTINUOUS
 10
0.0
 20
0.0
  0
INSERT
  2
*DIM_0021
  8
寸法
  6
CONTINUOUS
 10
0.0
 20
0.0
  0
INSERT
  2
*DIM_0022
  8
寸法
  6
CONTINUOUS
 10
0.0
 20
0.0
  0
INSERT
  2
*DIM_0023
  8
寸法
  6
CONTINUOUS
 10
0.0
 20
0.0
  0
INSERT
  2
*DIM_0024
  8
寸法
  6
CONTINUOUS
 10
0.0
 20
0.0
  0
LINE
  8
別途部材
  6
CONTINUOUS
 62
    47
 10
110.419782
 20
54.64722
 11
110.48645
 21
54.64722
  0
ARC
  8
別途部材
  6
CONTINUOUS
 62
    47
 10
110.419785
 20
54.547219
 40
0.1
 50
90.0
 51
180.0
  0
LINE
  8
別途部材
  6
CONTINUOUS
 62
    47
 10
110.48645
 20
54.490697
 11
111.98645
 21
54.490697
  0
LINE
  8
別途部材
  6
CONTINUOUS
 62
    47
 10
110.419782
 20
20.980842
 11
110.48645
 21
20.980842
  0
ARC
  8
別途部材
  6
CONTINUOUS
 62
    47
 10
110.419785
 20
21.080843
 40
0.1
 50
180.0
 51
270.0
  0
LINE
  8
別途部材
  6
CONTINUOUS
 62
    47
 10
110.48645
 20
21.137365
 11
111.98645
 21
21.137365
  0
LINE
  8
別途部材
  6
CONTINUOUS
 62
    47
 10
114.303118
 20
55.577218
 11
114.303118
 21
37.814033
  0
LINE
  8
別途部材
  6
CONTINUOUS
 62
    47
 10
113.136453
 20
55.577218
 11
113.136453
 21
37.814033
  0
LINE
  8
別途部材
  6
CONTINUOUS
 62
    47
 10
111.98645
 20
54.490697
 11
111.98645
 21
37.814033
  0
LINE
  8
別途部材
  6
CONTINUOUS
 62
    47
 10
110.48645
 20
54.64722
 11
110.48645
 21
37.814033
  0
LINE
  8
別途部材
  6
CONTINUOUS
 62
    47
 10
110.319782
 20
54.54722
 11
110.319782
 21
37.814033
  0
LINE
  8
別途部材
  6
CONTINUOUS
 62
    47
 10
114.303118
 20
20.050845
 11
114.303118
 21
37.814033
  0
LINE
  8
別途部材
  6
CONTINUOUS
 62
    47
 10
113.136453
 20
20.050845
 11
113.136453
 21
37.814033
  0
LINE
  8
別途部材
  6
CONTINUOUS
 62
    47
 10
110.48645
 20
20.980842
 11
110.48645
 21
37.814033
  0
LINE
  8
別途部材
  6
CONTINUOUS
 62
    47
 10
110.319782
 20
21.080842
 11
110.319782
 21
37.814033
  0
LINE
  8
別途部材
  6
CONTINUOUS
 62
    47
 10
111.98645
 20
21.137365
 11
111.98645
 21
37.814033
  0
LINE
  8
別途部材
  6
DOT
 62
    47
 10
100.419782
 20
54.64722
 11
100.48645
 21
54.64722
  0
ARC
  8
別途部材
  6
DOT
 62
    47
 10
100.419785
 20
54.547219
 40
0.1
 50
90.0
 51
180.0
  0
LINE
  8
別途部材
  6
DOT
 62
    47
 10
100.48645
 20
54.490697
 11
101.98645
 21
54.490697
  0
LINE
  8
別途部材
  6
DOT
 62
    47
 10
100.419782
 20
20.980842
 11
100.48645
 21
20.980842
  0
ARC
  8
別途部材
  6
DOT
 62
    47
 10
100.419785
 20
21.080843
 40
0.1
 50
180.0
 51
270.0
  0
LINE
  8
別途部材
  6
DOT
 62
    47
 10
100.48645
 20
21.137365
 11
101.98645
 21
21.137365
  0
LINE
  8
別途部材
  6
DOT
 62
    47
 10
104.303118
 20
55.577218
 11
104.303118
 21
37.814033
  0
LINE
  8
別途部材
  6
DOT
 62
    47
 10
103.136453
 20
55.577218
 11
103.136453
 21
37.814033
  0
LINE
  8
別途部材
  6
DOT
 62
    47
 10
101.98645
 20
54.490697
 11
101.98645
 21
37.814033
  0
LINE
  8
別途部材
  6
DOT
 62
    47
 10
100.48645
 20
54.64722
 11
100.48645
 21
37.814033
  0
LINE
  8
別途部材
  6
DOT
 62
    47
 10
100.319782
 20
54.54722
 11
100.319782
 21
37.814033
  0
LINE
  8
別途部材
  6
DOT
 62
    47
 10
103.136453
 20
20.050845
 11
103.136453
 21
37.814033
  0
LINE
  8
別途部材
  6
DOT
 62
    47
 10
104.303118
 20
20.050845
 11
104.303118
 21
37.814033
  0
LINE
  8
別途部材
  6
DOT
 62
    47
 10
100.48645
 20
20.980842
 11
100.48645
 21
37.814033
  0
LINE
  8
別途部材
  6
DOT
 62
    47
 10
100.319782
 20
21.080842
 11
100.319782
 21
37.814033
  0
LINE
  8
別途部材
  6
DOT
 62
    47
 10
101.98645
 20
21.137365
 11
101.98645
 21
37.814033
  0
LINE
  8
別途部材
  6
CONTINUOUS
 62
    47
 10
-63.763605
 20
-69.176395
 11
-63.763605
 21
-69.243062
  0
ARC
  8
別途部材
  6
CONTINUOUS
 62
    47
 10
-63.663603
 20
-69.176397
 40
0.1
 50
90.0
 51
180.0
  0
LINE
  8
別途部材
  6
CONTINUOUS
 62
    47
 10
-63.607082
 20
-69.243062
 11
-63.607082
 21
-70.743062
  0
LINE
  8
別途部材
  6
CONTINUOUS
 62
    47
 10
23.236403
 20
-69.176395
 11
23.236403
 21
-69.243062
  0
ARC
  8
別途部材
  6
CONTINUOUS
 62
    47
 10
23.1364
 20
-69.176397
 40
0.1
 50
0.0
 51
90.0
  0
LINE
  8
別途部材
  6
CONTINUOUS
 62
    47
 10
23.07988
 20
-69.243062
 11
23.07988
 21
-70.743062
  0
LINE
  8
別途部材
  6
CONTINUOUS
 62
    47
 10
-63.663605
 20
-69.076395
 11
-20.2636
 21
-69.076395
  0
LINE
  8
別途部材
  6
CONTINUOUS
 62
    47
 10
-63.763605
 20
-69.243062
 11
-20.2636
 21
-69.243062
  0
LINE
  8
別途部材
  6
CONTINUOUS
 62
    47
 10
-64.693602
 20
-71.893065
 11
-20.2636
 21
-71.893065
  0
LINE
  8
別途部材
  6
CONTINUOUS
 62
    47
 10
-63.607082
 20
-70.743062
 11
-20.2636
 21
-70.743062
  0
LINE
  8
別途部材
  6
CONTINUOUS
 62
    47
 10
-64.693602
 20
-73.05973
 11
-20.2636
 21
-73.05973
  0
LINE
  8
別途部材
  6
CONTINUOUS
 62
    47
 10
24.1664
 20
-73.05973
 11
-20.2636
 21
-73.05973
  0
LINE
  8
別途部材
  6
CONTINUOUS
 62
    47
 10
24.1664
 20
-71.893065
 11
-20.2636
 21
-71.893065
  0
LINE
  8
別途部材
  6
CONTINUOUS
 62
    47
 10
23.07988
 20
-70.743062
 11
-20.2636
 21
-70.743062
  0
LINE
  8
別途部材
  6
CONTINUOUS
 62
    47
 10
23.136403
 20
-69.076395
 11
-20.2636
 21
-69.076395
  0
LINE
  8
別途部材
  6
CONTINUOUS
 62
    47
 10
23.236403
 20
-69.243062
 11
-20.2636
 21
-69.243062
  0
LINE
  8
別途部材
  6
DOT
 62
    47
 10
-63.763605
 20
-59.176395
 11
-63.763605
 21
-59.243062
  0
ARC
  8
別途部材
  6
DOT
 62
    47
 10
-63.663603
 20
-59.176396
 40
0.1
 50
90.0
 51
180.0
  0
LINE
  8
別途部材
  6
DOT
 62
    47
 10
-63.607082
 20
-59.243062
 11
-63.607082
 21
-60.743062
  0
LINE
  8
別途部材
  6
DOT
 62
    47
 10
23.236403
 20
-59.176395
 11
23.236403
 21
-59.243062
  0
ARC
  8
別途部材
  6
DOT
 62
    47
 10
23.1364
 20
-59.176396
 40
0.1
 50
0.0
 51
90.0
  0
LINE
  8
別途部材
  6
DOT
 62
    47
 10
23.07988
 20
-59.243062
 11
23.07988
 21
-60.743062
  0
LINE
  8
別途部材
  6
DOT
 62
    47
 10
-63.663605
 20
-59.076395
 11
-20.2636
 21
-59.076395
  0
LINE
  8
別途部材
  6
DOT
 62
    47
 10
-63.763605
 20
-59.243062
 11
-20.2636
 21
-59.243062
  0
LINE
  8
別途部材
  6
DOT
 62
    47
 10
-64.693602
 20
-61.893065
 11
-20.2636
 21
-61.893065
  0
LINE
  8
別途部材
  6
DOT
 62
    47
 10
-63.607082
 20
-60.743062
 11
-20.2636
 21
-60.743062
  0
LINE
  8
別途部材
  6
DOT
 62
    47
 10
-64.693602
 20
-63.05973
 11
-20.2636
 21
-63.05973
  0
LINE
  8
別途部材
  6
DOT
 62
    47
 10
24.1664
 20
-63.05973
 11
-20.2636
 21
-63.05973
  0
LINE
  8
別途部材
  6
DOT
 62
    47
 10
24.1664
 20
-61.893065
 11
-20.2636
 21
-61.893065
  0
LINE
  8
別途部材
  6
DOT
 62
    47
 10
23.07988
 20
-60.743062
 11
-20.2636
 21
-60.743062
  0
LINE
  8
別途部材
  6
DOT
 62
    47
 10
23.136403
 20
-59.076395
 11
-20.2636
 21
-59.076395
  0
LINE
  8
別途部材
  6
DOT
 62
    47
 10
23.236403
 20
-59.243062
 11
-20.2636
 21
-59.243062
  0
LINE
  8
別途部材
  6
CONTINUOUS
 10
75.422955
 20
-53.785395
 11
75.422955
 21
-83.785395
  0
LINE
  8
曲げ物
  6
CONTINUOUS
 10
1.89681
 20
39.693362
 11
-1.798502
 21
35.99805
  0
LINE
  8
曲げ物
  6
CONTINUOUS
 10
1.19334
 20
38.157252
 11
-0.26239
 21
36.701522
  0
LINE
  8
曲げ物
  6
CONTINUOUS
 10
0.3607
 20
38.989892
 11
-1.09503
 21
37.534162
  0
LINE
  8
曲げ物
  6
CONTINUOUS
 10
-38.21488
 20
39.693362
 11
-41.910192
 21
35.99805
  0
LINE
  8
曲げ物
  6
CONTINUOUS
 10
-38.91835
 20
38.157252
 11
-40.37408
 21
36.701522
  0
LINE
  8
曲げ物
  6
CONTINUOUS
 10
-39.75099
 20
38.989892
 11
-41.20672
 21
37.534162
  0
LINE
  8
曲げ物
  6
CONTINUOUS
 10
116.489623
 20
-53.785395
 11
75.422955
 21
-53.785395
  0
LINE
  8
曲げ物
  6
CONTINUOUS
 10
116.489623
 20
-83.785395
 11
75.422955
 21
-83.785395
  0
LINE
  8
曲げ物
  6
CONTINUOUS
 10
116.489623
 20
-53.785395
 11
116.489623
 21
-83.785395
  0
LINE
  8
鉄骨等
  6
CONTINUOUS
 62
    47
 10
114.303118
 20
55.577218
 11
113.136453
 21
55.577218
  0
LINE
  8
鉄骨等
  6
CONTINUOUS
 62
    47
 10
113.136453
 20
55.577218
 11
111.986453
 21
54.17403
  0
LINE
  8
鉄骨等
  6
CONTINUOUS
 62
    47
 10
114.303118
 20
20.050845
 11
113.136453
 21
20.050845
  0
LINE
  8
鉄骨等
  6
CONTINUOUS
 62
    47
 10
113.136453
 20
20.050845
 11
111.986453
 21
21.45403
  0
LINE
  8
鉄骨等
  6
DOT
 62
    47
 10
104.303118
 20
55.577218
 11
103.136453
 21
55.577218
  0
LINE
  8
鉄骨等
  6
DOT
 62
    47
 10
103.136453
 20
55.577218
 11
101.986453
 21
54.17403
  0
LINE
  8
鉄骨等
  6
DOT
 62
    47
 10
104.303118
 20
20.050845
 11
103.136453
 21
20.050845
  0
LINE
  8
鉄骨等
  6
DOT
 62
    47
 10
103.136453
 20
20.050845
 11
101.986453
 21
21.45403
  0
LINE
  8
鉄骨等
  6
CONTINUOUS
 62
    47
 10
-64.693602
 20
-73.05973
 11
-64.693602
 21
-71.893065
  0
LINE
  8
鉄骨等
  6
CONTINUOUS
 62
    47
 10
-64.693602
 20
-71.893065
 11
-63.290417
 21
-70.743065
  0
LINE
  8
鉄骨等
  6
CONTINUOUS
 62
    47
 10
24.1664
 20
-73.05973
 11
24.1664
 21
-71.893065
  0
LINE
  8
鉄骨等
  6
CONTINUOUS
 62
    47
 10
24.1664
 20
-71.893065
 11
22.763215
 21
-70.743065
  0
LINE
  8
鉄骨等
  6
DOT
 62
    47
 10
-64.693602
 20
-63.05973
 11
-64.693602
 21
-61.893065
  0
LINE
  8
鉄骨等
  6
DOT
 62
    47
 10
-64.693602
 20
-61.893065
 11
-63.290417
 21
-60.743065
  0
LINE
  8
鉄骨等
  6
DOT
 62
    47
 10
24.1664
 20
-63.05973
 11
24.1664
 21
-61.893065
  0
LINE
  8
鉄骨等
  6
DOT
 62
    47
 10
24.1664
 20
-61.893065
 11
22.763215
 21
-60.743065
  0
ENDSEC
  0
EOF
