  0
SECTION
  2
HEADER
  9
$EXTMIN
 10
-210.0
 20
-148.5
  9
$EXTMAX
 10
210.0
 20
148.5
  9
$PDMODE
 70
    32
  9
$PDSIZE
 40
1.5
  9
$LTSCALE
 40
10.0
  0
ENDSEC
  0
SECTION
  2
TABLES
  0
TABLE
  2
LTYPE
 70
    15
  0
LTYPE
  2
CONTINUOUS
 70
    64
  3
実線
 72
    65
 73
     0
 40
0.0
  0
LTYPE
  2
DASHED
 70
    64
  3
破線A
 72
    65
 73
     2
 40
0.6
 49
0.4
 49
-0.2
  0
LTYPE
  2
DASHEDX2
 70
    64
  3
破線B
 72
    65
 73
     2
 40
1.3
 49
0.9
 49
-0.4
  0
LTYPE
  2
DASHDOT
 70
    64
  3
１点鎖線A
 72
    65
 73
     4
 40
0.5375
 49
0.375
 49
-0.05
 49
0.0625
 49
-0.05
  0
LTYPE
  2
DASHDOTX2
 70
    64
  3
１点鎖線B
 72
    65
 73
     4
 40
1.075
 49
0.75
 49
-0.1
 49
0.125
 49
-0.1
  0
LTYPE
  2
DIVIDE2
 70
    64
  3
２点鎖線A
 72
    65
 73
     6
 40
0.5125
 49
0.3
 49
-0.0375
 49
0.05
 49
-0.0375
 49
0.05
 49
-0.0375
  0
LTYPE
  2
DIVIDE
 70
    64
  3
２点鎖線B
 72
    65
 73
     6
 40
1.05
 49
0.55
 49
-0.1
 49
0.1
 49
-0.1
 49
0.1
 49
-0.1
  0
LTYPE
  2
DOT
 70
    64
  3
点線A
 72
    65
 73
     2
 40
0.1125
 49
0.0625
 49
-0.05
  0
LTYPE
  2
DOTX2
 70
    64
  3
点線B
 72
    65
 73
     2
 40
0.275
 49
0.15
 49
-0.125
  0
LTYPE
  2
CONTINUOUS
 70
    64
  3
実線
 72
    65
 73
     0
 40
0.0
  0
LTYPE
  2
CONTINUOUS
 70
    64
  3
実線
 72
    65
 73
     0
 40
0.0
  0
LTYPE
  2
CONTINUOUS
 70
    64
  3
実線
 72
    65
 73
     0
 40
0.0
  0
LTYPE
  2
CONTINUOUS
 70
    64
  3
実線
 72
    65
 73
     0
 40
0.0
  0
LTYPE
  2
CONTINUOUS
 70
    64
  3
実線
 72
    65
 73
     0
 40
0.0
  0
LTYPE
  2
CONTINUOUS
 70
    64
  3
実線
 72
    65
 73
     0
 40
0.0
  0
ENDTAB
  0
TABLE
  2
LAYER
 70
    34
  0
LAYER
  2
通り芯
 70
     0
 62
    15
  6
CONTINUOUS
  0
LAYER
  2
補助線
 70
     0
 62
    16
  6
DOT
  0
LAYER
  2
躯体
 70
     0
 62
    31
  6
CONTINUOUS
  0
LAYER
  2
型材
 70
     0
 62
    32
  6
CONTINUOUS
  0
LAYER
  2
型材断面
 70
     0
 62
    47
  6
CONTINUOUS
  0
LAYER
  2
ガラス
 70
     0
 62
    48
  6
CONTINUOUS
  0
LAYER
  2
ゴム等
 70
     0
 62
    63
  6
CONTINUOUS
  0
LAYER
  2
ボルト／ビス
 70
     0
 62
    64
  6
CONTINUOUS
  0
LAYER
  2
文字
 70
     0
 62
    79
  6
CONTINUOUS
  0
LAYER
  2
寸法
 70
     0
 62
    80
  6
CONTINUOUS
  0
LAYER
  2
ﾊｯﾁﾝｸﾞ
 70
     0
 62
    95
  6
CONTINUOUS
  0
LAYER
  2
別途部材
 70
     0
 62
    96
  6
CONTINUOUS
  0
LAYER
  2
曲げ物
 70
     0
 62
   111
  6
CONTINUOUS
  0
LAYER
  2
鉄骨等
 70
     0
 62
   112
  6
CONTINUOUS
  0
LAYER
  2
St
 70
     0
 62
   127
  6
CONTINUOUS
  0
LAYER
  2
その他部品等
 70
     0
 62
   128
  6
CONTINUOUS
  0
LAYER
  2
ｶﾞｽｹｯﾄ
 70
     0
 62
   143
  6
CONTINUOUS
  0
LAYER
  2
ｽｹｯﾁ
 70
     0
 62
    14
  6
CONTINUOUS
  0
LAYER
  2
0
 70
     0
 62
    17
  6
CONTINUOUS
  0
LAYER
  2
1
 70
     0
 62
    30
  6
CONTINUOUS
  0
LAYER
  2
4
 70
     0
 62
    33
  6
CONTINUOUS
  0
LAYER
  2
ﾚｲﾔ3
 70
     0
 62
    46
  6
CONTINUOUS
  0
LAYER
  2
外形線
 70
     0
 62
    49
  6
CONTINUOUS
  0
LAYER
  2
部品
 70
     0
 62
    14
  6
CONTINUOUS
  0
LAYER
  2
サッシ芯
 70
     0
 62
    17
  6
DASHDOTX2
  0
LAYER
  2
寸法線
 70
     0
 62
    62
  6
CONTINUOUS
  0
LAYER
  2
姿図外形線
 70
     0
 62
    65
  6
CONTINUOUS
  0
LAYER
  2
姿補助線
 70
     0
 62
    30
  6
CONTINUOUS
  0
LAYER
  2
透視線
 70
     0
 62
    78
  6
DOT
  0
LAYER
  2
用紙
 70
     0
 62
    81
  6
CONTINUOUS
  0
LAYER
  2
実線図枠
 70
     0
 62
    94
  6
CONTINUOUS
  0
LAYER
  2
補助図枠
 70
     0
 62
    97
  6
CONTINUOUS
  0
LAYER
  2
建具記号
 70
     0
 62
   110
  6
CONTINUOUS
  0
LAYER
  2
補助文字
 70
     0
 62
   113
  6
CONTINUOUS
  0
ENDTAB
  0
TABLE
  2
STYLE
 70
    10
  0
STYLE
  2
STANDARD
 70
     0
 40
1.0
 41
1.0
 42
1.0
 50
0.0
 71
     0
  3
TXT
  4
BIGFONT
  0
STYLE
  2
TATE
 70
     4
 40
1.0
 41
1.0
 42
1.0
 50
0.0
 71
     0
  3
TXT
  4
BIGFONT
  0
STYLE
  2
TextStyle03
 70
     0
 40
1.0
 41
1.0
 42
1.0
 50
0.0
 71
     0
  3
MONOTXT
  4
BIGFONT
  0
STYLE
  2
TextStyle04
 70
     0
 40
1.0
 41
1.0
 42
1.0
 50
0.0
 71
     0
  3
MONOTXT
  4
BIGFONT
  0
STYLE
  2
TextStyle05
 70
     0
 40
1.0
 41
1.0
 42
1.0
 50
0.0
 71
     0
  3
MONOTXT
  4
BIGFONT
  0
STYLE
  2
TextStyle06
 70
     0
 40
1.0
 41
1.0
 42
1.0
 50
0.0
 71
     0
  3
MONOTXT
  4
BIGFONT
  0
STYLE
  2
TextStyle07
 70
     0
 40
1.0
 41
1.0
 42
1.0
 50
0.0
 71
     0
  3
MONOTXT
  4
BIGFONT
  0
STYLE
  2
TextStyle08
 70
     0
 40
1.0
 41
1.0
 42
1.0
 50
0.0
 71
     0
  3
MONOTXT
  4
BIGFONT
  0
STYLE
  2
TextStyle09
 70
     0
 40
1.0
 41
1.0
 42
1.0
 50
0.0
 71
     0
  3
MONOTXT
  4
BIGFONT
  0
STYLE
  2
TextStyle10
 70
     0
 40
1.0
 41
1.0
 42
1.0
 50
0.0
 71
     0
  3
MONOTXT
  4
BIGFONT
  0
ENDTAB
  0
ENDSEC
  0
SECTION
  2
BLOCKS
  0
BLOCK
  2
*GRP_0001
 70
    65
 10
0.0
 20
0.0
  0
LINE
  8
型材断面
  6
CONTINUOUS
 10
195.0
 20
133.5
 11
195.0
 21
-133.5
  0
LINE
  8
型材断面
  6
CONTINUOUS
 10
195.0
 20
-133.5
 11
-185.0
 21
-133.5
  0
LINE
  8
型材断面
  6
CONTINUOUS
 10
-185.0
 20
-133.5
 11
-185.0
 21
133.5
  0
LINE
  8
型材断面
  6
CONTINUOUS
 10
195.0
 20
133.5
 11
-185.0
 21
133.5
  0
LINE
  8
型材断面
  6
CONTINUOUS
 10
145.0
 20
-133.5
 11
145.0
 21
-118.5
  0
LINE
  8
型材断面
  6
CONTINUOUS
 10
195.0
 20
-118.5
 11
145.0
 21
-118.5
  0
ENDBLK
  0
BLOCK
  2
*DIM_0002
 70
    65
 10
0.0
 20
0.0
  0
LINE
  8
寸法
  6
BYBLOCK
 62
     0
 10
-105.845783
 20
19.183902
 11
-105.845783
 21
13.963537
  0
LINE
  8
寸法
  6
BYBLOCK
 62
     0
 10
-22.51245
 20
19.183905
 11
-22.51245
 21
13.963537
  0
LINE
  8
寸法
  6
BYBLOCK
 62
     0
 10
-105.845783
 20
13.963537
 11
-22.51245
 21
13.963537
  0
POINT
  8
寸法
 62
     0
 10
-105.845783
 20
13.963537
  0
POINT
  8
寸法
 62
     0
 10
-22.51245
 20
13.963537
  0
TEXT
  7
TextStyle03
  8
寸法
  6
CONTINUOUS
 62
     0
 10
-67.48125
 20
14.325
  1
2500
 40
3.0
 72
     5
 11
-60.91875
 21
14.325
  0
ENDBLK
  0
BLOCK
  2
*DIM_0003
 70
    65
 10
0.0
 20
0.0
  0
LINE
  8
寸法
  6
BYBLOCK
 62
     0
 10
60.820882
 20
19.183902
 11
60.820882
 21
13.963537
  0
LINE
  8
寸法
  6
BYBLOCK
 62
     0
 10
-22.51245
 20
13.963537
 11
60.820882
 21
13.963537
  0
POINT
  8
寸法
 62
     0
 10
60.820882
 20
13.963537
  0
TEXT
  7
TextStyle03
  8
寸法
  6
CONTINUOUS
 62
     0
 10
15.86875
 20
14.325
  1
2500
 40
3.0
 72
     5
 11
22.43125
 21
14.325
  0
ENDBLK
  0
BLOCK
  2
*DIM_0004
 70
    65
 10
0.0
 20
0.0
  0
LINE
  8
寸法
  6
BYBLOCK
 62
     0
 10
78.48755
 20
42.814035
 11
88.211832
 21
42.814035
  0
LINE
  8
寸法
  6
BYBLOCK
 62
     0
 10
81.11768
 20
39.114035
 11
88.211832
 21
39.114035
  0
LINE
  8
寸法
  6
BYBLOCK
 62
     0
 10
88.211832
 20
42.814035
 11
88.211832
 21
39.114035
  0
POINT
  8
寸法
 62
     0
 10
88.211832
 20
42.814035
  0
POINT
  8
寸法
 62
     0
 10
88.211832
 20
39.114035
  0
TEXT
  7
TextStyle03
  8
寸法
  6
CONTINUOUS
 62
     0
 10
87.875
 20
43.8125
  1
111
 40
3.0
 50
90.0
 72
     5
 11
87.875
 21
48.6875
  0
ENDBLK
  0
BLOCK
  2
*DIM_0005
 70
    65
 10
0.0
 20
0.0
  0
LINE
  8
寸法
  6
BYBLOCK
 62
     0
 10
78.48755
 20
22.81403
 11
88.211832
 21
22.814027
  0
LINE
  8
寸法
  6
BYBLOCK
 62
     0
 10
81.11768
 20
26.51403
 11
88.211832
 21
26.514027
  0
LINE
  8
寸法
  6
BYBLOCK
 62
     0
 10
88.211832
 20
22.814027
 11
88.211832
 21
26.514027
  0
POINT
  8
寸法
 62
     0
 10
88.211832
 20
22.814027
  0
POINT
  8
寸法
 62
     0
 10
88.211832
 20
26.514027
  0
TEXT
  7
TextStyle03
  8
寸法
  6
CONTINUOUS
 62
     0
 10
88.2
 20
16.5625
  1
111
 40
3.0
 50
90.0
 72
     5
 11
88.2
 21
21.4375
  0
ENDBLK
  0
BLOCK
  2
*DIM_0006
 70
    65
 10
0.0
 20
0.0
  0
LINE
  8
寸法
  6
BYBLOCK
 62
     0
 10
-125.51245
 20
39.4807
 11
-138.805288
 21
39.4807
  0
LINE
  8
寸法
  6
BYBLOCK
 62
     0
 10
-125.51245
 20
26.147365
 11
-138.805288
 21
26.147365
  0
LINE
  8
寸法
  6
BYBLOCK
 62
     0
 10
-138.805288
 20
39.4807
 11
-138.805288
 21
26.147365
  0
POINT
  8
寸法
 62
     0
 10
-138.805288
 20
39.4807
  0
POINT
  8
寸法
 62
     0
 10
-138.805288
 20
26.147365
  0
TEXT
  7
TextStyle03
  8
寸法
  6
CONTINUOUS
 62
     0
 10
-139.2
 20
30.3625
  1
400
 40
3.0
 50
90.0
 72
     5
 11
-139.2
 21
35.2375
  0
ENDBLK
  0
BLOCK
  2
*DIM_0007
 70
    65
 10
0.0
 20
0.0
  0
LINE
  8
寸法
  6
BYBLOCK
 62
     0
 10
-115.845783
 20
45.814033
 11
-115.845783
 21
74.922105
  0
LINE
  8
寸法
  6
BYBLOCK
 62
     0
 10
-92.51245
 20
45.814033
 11
-92.51245
 21
74.922105
  0
LINE
  8
寸法
  6
BYBLOCK
 62
     0
 10
-115.845783
 20
74.922105
 11
-92.51245
 21
74.922105
  0
POINT
  8
寸法
 62
     0
 10
-115.845783
 20
74.922105
  0
POINT
  8
寸法
 62
     0
 10
-92.51245
 20
74.922105
  0
TEXT
  7
TextStyle03
  8
寸法
  6
CONTINUOUS
 62
     0
 10
-106.6125
 20
75.275
  1
700
 40
3.0
 72
     5
 11
-101.7375
 21
75.275
  0
ENDBLK
  0
BLOCK
  2
*DIM_0008
 70
    65
 10
0.0
 20
0.0
  0
LINE
  8
寸法
  6
BYBLOCK
 62
     0
 10
-69.179118
 20
45.814033
 11
-69.179118
 21
74.922105
  0
LINE
  8
寸法
  6
BYBLOCK
 62
     0
 10
-92.51245
 20
74.922105
 11
-69.179118
 21
74.922105
  0
POINT
  8
寸法
 62
     0
 10
-69.179118
 20
74.922105
  0
TEXT
  7
TextStyle03
  8
寸法
  6
CONTINUOUS
 62
     0
 10
-83.2875
 20
75.275
  1
700
 40
3.0
 72
     5
 11
-78.4125
 21
75.275
  0
ENDBLK
  0
BLOCK
  2
*DIM_0009
 70
    65
 10
0.0
 20
0.0
  0
LINE
  8
寸法
  6
BYBLOCK
 62
     0
 10
-45.845783
 20
45.814033
 11
-45.845783
 21
74.922105
  0
LINE
  8
寸法
  6
BYBLOCK
 62
     0
 10
-69.179118
 20
74.922105
 11
-45.845783
 21
74.922105
  0
POINT
  8
寸法
 62
     0
 10
-45.845783
 20
74.922105
  0
TEXT
  7
TextStyle03
  8
寸法
  6
CONTINUOUS
 62
     0
 10
-59.9375
 20
75.275
  1
700
 40
3.0
 72
     5
 11
-55.0625
 21
75.275
  0
ENDBLK
  0
BLOCK
  2
*DIM_0010
 70
    65
 10
0.0
 20
0.0
  0
LINE
  8
寸法
  6
BYBLOCK
 62
     0
 10
-22.51245
 20
45.814033
 11
-22.51245
 21
74.922105
  0
LINE
  8
寸法
  6
BYBLOCK
 62
     0
 10
-45.845783
 20
74.922105
 11
-22.51245
 21
74.922105
  0
POINT
  8
寸法
 62
     0
 10
-22.51245
 20
74.922105
  0
TEXT
  7
TextStyle03
  8
寸法
  6
CONTINUOUS
 62
     0
 10
-36.6125
 20
75.275
  1
700
 40
3.0
 72
     5
 11
-31.7375
 21
75.275
  0
ENDBLK
  0
BLOCK
  2
*DIM_0011
 70
    65
 10
0.0
 20
0.0
  0
LINE
  8
寸法
  6
BYBLOCK
 62
     0
 10
0.820882
 20
45.814033
 11
0.820882
 21
74.922105
  0
LINE
  8
寸法
  6
BYBLOCK
 62
     0
 10
-22.51245
 20
74.922105
 11
0.820882
 21
74.922105
  0
POINT
  8
寸法
 62
     0
 10
0.820882
 20
74.922105
  0
TEXT
  7
TextStyle03
  8
寸法
  6
CONTINUOUS
 62
     0
 10
-13.2875
 20
75.275
  1
700
 40
3.0
 72
     5
 11
-8.4125
 21
75.275
  0
ENDBLK
  0
BLOCK
  2
*DIM_0012
 70
    65
 10
0.0
 20
0.0
  0
LINE
  8
寸法
  6
BYBLOCK
 62
     0
 10
24.154218
 20
45.814033
 11
24.154218
 21
74.922105
  0
LINE
  8
寸法
  6
BYBLOCK
 62
     0
 10
0.820882
 20
74.922105
 11
24.154218
 21
74.922105
  0
POINT
  8
寸法
 62
     0
 10
24.154218
 20
74.922105
  0
TEXT
  7
TextStyle03
  8
寸法
  6
CONTINUOUS
 62
     0
 10
10.0625
 20
75.275
  1
700
 40
3.0
 72
     5
 11
14.9375
 21
75.275
  0
ENDBLK
  0
BLOCK
  2
*DIM_0013
 70
    65
 10
0.0
 20
0.0
  0
LINE
  8
寸法
  6
BYBLOCK
 62
     0
 10
47.48755
 20
45.814033
 11
47.48755
 21
74.922105
  0
LINE
  8
寸法
  6
BYBLOCK
 62
     0
 10
24.154218
 20
74.922105
 11
47.48755
 21
74.922105
  0
POINT
  8
寸法
 62
     0
 10
47.48755
 20
74.922105
  0
TEXT
  7
TextStyle03
  8
寸法
  6
CONTINUOUS
 62
     0
 10
33.3875
 20
75.275
  1
700
 40
3.0
 72
     5
 11
38.2625
 21
75.275
  0
ENDBLK
  0
BLOCK
  2
*DIM_0014
 70
    65
 10
0.0
 20
0.0
  0
LINE
  8
寸法
  6
BYBLOCK
 62
     0
 10
70.820882
 20
45.814033
 11
70.820882
 21
74.922105
  0
LINE
  8
寸法
  6
BYBLOCK
 62
     0
 10
47.48755
 20
74.922105
 11
70.820882
 21
74.922105
  0
POINT
  8
寸法
 62
     0
 10
70.820882
 20
74.922105
  0
TEXT
  7
TextStyle03
  8
寸法
  6
CONTINUOUS
 62
     0
 10
56.7125
 20
75.275
  1
700
 40
3.0
 72
     5
 11
61.5875
 21
75.275
  0
ENDBLK
  0
BLOCK
  2
*DIM_0015
 70
    65
 10
0.0
 20
0.0
  0
LINE
  8
寸法
  6
CONTINUOUS
 10
-122.512455
 20
-12.609317
 11
-125.275788
 21
-12.609317
  0
POINT
  8
寸法
 10
-122.512455
 20
-12.609317
  0
POINT
  8
寸法
 10
-125.275788
 20
-12.609317
  0
TEXT
  7
TextStyle03
  8
寸法
  6
CONTINUOUS
 10
-129.85625
 20
-11.675
  1
82.9
 40
3.0
 72
     5
 11
-123.29375
 21
-11.675
  0
ENDBLK
  0
BLOCK
  2
*DIM_0016
 70
    65
 10
0.0
 20
0.0
  0
LINE
  8
寸法
  6
CONTINUOUS
 10
80.250887
 20
-12.609317
 11
77.487552
 21
-12.609317
  0
POINT
  8
寸法
 10
80.250887
 20
-12.609317
  0
POINT
  8
寸法
 10
77.487552
 20
-12.609317
  0
TEXT
  7
TextStyle03
  8
寸法
  6
CONTINUOUS
 10
78.46875
 20
-11.725
  1
82.9
 40
3.0
 72
     5
 11
85.03125
 21
-11.725
  0
ENDBLK
  0
BLOCK
  2
*DIM_0017
 70
    65
 10
0.0
 20
0.0
  0
LINE
  8
寸法
  6
CONTINUOUS
 10
-122.512447
 20
-12.609317
 11
77.487552
 21
-12.609317
  0
POINT
  8
寸法
 10
-122.512447
 20
-12.609317
  0
POINT
  8
寸法
 10
77.487552
 20
-12.609317
  0
TEXT
  7
TextStyle03
  8
寸法
  6
CONTINUOUS
 10
-34.24375
 20
-12.275
  1
呼称寸法　6000
 40
3.0
 72
     5
 11
-10.80625
 21
-12.275
  0
ENDBLK
  0
BLOCK
  2
*GRP_0018
 70
    65
 10
0.0
 20
0.0
  0
LINE
  8
補助線
  6
BYBLOCK
 62
    64
 10
-119.10465
 20
-74.615697
 11
-119.253575
 21
-74.690523
  0
LINE
  8
補助線
  6
BYBLOCK
 62
    64
 10
-119.216525
 20
-74.578645
 11
-119.1417
 21
-74.727573
  0
LINE
  8
補助線
  6
BYBLOCK
 62
    64
 10
-109.18617
 20
-69.63234
 11
-109.335098
 21
-69.707165
  0
LINE
  8
補助線
  6
BYBLOCK
 62
    64
 10
-109.298048
 20
-69.595287
 11
-109.223222
 21
-69.744215
  0
LINE
  8
補助線
  6
BYBLOCK
 62
    64
 10
-99.41662
 20
-64.723808
 11
-99.267692
 21
-64.648982
  0
LINE
  8
補助線
  6
BYBLOCK
 62
    64
 10
-99.37957
 20
-64.61193
 11
-99.304745
 21
-64.760858
  0
LINE
  8
型材断面
  6
CONTINUOUS
 10
-119.85109
 20
-74.058133
 11
-120.073393
 21
-74.729385
  0
LINE
  8
型材断面
  6
CONTINUOUS
 10
-120.073393
 20
-74.729385
 11
-119.77409
 21
-75.32509
  0
LINE
  8
型材断面
  6
CONTINUOUS
 10
-119.77409
 20
-75.32509
 11
-119.102837
 21
-75.547393
  0
LINE
  8
型材断面
  6
CONTINUOUS
 10
-99.418433
 20
-63.792115
 11
-98.747177
 21
-64.014418
  0
LINE
  8
型材断面
  6
CONTINUOUS
 10
-98.747177
 20
-64.014418
 11
-98.447875
 21
-64.610123
  0
LINE
  8
型材断面
  6
CONTINUOUS
 10
-98.447875
 20
-64.610123
 11
-98.67018
 21
-65.281375
  0
LINE
  8
型材断面
  6
CONTINUOUS
 10
-119.85109
 20
-74.058133
 11
-99.418433
 21
-63.792115
  0
LINE
  8
型材断面
  6
CONTINUOUS
 10
-119.102837
 20
-75.547393
 11
-98.67018
 21
-65.281375
  0
CIRCLE
  8
ボルト／ビス
  6
CONTINUOUS
 10
-119.179112
 20
-74.65311
 40
0.250185
  0
CIRCLE
  8
ボルト／ビス
  6
CONTINUOUS
 10
-119.179112
 20
-74.65311
 40
0.301025
  0
LINE
  8
ボルト／ビス
  6
CONTINUOUS
 62
    64
 10
-119.428878
 20
-74.638608
 11
-119.291432
 21
-74.429558
  0
LINE
  8
ボルト／ビス
  6
CONTINUOUS
 62
    64
 10
-119.041668
 20
-74.44406
 11
-119.291432
 21
-74.429558
  0
LINE
  8
ボルト／ビス
  6
CONTINUOUS
 62
    64
 10
-119.316558
 20
-74.86216
 11
-119.066792
 21
-74.876663
  0
LINE
  8
ボルト／ビス
  6
CONTINUOUS
 62
    64
 10
-118.929348
 20
-74.667612
 11
-119.066792
 21
-74.876663
  0
LINE
  8
ボルト／ビス
  6
CONTINUOUS
 62
    64
 10
-119.428878
 20
-74.638608
 11
-119.316558
 21
-74.86216
  0
LINE
  8
ボルト／ビス
  6
CONTINUOUS
 62
    64
 10
-119.041668
 20
-74.44406
 11
-118.929348
 21
-74.667612
  0
CIRCLE
  8
ボルト／ビス
  6
CONTINUOUS
 62
    64
 10
-119.179112
 20
-74.65311
 40
0.216668
  0
CIRCLE
  8
ボルト／ビス
  6
CONTINUOUS
 10
-109.260635
 20
-69.669752
 40
0.250185
  0
CIRCLE
  8
ボルト／ビス
  6
CONTINUOUS
 10
-109.260635
 20
-69.669752
 40
0.301025
  0
LINE
  8
ボルト／ビス
  6
CONTINUOUS
 62
    64
 10
-109.5104
 20
-69.655248
 11
-109.372955
 21
-69.446198
  0
LINE
  8
ボルト／ビス
  6
CONTINUOUS
 62
    64
 10
-109.12319
 20
-69.4607
 11
-109.372955
 21
-69.446198
  0
LINE
  8
ボルト／ビス
  6
CONTINUOUS
 62
    64
 10
-109.39808
 20
-69.878802
 11
-109.148312
 21
-69.893307
  0
LINE
  8
ボルト／ビス
  6
CONTINUOUS
 62
    64
 10
-109.01087
 20
-69.684257
 11
-109.148312
 21
-69.893307
  0
LINE
  8
ボルト／ビス
  6
CONTINUOUS
 62
    64
 10
-109.5104
 20
-69.655248
 11
-109.39808
 21
-69.878802
  0
LINE
  8
ボルト／ビス
  6
CONTINUOUS
 62
    64
 10
-109.12319
 20
-69.4607
 11
-109.01087
 21
-69.684257
  0
CIRCLE
  8
ボルト／ビス
  6
CONTINUOUS
 62
    64
 10
-109.260635
 20
-69.669752
 40
0.216668
  0
CIRCLE
  8
ボルト／ビス
  6
CONTINUOUS
 10
-99.342158
 20
-64.686395
 40
0.250185
  0
CIRCLE
  8
ボルト／ビス
  6
CONTINUOUS
 10
-99.342158
 20
-64.686395
 40
0.301025
  0
LINE
  8
ボルト／ビス
  6
CONTINUOUS
 62
    64
 10
-99.204712
 20
-64.477345
 11
-99.454478
 21
-64.462842
  0
LINE
  8
ボルト／ビス
  6
CONTINUOUS
 62
    64
 10
-99.591922
 20
-64.671893
 11
-99.454478
 21
-64.462842
  0
LINE
  8
ボルト／ビス
  6
CONTINUOUS
 62
    64
 10
-99.092393
 20
-64.7009
 11
-99.229835
 21
-64.909948
  0
LINE
  8
ボルト／ビス
  6
CONTINUOUS
 62
    64
 10
-99.479602
 20
-64.895445
 11
-99.229835
 21
-64.909948
  0
LINE
  8
ボルト／ビス
  6
CONTINUOUS
 62
    64
 10
-99.204712
 20
-64.477345
 11
-99.092393
 21
-64.7009
  0
LINE
  8
ボルト／ビス
  6
CONTINUOUS
 62
    64
 10
-99.591922
 20
-64.671893
 11
-99.479602
 21
-64.895445
  0
CIRCLE
  8
ボルト／ビス
  6
CONTINUOUS
 62
    64
 10
-99.342158
 20
-64.686395
 40
0.216668
  0
ENDBLK
  0
BLOCK
  2
*GRP_0019
 70
    65
 10
0.0
 20
0.0
  0
LINE
  8
補助線
  6
BYBLOCK
 62
    64
 10
-99.41662
 20
-74.615697
 11
-99.267695
 21
-74.690523
  0
LINE
  8
補助線
  6
BYBLOCK
 62
    64
 10
-99.304745
 20
-74.578645
 11
-99.37957
 21
-74.727573
  0
LINE
  8
補助線
  6
BYBLOCK
 62
    64
 10
-109.3351
 20
-69.63234
 11
-109.186172
 21
-69.707165
  0
LINE
  8
補助線
  6
BYBLOCK
 62
    64
 10
-109.223222
 20
-69.595287
 11
-109.298048
 21
-69.744215
  0
LINE
  8
補助線
  6
BYBLOCK
 62
    64
 10
-119.10465
 20
-64.723808
 11
-119.253578
 21
-64.648982
  0
LINE
  8
補助線
  6
BYBLOCK
 62
    64
 10
-119.1417
 20
-64.61193
 11
-119.216525
 21
-64.760858
  0
LINE
  8
型材断面
  6
CONTINUOUS
 10
-98.67018
 20
-74.058133
 11
-98.447877
 21
-74.729385
  0
LINE
  8
型材断面
  6
CONTINUOUS
 10
-98.447877
 20
-74.729385
 11
-98.74718
 21
-75.32509
  0
LINE
  8
型材断面
  6
CONTINUOUS
 10
-98.74718
 20
-75.32509
 11
-99.418433
 21
-75.547393
  0
LINE
  8
型材断面
  6
CONTINUOUS
 10
-119.102837
 20
-63.792115
 11
-119.774093
 21
-64.014418
  0
LINE
  8
型材断面
  6
CONTINUOUS
 10
-119.774093
 20
-64.014418
 11
-120.073395
 21
-64.610123
  0
LINE
  8
型材断面
  6
CONTINUOUS
 10
-120.073395
 20
-64.610123
 11
-119.85109
 21
-65.281375
  0
LINE
  8
型材断面
  6
CONTINUOUS
 10
-98.67018
 20
-74.058133
 11
-119.102837
 21
-63.792115
  0
LINE
  8
型材断面
  6
CONTINUOUS
 10
-99.418433
 20
-75.547393
 11
-119.85109
 21
-65.281375
  0
CIRCLE
  8
ボルト／ビス
  6
CONTINUOUS
 10
-99.342158
 20
-74.65311
 40
0.250185
  0
CIRCLE
  8
ボルト／ビス
  6
CONTINUOUS
 10
-99.342158
 20
-74.65311
 40
0.301025
  0
LINE
  8
ボルト／ビス
  6
CONTINUOUS
 62
    64
 10
-99.092393
 20
-74.638608
 11
-99.229838
 21
-74.429558
  0
LINE
  8
ボルト／ビス
  6
CONTINUOUS
 62
    64
 10
-99.479602
 20
-74.44406
 11
-99.229838
 21
-74.429558
  0
LINE
  8
ボルト／ビス
  6
CONTINUOUS
 62
    64
 10
-99.204712
 20
-74.86216
 11
-99.454478
 21
-74.876663
  0
LINE
  8
ボルト／ビス
  6
CONTINUOUS
 62
    64
 10
-99.591922
 20
-74.667612
 11
-99.454478
 21
-74.876663
  0
LINE
  8
ボルト／ビス
  6
CONTINUOUS
 62
    64
 10
-99.092393
 20
-74.638608
 11
-99.204712
 21
-74.86216
  0
LINE
  8
ボルト／ビス
  6
CONTINUOUS
 62
    64
 10
-99.479602
 20
-74.44406
 11
-99.591922
 21
-74.667612
  0
CIRCLE
  8
ボルト／ビス
  6
CONTINUOUS
 62
    64
 10
-99.342158
 20
-74.65311
 40
0.216668
  0
CIRCLE
  8
ボルト／ビス
  6
CONTINUOUS
 10
-109.260635
 20
-69.669752
 40
0.250185
  0
CIRCLE
  8
ボルト／ビス
  6
CONTINUOUS
 10
-109.260635
 20
-69.669752
 40
0.301025
  0
LINE
  8
ボルト／ビス
  6
CONTINUOUS
 62
    64
 10
-109.01087
 20
-69.655248
 11
-109.148315
 21
-69.446198
  0
LINE
  8
ボルト／ビス
  6
CONTINUOUS
 62
    64
 10
-109.39808
 20
-69.4607
 11
-109.148315
 21
-69.446198
  0
LINE
  8
ボルト／ビス
  6
CONTINUOUS
 62
    64
 10
-109.12319
 20
-69.878802
 11
-109.372958
 21
-69.893307
  0
LINE
  8
ボルト／ビス
  6
CONTINUOUS
 62
    64
 10
-109.5104
 20
-69.684257
 11
-109.372958
 21
-69.893307
  0
LINE
  8
ボルト／ビス
  6
CONTINUOUS
 62
    64
 10
-109.01087
 20
-69.655248
 11
-109.12319
 21
-69.878802
  0
LINE
  8
ボルト／ビス
  6
CONTINUOUS
 62
    64
 10
-109.39808
 20
-69.4607
 11
-109.5104
 21
-69.684257
  0
CIRCLE
  8
ボルト／ビス
  6
CONTINUOUS
 62
    64
 10
-109.260635
 20
-69.669752
 40
0.216668
  0
CIRCLE
  8
ボルト／ビス
  6
CONTINUOUS
 10
-119.179112
 20
-64.686395
 40
0.250185
  0
CIRCLE
  8
ボルト／ビス
  6
CONTINUOUS
 10
-119.179112
 20
-64.686395
 40
0.301025
  0
LINE
  8
ボルト／ビス
  6
CONTINUOUS
 62
    64
 10
-119.316558
 20
-64.477345
 11
-119.066792
 21
-64.462842
  0
LINE
  8
ボルト／ビス
  6
CONTINUOUS
 62
    64
 10
-118.929348
 20
-64.671893
 11
-119.066792
 21
-64.462842
  0
LINE
  8
ボルト／ビス
  6
CONTINUOUS
 62
    64
 10
-119.428878
 20
-64.7009
 11
-119.291435
 21
-64.909948
  0
LINE
  8
ボルト／ビス
  6
CONTINUOUS
 62
    64
 10
-119.041668
 20
-64.895445
 11
-119.291435
 21
-64.909948
  0
LINE
  8
ボルト／ビス
  6
CONTINUOUS
 62
    64
 10
-119.316558
 20
-64.477345
 11
-119.428878
 21
-64.7009
  0
LINE
  8
ボルト／ビス
  6
CONTINUOUS
 62
    64
 10
-118.929348
 20
-64.671893
 11
-119.041668
 21
-64.895445
  0
CIRCLE
  8
ボルト／ビス
  6
CONTINUOUS
 62
    64
 10
-119.179112
 20
-64.686395
 40
0.216668
  0
ENDBLK
  0
BLOCK
  2
*GRP_0020
 70
    65
 10
0.0
 20
0.0
  0
LINE
  8
補助線
  6
BYBLOCK
 62
    64
 10
74.07976
 20
-74.615697
 11
74.228685
 21
-74.690523
  0
LINE
  8
補助線
  6
BYBLOCK
 62
    64
 10
74.191635
 20
-74.578645
 11
74.11681
 21
-74.727573
  0
LINE
  8
補助線
  6
BYBLOCK
 62
    64
 10
64.16128
 20
-69.63234
 11
64.310208
 21
-69.707165
  0
LINE
  8
補助線
  6
BYBLOCK
 62
    64
 10
64.273157
 20
-69.595287
 11
64.198332
 21
-69.744215
  0
LINE
  8
補助線
  6
BYBLOCK
 62
    64
 10
54.39173
 20
-64.723808
 11
54.242802
 21
-64.648982
  0
LINE
  8
補助線
  6
BYBLOCK
 62
    64
 10
54.35468
 20
-64.61193
 11
54.279855
 21
-64.760858
  0
LINE
  8
型材断面
  6
CONTINUOUS
 10
74.8262
 20
-74.058133
 11
75.048502
 21
-74.729385
  0
LINE
  8
型材断面
  6
CONTINUOUS
 10
75.048502
 20
-74.729385
 11
74.7492
 21
-75.32509
  0
LINE
  8
型材断面
  6
CONTINUOUS
 10
74.7492
 20
-75.32509
 11
74.077947
 21
-75.547393
  0
LINE
  8
型材断面
  6
CONTINUOUS
 10
54.393542
 20
-63.792115
 11
53.722287
 21
-64.014418
  0
LINE
  8
型材断面
  6
CONTINUOUS
 10
53.722287
 20
-64.014418
 11
53.422985
 21
-64.610123
  0
LINE
  8
型材断面
  6
CONTINUOUS
 10
53.422985
 20
-64.610123
 11
53.64529
 21
-65.281375
  0
LINE
  8
型材断面
  6
CONTINUOUS
 10
74.8262
 20
-74.058133
 11
54.393542
 21
-63.792115
  0
LINE
  8
型材断面
  6
CONTINUOUS
 10
74.077947
 20
-75.547393
 11
53.64529
 21
-65.281375
  0
CIRCLE
  8
ボルト／ビス
  6
CONTINUOUS
 10
74.154222
 20
-74.65311
 40
0.250185
  0
CIRCLE
  8
ボルト／ビス
  6
CONTINUOUS
 10
74.154222
 20
-74.65311
 40
0.301025
  0
LINE
  8
ボルト／ビス
  6
CONTINUOUS
 62
    64
 10
74.403988
 20
-74.638608
 11
74.266542
 21
-74.429558
  0
LINE
  8
ボルト／ビス
  6
CONTINUOUS
 62
    64
 10
74.016777
 20
-74.44406
 11
74.266542
 21
-74.429558
  0
LINE
  8
ボルト／ビス
  6
CONTINUOUS
 62
    64
 10
74.291668
 20
-74.86216
 11
74.041902
 21
-74.876663
  0
LINE
  8
ボルト／ビス
  6
CONTINUOUS
 62
    64
 10
73.904457
 20
-74.667612
 11
74.041902
 21
-74.876663
  0
LINE
  8
ボルト／ビス
  6
CONTINUOUS
 62
    64
 10
74.403988
 20
-74.638608
 11
74.291668
 21
-74.86216
  0
LINE
  8
ボルト／ビス
  6
CONTINUOUS
 62
    64
 10
74.016777
 20
-74.44406
 11
73.904457
 21
-74.667612
  0
CIRCLE
  8
ボルト／ビス
  6
CONTINUOUS
 62
    64
 10
74.154222
 20
-74.65311
 40
0.216668
  0
CIRCLE
  8
ボルト／ビス
  6
CONTINUOUS
 10
64.235745
 20
-69.669752
 40
0.250185
  0
CIRCLE
  8
ボルト／ビス
  6
CONTINUOUS
 10
64.235745
 20
-69.669752
 40
0.301025
  0
LINE
  8
ボルト／ビス
  6
CONTINUOUS
 62
    64
 10
64.48551
 20
-69.655248
 11
64.348065
 21
-69.446198
  0
LINE
  8
ボルト／ビス
  6
CONTINUOUS
 62
    64
 10
64.0983
 20
-69.4607
 11
64.348065
 21
-69.446198
  0
LINE
  8
ボルト／ビス
  6
CONTINUOUS
 62
    64
 10
64.37319
 20
-69.878802
 11
64.123423
 21
-69.893307
  0
LINE
  8
ボルト／ビス
  6
CONTINUOUS
 62
    64
 10
63.98598
 20
-69.684257
 11
64.123423
 21
-69.893307
  0
LINE
  8
ボルト／ビス
  6
CONTINUOUS
 62
    64
 10
64.48551
 20
-69.655248
 11
64.37319
 21
-69.878802
  0
LINE
  8
ボルト／ビス
  6
CONTINUOUS
 62
    64
 10
64.0983
 20
-69.4607
 11
63.98598
 21
-69.684257
  0
CIRCLE
  8
ボルト／ビス
  6
CONTINUOUS
 62
    64
 10
64.235745
 20
-69.669752
 40
0.216668
  0
CIRCLE
  8
ボルト／ビス
  6
CONTINUOUS
 10
54.317267
 20
-64.686395
 40
0.250185
  0
CIRCLE
  8
ボルト／ビス
  6
CONTINUOUS
 10
54.317267
 20
-64.686395
 40
0.301025
  0
LINE
  8
ボルト／ビス
  6
CONTINUOUS
 62
    64
 10
54.179823
 20
-64.477345
 11
54.429587
 21
-64.462842
  0
LINE
  8
ボルト／ビス
  6
CONTINUOUS
 62
    64
 10
54.567032
 20
-64.671893
 11
54.429587
 21
-64.462842
  0
LINE
  8
ボルト／ビス
  6
CONTINUOUS
 62
    64
 10
54.067503
 20
-64.7009
 11
54.204945
 21
-64.909948
  0
LINE
  8
ボルト／ビス
  6
CONTINUOUS
 62
    64
 10
54.454712
 20
-64.895445
 11
54.204945
 21
-64.909948
  0
LINE
  8
ボルト／ビス
  6
CONTINUOUS
 62
    64
 10
54.179823
 20
-64.477345
 11
54.067503
 21
-64.7009
  0
LINE
  8
ボルト／ビス
  6
CONTINUOUS
 62
    64
 10
54.567032
 20
-64.671893
 11
54.454712
 21
-64.895445
  0
CIRCLE
  8
ボルト／ビス
  6
CONTINUOUS
 62
    64
 10
54.317267
 20
-64.686395
 40
0.216668
  0
ENDBLK
  0
BLOCK
  2
*GRP_0021
 70
    65
 10
0.0
 20
0.0
  0
LINE
  8
補助線
  6
BYBLOCK
 62
    64
 10
54.39173
 20
-74.615697
 11
54.242805
 21
-74.690523
  0
LINE
  8
補助線
  6
BYBLOCK
 62
    64
 10
54.279855
 20
-74.578645
 11
54.35468
 21
-74.727573
  0
LINE
  8
補助線
  6
BYBLOCK
 62
    64
 10
64.31021
 20
-69.63234
 11
64.161283
 21
-69.707165
  0
LINE
  8
補助線
  6
BYBLOCK
 62
    64
 10
64.198332
 20
-69.595287
 11
64.273157
 21
-69.744215
  0
LINE
  8
補助線
  6
BYBLOCK
 62
    64
 10
74.07976
 20
-64.723808
 11
74.228687
 21
-64.648982
  0
LINE
  8
補助線
  6
BYBLOCK
 62
    64
 10
74.11681
 20
-64.61193
 11
74.191635
 21
-64.760858
  0
LINE
  8
型材断面
  6
CONTINUOUS
 10
53.64529
 20
-74.058133
 11
53.422988
 21
-74.729385
  0
LINE
  8
型材断面
  6
CONTINUOUS
 10
53.422988
 20
-74.729385
 11
53.72229
 21
-75.32509
  0
LINE
  8
型材断面
  6
CONTINUOUS
 10
53.72229
 20
-75.32509
 11
54.393542
 21
-75.547393
  0
LINE
  8
型材断面
  6
CONTINUOUS
 10
74.077947
 20
-63.792115
 11
74.749202
 21
-64.014418
  0
LINE
  8
型材断面
  6
CONTINUOUS
 10
74.749202
 20
-64.014418
 11
75.048505
 21
-64.610123
  0
LINE
  8
型材断面
  6
CONTINUOUS
 10
75.048505
 20
-64.610123
 11
74.8262
 21
-65.281375
  0
LINE
  8
型材断面
  6
CONTINUOUS
 10
53.64529
 20
-74.058133
 11
74.077947
 21
-63.792115
  0
LINE
  8
型材断面
  6
CONTINUOUS
 10
54.393542
 20
-75.547393
 11
74.8262
 21
-65.281375
  0
CIRCLE
  8
ボルト／ビス
  6
CONTINUOUS
 10
54.317267
 20
-74.65311
 40
0.250185
  0
CIRCLE
  8
ボルト／ビス
  6
CONTINUOUS
 10
54.317267
 20
-74.65311
 40
0.301025
  0
LINE
  8
ボルト／ビス
  6
CONTINUOUS
 62
    64
 10
54.067503
 20
-74.638608
 11
54.204947
 21
-74.429558
  0
LINE
  8
ボルト／ビス
  6
CONTINUOUS
 62
    64
 10
54.454712
 20
-74.44406
 11
54.204947
 21
-74.429558
  0
LINE
  8
ボルト／ビス
  6
CONTINUOUS
 62
    64
 10
54.179823
 20
-74.86216
 11
54.429587
 21
-74.876663
  0
LINE
  8
ボルト／ビス
  6
CONTINUOUS
 62
    64
 10
54.567032
 20
-74.667612
 11
54.429587
 21
-74.876663
  0
LINE
  8
ボルト／ビス
  6
CONTINUOUS
 62
    64
 10
54.067503
 20
-74.638608
 11
54.179823
 21
-74.86216
  0
LINE
  8
ボルト／ビス
  6
CONTINUOUS
 62
    64
 10
54.454712
 20
-74.44406
 11
54.567032
 21
-74.667612
  0
CIRCLE
  8
ボルト／ビス
  6
CONTINUOUS
 62
    64
 10
54.317267
 20
-74.65311
 40
0.216668
  0
CIRCLE
  8
ボルト／ビス
  6
CONTINUOUS
 10
64.235745
 20
-69.669752
 40
0.250185
  0
CIRCLE
  8
ボルト／ビス
  6
CONTINUOUS
 10
64.235745
 20
-69.669752
 40
0.301025
  0
LINE
  8
ボルト／ビス
  6
CONTINUOUS
 62
    64
 10
63.98598
 20
-69.655248
 11
64.123425
 21
-69.446198
  0
LINE
  8
ボルト／ビス
  6
CONTINUOUS
 62
    64
 10
64.37319
 20
-69.4607
 11
64.123425
 21
-69.446198
  0
LINE
  8
ボルト／ビス
  6
CONTINUOUS
 62
    64
 10
64.0983
 20
-69.878802
 11
64.348068
 21
-69.893307
  0
LINE
  8
ボルト／ビス
  6
CONTINUOUS
 62
    64
 10
64.48551
 20
-69.684257
 11
64.348068
 21
-69.893307
  0
LINE
  8
ボルト／ビス
  6
CONTINUOUS
 62
    64
 10
63.98598
 20
-69.655248
 11
64.0983
 21
-69.878802
  0
LINE
  8
ボルト／ビス
  6
CONTINUOUS
 62
    64
 10
64.37319
 20
-69.4607
 11
64.48551
 21
-69.684257
  0
CIRCLE
  8
ボルト／ビス
  6
CONTINUOUS
 62
    64
 10
64.235745
 20
-69.669752
 40
0.216668
  0
CIRCLE
  8
ボルト／ビス
  6
CONTINUOUS
 10
74.154222
 20
-64.686395
 40
0.250185
  0
CIRCLE
  8
ボルト／ビス
  6
CONTINUOUS
 10
74.154222
 20
-64.686395
 40
0.301025
  0
LINE
  8
ボルト／ビス
  6
CONTINUOUS
 62
    64
 10
74.291668
 20
-64.477345
 11
74.041902
 21
-64.462842
  0
LINE
  8
ボルト／ビス
  6
CONTINUOUS
 62
    64
 10
73.904457
 20
-64.671893
 11
74.041902
 21
-64.462842
  0
LINE
  8
ボルト／ビス
  6
CONTINUOUS
 62
    64
 10
74.403988
 20
-64.7009
 11
74.266545
 21
-64.909948
  0
LINE
  8
ボルト／ビス
  6
CONTINUOUS
 62
    64
 10
74.016777
 20
-64.895445
 11
74.266545
 21
-64.909948
  0
LINE
  8
ボルト／ビス
  6
CONTINUOUS
 62
    64
 10
74.291668
 20
-64.477345
 11
74.403988
 21
-64.7009
  0
LINE
  8
ボルト／ビス
  6
CONTINUOUS
 62
    64
 10
73.904457
 20
-64.671893
 11
74.016777
 21
-64.895445
  0
CIRCLE
  8
ボルト／ビス
  6
CONTINUOUS
 62
    64
 10
74.154222
 20
-64.686395
 40
0.216668
  0
ENDBLK
  0
BLOCK
  2
*GRP_0022
 70
    65
 10
0.0
 20
0.0
  0
LINE
  8
補助線
  6
BYBLOCK
 62
    64
 10
-12.66843
 20
-74.615697
 11
-12.519505
 21
-74.690523
  0
LINE
  8
補助線
  6
BYBLOCK
 62
    64
 10
-12.556555
 20
-74.578645
 11
-12.63138
 21
-74.727573
  0
LINE
  8
補助線
  6
BYBLOCK
 62
    64
 10
-22.58691
 20
-69.63234
 11
-22.437982
 21
-69.707165
  0
LINE
  8
補助線
  6
BYBLOCK
 62
    64
 10
-22.475032
 20
-69.595287
 11
-22.549857
 21
-69.744215
  0
LINE
  8
補助線
  6
BYBLOCK
 62
    64
 10
-32.35646
 20
-64.723808
 11
-32.505387
 21
-64.648982
  0
LINE
  8
補助線
  6
BYBLOCK
 62
    64
 10
-32.39351
 20
-64.61193
 11
-32.468335
 21
-64.760858
  0
LINE
  8
型材断面
  6
CONTINUOUS
 10
-11.92199
 20
-74.058133
 11
-11.699687
 21
-74.729385
  0
LINE
  8
型材断面
  6
CONTINUOUS
 10
-11.699687
 20
-74.729385
 11
-11.99899
 21
-75.32509
  0
LINE
  8
型材断面
  6
CONTINUOUS
 10
-11.99899
 20
-75.32509
 11
-12.670243
 21
-75.547393
  0
LINE
  8
型材断面
  6
CONTINUOUS
 10
-32.354648
 20
-63.792115
 11
-33.025903
 21
-64.014418
  0
LINE
  8
型材断面
  6
CONTINUOUS
 10
-33.025903
 20
-64.014418
 11
-33.325205
 21
-64.610123
  0
LINE
  8
型材断面
  6
CONTINUOUS
 10
-33.325205
 20
-64.610123
 11
-33.1029
 21
-65.281375
  0
LINE
  8
型材断面
  6
CONTINUOUS
 10
-11.92199
 20
-74.058133
 11
-32.354648
 21
-63.792115
  0
LINE
  8
型材断面
  6
CONTINUOUS
 10
-12.670243
 20
-75.547393
 11
-33.1029
 21
-65.281375
  0
CIRCLE
  8
ボルト／ビス
  6
CONTINUOUS
 10
-12.593967
 20
-74.65311
 40
0.250185
  0
CIRCLE
  8
ボルト／ビス
  6
CONTINUOUS
 10
-12.593967
 20
-74.65311
 40
0.301025
  0
LINE
  8
ボルト／ビス
  6
CONTINUOUS
 62
    64
 10
-12.344203
 20
-74.638608
 11
-12.481647
 21
-74.429558
  0
LINE
  8
ボルト／ビス
  6
CONTINUOUS
 62
    64
 10
-12.731412
 20
-74.44406
 11
-12.481647
 21
-74.429558
  0
LINE
  8
ボルト／ビス
  6
CONTINUOUS
 62
    64
 10
-12.456523
 20
-74.86216
 11
-12.706287
 21
-74.876663
  0
LINE
  8
ボルト／ビス
  6
CONTINUOUS
 62
    64
 10
-12.843732
 20
-74.667612
 11
-12.706287
 21
-74.876663
  0
LINE
  8
ボルト／ビス
  6
CONTINUOUS
 62
    64
 10
-12.344203
 20
-74.638608
 11
-12.456523
 21
-74.86216
  0
LINE
  8
ボルト／ビス
  6
CONTINUOUS
 62
    64
 10
-12.731412
 20
-74.44406
 11
-12.843732
 21
-74.667612
  0
CIRCLE
  8
ボルト／ビス
  6
CONTINUOUS
 62
    64
 10
-12.593967
 20
-74.65311
 40
0.216668
  0
CIRCLE
  8
ボルト／ビス
  6
CONTINUOUS
 10
-22.512445
 20
-69.669752
 40
0.250185
  0
CIRCLE
  8
ボルト／ビス
  6
CONTINUOUS
 10
-22.512445
 20
-69.669752
 40
0.301025
  0
LINE
  8
ボルト／ビス
  6
CONTINUOUS
 62
    64
 10
-22.26268
 20
-69.655248
 11
-22.400125
 21
-69.446198
  0
LINE
  8
ボルト／ビス
  6
CONTINUOUS
 62
    64
 10
-22.64989
 20
-69.4607
 11
-22.400125
 21
-69.446198
  0
LINE
  8
ボルト／ビス
  6
CONTINUOUS
 62
    64
 10
-22.375
 20
-69.878802
 11
-22.624767
 21
-69.893307
  0
LINE
  8
ボルト／ビス
  6
CONTINUOUS
 62
    64
 10
-22.76221
 20
-69.684257
 11
-22.624767
 21
-69.893307
  0
LINE
  8
ボルト／ビス
  6
CONTINUOUS
 62
    64
 10
-22.26268
 20
-69.655248
 11
-22.375
 21
-69.878802
  0
LINE
  8
ボルト／ビス
  6
CONTINUOUS
 62
    64
 10
-22.64989
 20
-69.4607
 11
-22.76221
 21
-69.684257
  0
CIRCLE
  8
ボルト／ビス
  6
CONTINUOUS
 62
    64
 10
-22.512445
 20
-69.669752
 40
0.216668
  0
CIRCLE
  8
ボルト／ビス
  6
CONTINUOUS
 10
-32.430922
 20
-64.686395
 40
0.250185
  0
CIRCLE
  8
ボルト／ビス
  6
CONTINUOUS
 10
-32.430922
 20
-64.686395
 40
0.301025
  0
LINE
  8
ボルト／ビス
  6
CONTINUOUS
 62
    64
 10
-32.568368
 20
-64.477345
 11
-32.318602
 21
-64.462842
  0
LINE
  8
ボルト／ビス
  6
CONTINUOUS
 62
    64
 10
-32.181157
 20
-64.671893
 11
-32.318602
 21
-64.462842
  0
LINE
  8
ボルト／ビス
  6
CONTINUOUS
 62
    64
 10
-32.680688
 20
-64.7009
 11
-32.543245
 21
-64.909948
  0
LINE
  8
ボルト／ビス
  6
CONTINUOUS
 62
    64
 10
-32.293477
 20
-64.895445
 11
-32.543245
 21
-64.909948
  0
LINE
  8
ボルト／ビス
  6
CONTINUOUS
 62
    64
 10
-32.568368
 20
-64.477345
 11
-32.680688
 21
-64.7009
  0
LINE
  8
ボルト／ビス
  6
CONTINUOUS
 62
    64
 10
-32.181157
 20
-64.671893
 11
-32.293477
 21
-64.895445
  0
CIRCLE
  8
ボルト／ビス
  6
CONTINUOUS
 62
    64
 10
-32.430922
 20
-64.686395
 40
0.216668
  0
ENDBLK
  0
BLOCK
  2
*GRP_0023
 70
    65
 10
0.0
 20
0.0
  0
LINE
  8
補助線
  6
BYBLOCK
 62
    64
 10
-32.35646
 20
-74.615697
 11
-32.505385
 21
-74.690523
  0
LINE
  8
補助線
  6
BYBLOCK
 62
    64
 10
-32.468335
 20
-74.578645
 11
-32.39351
 21
-74.727573
  0
LINE
  8
補助線
  6
BYBLOCK
 62
    64
 10
-22.43798
 20
-69.63234
 11
-22.586907
 21
-69.707165
  0
LINE
  8
補助線
  6
BYBLOCK
 62
    64
 10
-22.549857
 20
-69.595287
 11
-22.475032
 21
-69.744215
  0
LINE
  8
補助線
  6
BYBLOCK
 62
    64
 10
-12.66843
 20
-64.723808
 11
-12.519502
 21
-64.648982
  0
LINE
  8
補助線
  6
BYBLOCK
 62
    64
 10
-12.63138
 20
-64.61193
 11
-12.556555
 21
-64.760858
  0
LINE
  8
型材断面
  6
CONTINUOUS
 10
-33.1029
 20
-74.058133
 11
-33.325202
 21
-74.729385
  0
LINE
  8
型材断面
  6
CONTINUOUS
 10
-33.325202
 20
-74.729385
 11
-33.0259
 21
-75.32509
  0
LINE
  8
型材断面
  6
CONTINUOUS
 10
-33.0259
 20
-75.32509
 11
-32.354648
 21
-75.547393
  0
LINE
  8
型材断面
  6
CONTINUOUS
 10
-12.670243
 20
-63.792115
 11
-11.998988
 21
-64.014418
  0
LINE
  8
型材断面
  6
CONTINUOUS
 10
-11.998988
 20
-64.014418
 11
-11.699685
 21
-64.610123
  0
LINE
  8
型材断面
  6
CONTINUOUS
 10
-11.699685
 20
-64.610123
 11
-11.92199
 21
-65.281375
  0
LINE
  8
型材断面
  6
CONTINUOUS
 10
-33.1029
 20
-74.058133
 11
-12.670243
 21
-63.792115
  0
LINE
  8
型材断面
  6
CONTINUOUS
 10
-32.354648
 20
-75.547393
 11
-11.92199
 21
-65.281375
  0
CIRCLE
  8
ボルト／ビス
  6
CONTINUOUS
 10
-32.430922
 20
-74.65311
 40
0.250185
  0
CIRCLE
  8
ボルト／ビス
  6
CONTINUOUS
 10
-32.430922
 20
-74.65311
 40
0.301025
  0
LINE
  8
ボルト／ビス
  6
CONTINUOUS
 62
    64
 10
-32.680688
 20
-74.638608
 11
-32.543242
 21
-74.429558
  0
LINE
  8
ボルト／ビス
  6
CONTINUOUS
 62
    64
 10
-32.293477
 20
-74.44406
 11
-32.543242
 21
-74.429558
  0
LINE
  8
ボルト／ビス
  6
CONTINUOUS
 62
    64
 10
-32.568368
 20
-74.86216
 11
-32.318602
 21
-74.876663
  0
LINE
  8
ボルト／ビス
  6
CONTINUOUS
 62
    64
 10
-32.181157
 20
-74.667612
 11
-32.318602
 21
-74.876663
  0
LINE
  8
ボルト／ビス
  6
CONTINUOUS
 62
    64
 10
-32.680688
 20
-74.638608
 11
-32.568368
 21
-74.86216
  0
LINE
  8
ボルト／ビス
  6
CONTINUOUS
 62
    64
 10
-32.293477
 20
-74.44406
 11
-32.181157
 21
-74.667612
  0
CIRCLE
  8
ボルト／ビス
  6
CONTINUOUS
 62
    64
 10
-32.430922
 20
-74.65311
 40
0.216668
  0
CIRCLE
  8
ボルト／ビス
  6
CONTINUOUS
 10
-22.512445
 20
-69.669752
 40
0.250185
  0
CIRCLE
  8
ボルト／ビス
  6
CONTINUOUS
 10
-22.512445
 20
-69.669752
 40
0.301025
  0
LINE
  8
ボルト／ビス
  6
CONTINUOUS
 62
    64
 10
-22.76221
 20
-69.655248
 11
-22.624765
 21
-69.446198
  0
LINE
  8
ボルト／ビス
  6
CONTINUOUS
 62
    64
 10
-22.375
 20
-69.4607
 11
-22.624765
 21
-69.446198
  0
LINE
  8
ボルト／ビス
  6
CONTINUOUS
 62
    64
 10
-22.64989
 20
-69.878802
 11
-22.400122
 21
-69.893307
  0
LINE
  8
ボルト／ビス
  6
CONTINUOUS
 62
    64
 10
-22.26268
 20
-69.684257
 11
-22.400122
 21
-69.893307
  0
LINE
  8
ボルト／ビス
  6
CONTINUOUS
 62
    64
 10
-22.76221
 20
-69.655248
 11
-22.64989
 21
-69.878802
  0
LINE
  8
ボルト／ビス
  6
CONTINUOUS
 62
    64
 10
-22.375
 20
-69.4607
 11
-22.26268
 21
-69.684257
  0
CIRCLE
  8
ボルト／ビス
  6
CONTINUOUS
 62
    64
 10
-22.512445
 20
-69.669752
 40
0.216668
  0
CIRCLE
  8
ボルト／ビス
  6
CONTINUOUS
 10
-12.593967
 20
-64.686395
 40
0.250185
  0
CIRCLE
  8
ボルト／ビス
  6
CONTINUOUS
 10
-12.593967
 20
-64.686395
 40
0.301025
  0
LINE
  8
ボルト／ビス
  6
CONTINUOUS
 62
    64
 10
-12.456523
 20
-64.477345
 11
-12.706287
 21
-64.462842
  0
LINE
  8
ボルト／ビス
  6
CONTINUOUS
 62
    64
 10
-12.843732
 20
-64.671893
 11
-12.706287
 21
-64.462842
  0
LINE
  8
ボルト／ビス
  6
CONTINUOUS
 62
    64
 10
-12.344203
 20
-64.7009
 11
-12.481645
 21
-64.909948
  0
LINE
  8
ボルト／ビス
  6
CONTINUOUS
 62
    64
 10
-12.731412
 20
-64.895445
 11
-12.481645
 21
-64.909948
  0
LINE
  8
ボルト／ビス
  6
CONTINUOUS
 62
    64
 10
-12.456523
 20
-64.477345
 11
-12.344203
 21
-64.7009
  0
LINE
  8
ボルト／ビス
  6
CONTINUOUS
 62
    64
 10
-12.843732
 20
-64.671893
 11
-12.731412
 21
-64.895445
  0
CIRCLE
  8
ボルト／ビス
  6
CONTINUOUS
 62
    64
 10
-12.593967
 20
-64.686395
 40
0.216668
  0
ENDBLK
  0
BLOCK
  2
*GRP_0024
 70
    65
 10
0.0
 20
0.0
  0
LINE
  8
別途部材
  6
DOT
 62
    47
 10
159.170932
 20
20.980845
 11
159.2376
 21
20.980845
  0
ARC
  8
別途部材
  6
DOT
 62
    47
 10
159.170933
 20
21.080846
 40
0.1
 50
180.0
 51
270.0
  0
LINE
  8
別途部材
  6
DOT
 62
    47
 10
159.2376
 20
21.137368
 11
160.7376
 21
21.137368
  0
LINE
  8
別途部材
  6
DOT
 62
    47
 10
163.054268
 20
20.050848
 11
163.054268
 21
32.814033
  0
LINE
  8
別途部材
  6
DOT
 62
    47
 10
161.887602
 20
20.050848
 11
161.887602
 21
32.814033
  0
LINE
  8
別途部材
  6
DOT
 62
    47
 10
160.7376
 20
21.137368
 11
160.7376
 21
32.814033
  0
LINE
  8
別途部材
  6
DOT
 62
    47
 10
159.2376
 20
20.980845
 11
159.2376
 21
32.814033
  0
LINE
  8
別途部材
  6
DOT
 62
    47
 10
159.070932
 20
21.080845
 11
159.070932
 21
32.814033
  0
LINE
  8
別途部材
  6
DOT
 62
    47
 10
159.170932
 20
44.647222
 11
159.2376
 21
44.647222
  0
ARC
  8
別途部材
  6
DOT
 62
    47
 10
159.170933
 20
44.547222
 40
0.1
 50
90.0
 51
180.0
  0
LINE
  8
別途部材
  6
DOT
 62
    47
 10
159.2376
 20
44.4907
 11
160.7376
 21
44.4907
  0
LINE
  8
別途部材
  6
DOT
 62
    47
 10
163.054268
 20
45.57722
 11
163.054268
 21
32.814033
  0
LINE
  8
別途部材
  6
DOT
 62
    47
 10
161.887602
 20
45.57722
 11
161.887602
 21
32.814033
  0
LINE
  8
別途部材
  6
DOT
 62
    47
 10
160.7376
 20
44.4907
 11
160.7376
 21
32.814033
  0
LINE
  8
別途部材
  6
DOT
 62
    47
 10
159.2376
 20
44.647222
 11
159.2376
 21
32.814033
  0
LINE
  8
別途部材
  6
DOT
 62
    47
 10
159.070932
 20
44.547222
 11
159.070932
 21
32.814033
  0
LINE
  8
鉄骨等
  6
DOT
 62
    47
 10
163.054268
 20
20.050848
 11
161.887602
 21
20.050848
  0
LINE
  8
鉄骨等
  6
DOT
 62
    47
 10
161.887602
 20
20.050848
 11
160.737602
 21
21.454032
  0
LINE
  8
鉄骨等
  6
DOT
 62
    47
 10
163.054268
 20
45.57722
 11
161.887602
 21
45.57722
  0
LINE
  8
鉄骨等
  6
DOT
 62
    47
 10
161.887602
 20
45.57722
 11
160.737602
 21
44.174033
  0
ENDBLK
  0
BLOCK
  2
*DIM_0025
 70
    65
 10
0.0
 20
0.0
  0
LINE
  8
寸法
  6
BYBLOCK
 62
     0
 10
111.5072
 20
22.814035
 11
111.5072
 21
42.814035
  0
POINT
  8
寸法
 62
     0
 10
111.5072
 20
22.814035
  0
POINT
  8
寸法
 62
     0
 10
111.5072
 20
42.814035
  0
TEXT
  7
TextStyle03
  8
寸法
  6
CONTINUOUS
 62
     0
 10
111.175
 20
21.925
  1
呼称寸法　600
 40
3.0
 50
90.0
 72
     5
 11
111.175
 21
43.675
  0
ENDBLK
  0
BLOCK
  2
*DIM_0026
 70
    65
 10
0.0
 20
0.0
  0
LINE
  8
寸法
  6
CONTINUOUS
 10
111.5072
 20
45.57722
 11
111.5072
 21
42.814035
  0
POINT
  8
寸法
 10
111.5072
 20
45.57722
  0
POINT
  8
寸法
 10
111.5072
 20
42.814035
  0
TEXT
  7
TextStyle03
  8
寸法
  6
CONTINUOUS
 10
112.95
 20
46.64375
  1
82.9
 40
3.0
 50
90.0
 72
     5
 11
112.95
 21
53.20625
  0
ENDBLK
  0
BLOCK
  2
*DIM_0027
 70
    65
 10
0.0
 20
0.0
  0
LINE
  8
寸法
  6
CONTINUOUS
 10
111.5072
 20
22.814035
 11
111.5072
 21
20.050848
  0
POINT
  8
寸法
 10
111.5072
 20
22.814035
  0
POINT
  8
寸法
 10
111.5072
 20
20.050848
  0
TEXT
  7
TextStyle03
  8
寸法
  6
CONTINUOUS
 10
112.95
 20
12.41875
  1
82.9
 40
3.0
 50
90.0
 72
     5
 11
112.95
 21
18.98125
  0
ENDBLK
  0
BLOCK
  2
*DIM_0028
 70
    65
 10
0.0
 20
0.0
  0
LINE
  8
寸法
  6
CONTINUOUS
 10
140.240772
 20
-55.621863
 11
172.574105
 21
-55.621863
  0
POINT
  8
寸法
 10
140.240772
 20
-55.621863
  0
POINT
  8
寸法
 10
172.574105
 20
-55.621863
  0
TEXT
  7
TextStyle03
  8
寸法
  6
CONTINUOUS
 10
153.9625
 20
-55.275
  1
970
 40
3.0
 72
     5
 11
158.8375
 21
-55.275
  0
ENDBLK
  0
BLOCK
  2
*DIM_0029
 70
    65
 10
0.0
 20
0.0
  0
LINE
  8
寸法
  6
BYBLOCK
 62
     0
 10
96.664375
 20
-69.076395
 11
96.664375
 21
-61.743062
  0
POINT
  8
寸法
 62
     0
 10
96.664375
 20
-61.743062
  0
TEXT
  7
TextStyle03
  8
寸法
  6
CONTINUOUS
 62
     0
 10
95.675
 20
-59.59375
  1
上昇212以上
 40
3.0
 50
90.0
 72
     5
 11
95.675
 21
-41.40625
  0
ENDBLK
  0
BLOCK
  2
*DIM_0030
 70
    65
 10
0.0
 20
0.0
  0
LINE
  8
寸法
  6
BYBLOCK
 62
     0
 10
166.404265
 20
51.815152
 11
159.070932
 21
51.815152
  0
POINT
  8
寸法
 62
     0
 10
159.070932
 20
51.815152
  0
TEXT
  7
TextStyle03
  8
寸法
  6
CONTINUOUS
 62
     0
 10
138.73125
 20
50.225
  1
上昇212以上
 40
3.0
 72
     5
 11
156.91875
 21
50.225
  0
ENDBLK
  0
BLOCK
  2
*DIM_0031
 70
    65
 10
0.0
 20
0.0
  0
LINE
  8
寸法
  6
CONTINUOUS
 10
177.574105
 20
-63.785395
 11
183.938027
 21
-63.785395
  0
LINE
  8
寸法
  6
CONTINUOUS
 10
177.574105
 20
-83.785395
 11
183.938027
 21
-83.785395
  0
LINE
  8
寸法
  6
CONTINUOUS
 10
183.938027
 20
-63.785395
 11
183.938027
 21
-83.785395
  0
POINT
  8
寸法
 10
183.938027
 20
-63.785395
  0
POINT
  8
寸法
 10
183.938027
 20
-83.785395
  0
TEXT
  7
TextStyle03
  8
寸法
  6
CONTINUOUS
 10
183.55
 20
-76.2375
  1
600
 40
3.0
 50
90.0
 72
     5
 11
183.55
 21
-71.3625
  0
ENDBLK
  0
BLOCK
  2
*DIM_0032
 70
    65
 10
0.0
 20
0.0
  0
LINE
  8
寸法
  6
CONTINUOUS
 10
84.163065
 20
-69.076395
 11
96.664375
 21
-69.076395
  0
LINE
  8
寸法
  6
CONTINUOUS
 10
85.25089
 20
-77.192947
 11
96.664375
 21
-77.192947
  0
LINE
  8
寸法
  6
CONTINUOUS
 10
96.664375
 20
-69.076395
 11
96.664375
 21
-77.192947
  0
POINT
  8
寸法
 10
96.664375
 20
-69.076395
  0
POINT
  8
寸法
 10
96.664375
 20
-77.192947
  0
TEXT
  7
TextStyle03
  8
寸法
  6
CONTINUOUS
 10
99.65
 20
-77.275
  1
243.5
 40
3.0
 50
90.0
 72
     5
 11
99.65
 21
-69.025
  0
ENDBLK
  0
BLOCK
  2
*DIM_0033
 70
    65
 10
0.0
 20
0.0
  0
LINE
  8
寸法
  6
CONTINUOUS
 10
166.404265
 20
49.457957
 11
166.404265
 21
51.815152
  0
LINE
  8
寸法
  6
CONTINUOUS
 10
174.520817
 20
48.403357
 11
174.520817
 21
51.815152
  0
LINE
  8
寸法
  6
CONTINUOUS
 10
166.404265
 20
51.815152
 11
174.520817
 21
51.815152
  0
POINT
  8
寸法
 10
166.404265
 20
51.815152
  0
POINT
  8
寸法
 10
174.520817
 20
51.815152
  0
TEXT
  7
TextStyle03
  8
寸法
  6
CONTINUOUS
 10
166.325
 20
52.175
  1
243.5
 40
3.0
 72
     5
 11
174.575
 21
52.175
  0
ENDBLK
  0
ENDSEC
  0
SECTION
  2
ENTITIES
  0
POLYLINE
  8
通り芯
  6
CONTINUOUS
 66
     1
 70
     1
  0
VERTEX
  8
通り芯
 10
-210.0
 20
-148.5
  0
VERTEX
  8
通り芯
 10
210.0
 20
-148.5
  0
VERTEX
  8
通り芯
 10
210.0
 20
148.5
  0
VERTEX
  8
通り芯
 10
-210.0
 20
148.5
  0
SEQEND
  0
INSERT
  2
*GRP_0001
  8
型材断面
  6
CONTINUOUS
 10
0.0
 20
0.0
  0
LINE
  8
型材断面
  6
DASHDOT
 10
175.164313
 20
22.814033
 11
-122.51245
 21
22.814033
  0
POLYLINE
  8
型材断面
  6
CONTINUOUS
 66
     1
 70
     1
  0
VERTEX
  8
型材断面
 10
-12.741788
 20
13.03811
  0
VERTEX
  8
型材断面
 10
-31.513717
 20
13.03811
  0
VERTEX
  8
型材断面
 10
-31.513717
 20
8.301267
  0
VERTEX
  8
型材断面
 10
-12.741788
 20
8.301267
  0
SEQEND
  0
LINE
  8
型材断面
  6
DASHDOT
 10
175.164313
 20
32.814033
 11
-122.51245
 21
32.814033
  0
LINE
  8
型材断面
  6
DASHDOT
 10
-22.51245
 20
-77.836442
 11
-22.51245
 21
42.814033
  0
LINE
  8
型材断面
  6
DASHDOT
 10
-122.51245
 20
-77.836442
 11
-122.51245
 21
42.814033
  0
LINE
  8
型材断面
  6
DASHDOT
 10
77.48755
 20
-77.836442
 11
77.48755
 21
42.814033
  0
POLYLINE
  8
型材断面
  6
CONTINUOUS
 66
     1
 70
     1
  0
VERTEX
  8
型材断面
 10
-12.741788
 20
52.589955
  0
VERTEX
  8
型材断面
 10
-31.513717
 20
52.589955
  0
VERTEX
  8
型材断面
 10
-31.513717
 20
57.326798
  0
VERTEX
  8
型材断面
 10
-12.741788
 20
57.326798
  0
SEQEND
  0
LINE
  8
型材断面
  6
CONTINUOUS
 10
-163.364657
 20
80.791505
 11
-162.768602
 21
78.200998
  0
LINE
  8
型材断面
  6
CONTINUOUS
 10
-163.364657
 20
80.791505
 11
-163.960715
 21
78.200998
  0
LINE
  8
型材断面
  6
CONTINUOUS
 10
-163.960715
 20
78.200998
 11
-162.768602
 21
78.200998
  0
LINE
  8
型材断面
  6
CONTINUOUS
 10
-169.387245
 20
74.922105
 11
-123.145468
 21
74.922105
  0
LINE
  8
型材断面
  6
CONTINUOUS
 10
-163.364657
 20
87.32138
 11
-164.860287
 21
84.730873
  0
LINE
  8
型材断面
  6
CONTINUOUS
 10
-163.364657
 20
87.32138
 11
-161.869027
 21
84.730873
  0
LINE
  8
型材断面
  6
CONTINUOUS
 10
-161.869027
 20
84.730873
 11
-164.860287
 21
84.730873
  0
LINE
  8
型材断面
  6
CONTINUOUS
 10
-169.387245
 20
83.792277
 11
-123.145468
 21
83.792277
  0
LINE
  8
型材断面
  6
CONTINUOUS
 10
-169.387245
 20
69.134073
 11
-123.145468
 21
69.134073
  0
LINE
  8
型材断面
  6
CONTINUOUS
 10
-169.387245
 20
63.34604
 11
-123.145468
 21
63.34604
  0
LINE
  8
型材断面
  6
DASHDOT
 10
175.164313
 20
42.814033
 11
-122.51245
 21
42.814033
  0
INSERT
  2
*GRP_0018
  8
型材断面
  6
CONTINUOUS
 10
0.0
 20
0.0
  0
INSERT
  2
*GRP_0019
  8
型材断面
  6
CONTINUOUS
 10
0.0
 20
0.0
  0
INSERT
  2
*GRP_0020
  8
型材断面
  6
CONTINUOUS
 10
0.0
 20
0.0
  0
INSERT
  2
*GRP_0021
  8
型材断面
  6
CONTINUOUS
 10
0.0
 20
0.0
  0
INSERT
  2
*GRP_0022
  8
型材断面
  6
CONTINUOUS
 10
0.0
 20
0.0
  0
INSERT
  2
*GRP_0023
  8
型材断面
  6
CONTINUOUS
 10
0.0
 20
0.0
  0
INSERT
  2
*GRP_0024
  8
型材断面
  6
DASHDOT
 10
0.0
 20
0.0
  0
LINE
  8
型材断面
  6
CONTINUOUS
 10
-125.275788
 20
20.050848
 11
80.250887
 21
20.050848
  0
LINE
  8
型材断面
  6
CONTINUOUS
 10
80.250887
 20
20.050848
 11
80.250887
 21
45.57722
  0
LINE
  8
型材断面
  6
CONTINUOUS
 10
-125.275788
 20
45.57722
 11
80.250887
 21
45.57722
  0
LINE
  8
型材断面
  6
CONTINUOUS
 10
-125.275788
 20
32.814035
 11
-127.866295
 21
34.309665
  0
LINE
  8
型材断面
  6
CONTINUOUS
 10
-125.275788
 20
32.814035
 11
-127.866295
 21
31.318405
  0
LINE
  8
型材断面
  6
CONTINUOUS
 10
-127.866295
 20
31.318405
 11
-127.866295
 21
34.309665
  0
LINE
  8
型材断面
  6
CONTINUOUS
 10
-125.275788
 20
39.114038
 11
-127.866298
 21
38.517985
  0
LINE
  8
型材断面
  6
CONTINUOUS
 10
-125.275788
 20
39.114038
 11
-127.866295
 21
39.710097
  0
LINE
  8
型材断面
  6
CONTINUOUS
 10
-127.866295
 20
39.710097
 11
-127.866298
 21
38.517985
  0
LINE
  8
型材断面
  6
CONTINUOUS
 10
-125.275788
 20
26.514033
 11
-127.866298
 21
27.110085
  0
LINE
  8
型材断面
  6
CONTINUOUS
 10
-125.275788
 20
26.514033
 11
-127.866295
 21
25.917972
  0
LINE
  8
型材断面
  6
CONTINUOUS
 10
-127.866295
 20
25.917972
 11
-127.866298
 21
27.110085
  0
LINE
  8
型材断面
  6
CONTINUOUS
 10
-105.845783
 20
45.57722
 11
-107.341413
 21
48.167727
  0
LINE
  8
型材断面
  6
CONTINUOUS
 10
-105.845783
 20
45.57722
 11
-104.350152
 21
48.167727
  0
LINE
  8
型材断面
  6
CONTINUOUS
 10
-104.350152
 20
48.167727
 11
-107.341413
 21
48.167727
  0
LINE
  8
型材断面
  6
CONTINUOUS
 10
60.820882
 20
45.57722
 11
62.316512
 21
48.167727
  0
LINE
  8
型材断面
  6
CONTINUOUS
 10
60.820882
 20
45.57722
 11
59.325252
 21
48.167727
  0
LINE
  8
型材断面
  6
CONTINUOUS
 10
59.325252
 20
48.167727
 11
62.316512
 21
48.167727
  0
LINE
  8
型材断面
  6
CONTINUOUS
 10
-22.51245
 20
45.577218
 11
-24.00808
 21
48.167725
  0
LINE
  8
型材断面
  6
CONTINUOUS
 10
-22.51245
 20
45.577218
 11
-21.01682
 21
48.167725
  0
LINE
  8
型材断面
  6
CONTINUOUS
 10
-21.01682
 20
48.167725
 11
-24.00808
 21
48.167725
  0
LINE
  8
型材断面
  6
CONTINUOUS
 10
80.250887
 20
32.814033
 11
82.841395
 21
34.309663
  0
LINE
  8
型材断面
  6
CONTINUOUS
 10
80.250887
 20
32.814033
 11
82.841395
 21
31.318403
  0
LINE
  8
型材断面
  6
CONTINUOUS
 10
82.841395
 20
31.318403
 11
82.841395
 21
34.309663
  0
LINE
  8
型材断面
  6
CONTINUOUS
 10
80.250887
 20
39.114035
 11
82.841397
 21
38.517982
  0
LINE
  8
型材断面
  6
CONTINUOUS
 10
80.250887
 20
39.114035
 11
82.841395
 21
39.710095
  0
LINE
  8
型材断面
  6
CONTINUOUS
 10
82.841395
 20
39.710095
 11
82.841397
 21
38.517982
  0
LINE
  8
型材断面
  6
CONTINUOUS
 10
80.250887
 20
26.51403
 11
82.841397
 21
27.110082
  0
LINE
  8
型材断面
  6
CONTINUOUS
 10
80.250887
 20
26.51403
 11
82.841395
 21
25.91797
  0
LINE
  8
型材断面
  6
CONTINUOUS
 10
82.841395
 20
25.91797
 11
82.841397
 21
27.110082
  0
LINE
  8
型材断面
  6
CONTINUOUS
 10
-105.845783
 20
20.050848
 11
-107.341413
 21
17.46034
  0
LINE
  8
型材断面
  6
CONTINUOUS
 10
-105.845783
 20
20.050848
 11
-104.350152
 21
17.46034
  0
LINE
  8
型材断面
  6
CONTINUOUS
 10
-104.350152
 20
17.46034
 11
-107.341413
 21
17.46034
  0
LINE
  8
型材断面
  6
CONTINUOUS
 10
60.820882
 20
20.050848
 11
62.316512
 21
17.46034
  0
LINE
  8
型材断面
  6
CONTINUOUS
 10
60.820882
 20
20.050848
 11
59.325252
 21
17.46034
  0
LINE
  8
型材断面
  6
CONTINUOUS
 10
59.325252
 20
17.46034
 11
62.316512
 21
17.46034
  0
LINE
  8
型材断面
  6
CONTINUOUS
 10
-22.51245
 20
20.05085
 11
-24.00808
 21
17.460342
  0
LINE
  8
型材断面
  6
CONTINUOUS
 10
-22.51245
 20
20.05085
 11
-21.01682
 21
17.460342
  0
LINE
  8
型材断面
  6
CONTINUOUS
 10
-21.01682
 20
17.460342
 11
-24.00808
 21
17.460342
  0
LINE
  8
型材断面
  6
DASHDOT
 10
44.544218
 20
22.814033
 11
44.544218
 21
42.814033
  0
LINE
  8
型材断面
  6
DASHDOT
 10
11.01755
 20
22.814033
 11
11.01755
 21
42.814033
  0
LINE
  8
型材断面
  6
CONTINUOUS
 10
79.085208
 20
20.98068
 11
79.320908
 21
21.21638
  0
LINE
  8
型材断面
  6
CONTINUOUS
 10
76.585205
 20
23.48068
 11
76.820905
 21
23.71638
  0
LINE
  8
型材断面
  6
CONTINUOUS
 10
76.820905
 20
23.71638
 11
79.320908
 21
21.21638
  0
LINE
  8
型材断面
  6
CONTINUOUS
 10
76.585205
 20
23.48068
 11
79.085208
 21
20.98068
  0
LINE
  8
型材断面
  6
CONTINUOUS
 10
80.25074
 20
20.050848
 11
79.203055
 21
21.098527
  0
LINE
  8
型材断面
  6
CONTINUOUS
 10
-22.51245
 20
20.980745
 11
79.08521
 21
20.980677
  0
LINE
  8
型材断面
  6
CONTINUOUS
 10
79.320893
 20
32.814033
 11
79.320908
 21
21.21638
  0
LINE
  8
型材断面
  6
CONTINUOUS
 10
45.794218
 20
24.314033
 11
43.294218
 21
24.314035
  0
LINE
  8
型材断面
  6
CONTINUOUS
 10
45.794218
 20
41.314033
 11
43.294218
 21
41.31403
  0
LINE
  8
型材断面
  6
CONTINUOUS
 10
45.794218
 20
24.314033
 11
45.794218
 21
41.314033
  0
LINE
  8
型材断面
  6
CONTINUOUS
 10
43.294218
 20
24.314035
 11
43.294218
 21
41.31403
  0
LINE
  8
型材断面
  6
CONTINUOUS
 10
76.820893
 20
33.2307
 11
79.320893
 21
33.2307
  0
LINE
  8
型材断面
  6
CONTINUOUS
 10
76.820893
 20
32.397365
 11
79.320893
 21
32.397365
  0
LINE
  8
型材断面
  6
CONTINUOUS
 10
76.820893
 20
32.397365
 11
76.820905
 21
23.71638
  0
LINE
  8
型材断面
  6
CONTINUOUS
 10
61.43255
 20
23.480688
 11
61.43255
 21
20.98069
  0
LINE
  8
型材断面
  6
CONTINUOUS
 10
60.599215
 20
23.48069
 11
60.599215
 21
20.98069
  0
LINE
  8
型材断面
  6
CONTINUOUS
 10
28.197552
 20
23.480688
 11
28.197552
 21
20.98069
  0
LINE
  8
型材断面
  6
CONTINUOUS
 10
27.364218
 20
23.48069
 11
27.364218
 21
20.98069
  0
LINE
  8
型材断面
  6
CONTINUOUS
 10
-5.329115
 20
23.480688
 11
-5.329115
 21
20.98069
  0
LINE
  8
型材断面
  6
CONTINUOUS
 10
-6.16245
 20
23.48069
 11
-6.16245
 21
20.98069
  0
LINE
  8
型材断面
  6
CONTINUOUS
 10
61.43255
 20
23.480688
 11
76.585203
 21
23.480677
  0
LINE
  8
型材断面
  6
CONTINUOUS
 10
61.43255
 20
42.147378
 11
61.43255
 21
44.647375
  0
LINE
  8
型材断面
  6
CONTINUOUS
 10
60.599215
 20
42.147375
 11
60.599215
 21
44.647375
  0
LINE
  8
型材断面
  6
CONTINUOUS
 10
28.197552
 20
42.147378
 11
28.197552
 21
44.647375
  0
LINE
  8
型材断面
  6
CONTINUOUS
 10
27.364218
 20
42.147375
 11
27.364218
 21
44.647375
  0
LINE
  8
型材断面
  6
CONTINUOUS
 10
-5.329115
 20
42.147378
 11
-5.329115
 21
44.647375
  0
LINE
  8
型材断面
  6
CONTINUOUS
 10
-6.16245
 20
42.147375
 11
-6.16245
 21
44.647375
  0
LINE
  8
型材断面
  6
CONTINUOUS
 10
28.197552
 20
23.480712
 11
60.599215
 21
23.48069
  0
LINE
  8
型材断面
  6
CONTINUOUS
 10
60.599215
 20
42.147375
 11
28.197552
 21
42.147352
  0
LINE
  8
型材断面
  6
CONTINUOUS
 10
27.364218
 20
42.147352
 11
-5.329115
 21
42.14733
  0
LINE
  8
型材断面
  6
CONTINUOUS
 10
-6.16245
 20
42.14733
 11
-22.51245
 21
42.147317
  0
LINE
  8
型材断面
  6
CONTINUOUS
 10
-22.51245
 20
23.480747
 11
-6.16245
 21
23.480735
  0
LINE
  8
型材断面
  6
CONTINUOUS
 10
-5.329115
 20
23.480735
 11
27.364218
 21
23.480712
  0
LINE
  8
型材断面
  6
CONTINUOUS
 10
12.26755
 20
24.314033
 11
9.76755
 21
24.314035
  0
LINE
  8
型材断面
  6
CONTINUOUS
 10
12.26755
 20
41.314033
 11
9.76755
 21
41.31403
  0
LINE
  8
型材断面
  6
CONTINUOUS
 10
12.26755
 20
24.314033
 11
12.26755
 21
41.314033
  0
LINE
  8
型材断面
  6
CONTINUOUS
 10
9.76755
 20
24.314035
 11
9.76755
 21
41.31403
  0
LINE
  8
型材断面
  6
CONTINUOUS
 10
-21.26245
 20
24.314033
 11
-23.76245
 21
24.314035
  0
LINE
  8
型材断面
  6
CONTINUOUS
 10
-21.26245
 20
41.314033
 11
-23.76245
 21
41.31403
  0
LINE
  8
型材断面
  6
CONTINUOUS
 10
-21.26245
 20
24.314033
 11
-21.26245
 21
41.314033
  0
LINE
  8
型材断面
  6
CONTINUOUS
 10
-23.76245
 20
24.314035
 11
-23.76245
 21
41.31403
  0
LINE
  8
型材断面
  6
CONTINUOUS
 10
79.085208
 20
44.647385
 11
79.320908
 21
44.411685
  0
LINE
  8
型材断面
  6
CONTINUOUS
 10
76.585205
 20
42.147385
 11
76.820905
 21
41.911685
  0
LINE
  8
型材断面
  6
CONTINUOUS
 10
76.820905
 20
41.911685
 11
79.320908
 21
44.411685
  0
LINE
  8
型材断面
  6
CONTINUOUS
 10
76.585205
 20
42.147385
 11
79.085208
 21
44.647385
  0
LINE
  8
型材断面
  6
CONTINUOUS
 10
80.25074
 20
45.577218
 11
79.203055
 21
44.529537
  0
LINE
  8
型材断面
  6
CONTINUOUS
 10
76.820893
 20
33.2307
 11
76.820905
 21
41.911685
  0
LINE
  8
型材断面
  6
CONTINUOUS
 10
61.43255
 20
42.147378
 11
76.585203
 21
42.147387
  0
LINE
  8
型材断面
  6
CONTINUOUS
 10
79.320893
 20
32.814033
 11
79.320908
 21
44.411685
  0
LINE
  8
型材断面
  6
CONTINUOUS
 10
-22.51245
 20
44.64732
 11
79.08521
 21
44.647387
  0
LINE
  8
型材断面
  6
CONTINUOUS
 10
-125.275788
 20
20.050848
 11
-125.275788
 21
45.57722
  0
LINE
  8
型材断面
  6
DASHDOT
 10
-89.569117
 20
22.814033
 11
-89.569117
 21
42.814033
  0
LINE
  8
型材断面
  6
DASHDOT
 10
-56.04245
 20
22.814033
 11
-56.04245
 21
42.814033
  0
LINE
  8
型材断面
  6
CONTINUOUS
 10
-124.110107
 20
20.98068
 11
-124.345807
 21
21.21638
  0
LINE
  8
型材断面
  6
CONTINUOUS
 10
-121.610105
 20
23.48068
 11
-121.845805
 21
23.71638
  0
LINE
  8
型材断面
  6
CONTINUOUS
 10
-121.845805
 20
23.71638
 11
-124.345807
 21
21.21638
  0
LINE
  8
型材断面
  6
CONTINUOUS
 10
-121.610105
 20
23.48068
 11
-124.110107
 21
20.98068
  0
LINE
  8
型材断面
  6
CONTINUOUS
 10
-125.27564
 20
20.050848
 11
-124.227955
 21
21.098527
  0
LINE
  8
型材断面
  6
CONTINUOUS
 10
-124.345792
 20
32.814033
 11
-124.345807
 21
21.21638
  0
LINE
  8
型材断面
  6
CONTINUOUS
 10
-90.819117
 20
24.314033
 11
-88.319117
 21
24.314035
  0
LINE
  8
型材断面
  6
CONTINUOUS
 10
-90.819117
 20
41.314033
 11
-88.319117
 21
41.31403
  0
LINE
  8
型材断面
  6
CONTINUOUS
 10
-90.819117
 20
24.314033
 11
-90.819117
 21
41.314033
  0
LINE
  8
型材断面
  6
CONTINUOUS
 10
-88.319117
 20
24.314035
 11
-88.319117
 21
41.31403
  0
LINE
  8
型材断面
  6
CONTINUOUS
 10
-121.845792
 20
33.2307
 11
-124.345792
 21
33.2307
  0
LINE
  8
型材断面
  6
CONTINUOUS
 10
-121.845792
 20
32.397365
 11
-124.345792
 21
32.397365
  0
LINE
  8
型材断面
  6
CONTINUOUS
 10
-121.845792
 20
32.397365
 11
-121.845805
 21
23.71638
  0
LINE
  8
型材断面
  6
CONTINUOUS
 10
-106.45745
 20
23.480688
 11
-106.45745
 21
20.98069
  0
LINE
  8
型材断面
  6
CONTINUOUS
 10
-105.624115
 20
23.48069
 11
-105.624115
 21
20.98069
  0
LINE
  8
型材断面
  6
CONTINUOUS
 10
-73.222452
 20
23.480688
 11
-73.222452
 21
20.98069
  0
LINE
  8
型材断面
  6
CONTINUOUS
 10
-72.389117
 20
23.48069
 11
-72.389117
 21
20.98069
  0
LINE
  8
型材断面
  6
CONTINUOUS
 10
-39.695785
 20
23.480688
 11
-39.695785
 21
20.98069
  0
LINE
  8
型材断面
  6
CONTINUOUS
 10
-38.86245
 20
23.48069
 11
-38.86245
 21
20.98069
  0
LINE
  8
型材断面
  6
CONTINUOUS
 10
-106.45745
 20
23.480688
 11
-121.610103
 21
23.480677
  0
LINE
  8
型材断面
  6
CONTINUOUS
 10
-106.45745
 20
42.147378
 11
-106.45745
 21
44.647375
  0
LINE
  8
型材断面
  6
CONTINUOUS
 10
-105.624115
 20
42.147375
 11
-105.624115
 21
44.647375
  0
LINE
  8
型材断面
  6
CONTINUOUS
 10
-73.222452
 20
42.147378
 11
-73.222452
 21
44.647375
  0
LINE
  8
型材断面
  6
CONTINUOUS
 10
-72.389117
 20
42.147375
 11
-72.389117
 21
44.647375
  0
LINE
  8
型材断面
  6
CONTINUOUS
 10
-39.695785
 20
42.147378
 11
-39.695785
 21
44.647375
  0
LINE
  8
型材断面
  6
CONTINUOUS
 10
-38.86245
 20
42.147375
 11
-38.86245
 21
44.647375
  0
LINE
  8
型材断面
  6
CONTINUOUS
 10
-73.222452
 20
23.480712
 11
-105.624115
 21
23.48069
  0
LINE
  8
型材断面
  6
CONTINUOUS
 10
-105.624115
 20
42.147375
 11
-73.222452
 21
42.147352
  0
LINE
  8
型材断面
  6
CONTINUOUS
 10
-72.389117
 20
42.147352
 11
-39.695785
 21
42.14733
  0
LINE
  8
型材断面
  6
CONTINUOUS
 10
-39.695785
 20
23.480735
 11
-72.389117
 21
23.480712
  0
LINE
  8
型材断面
  6
CONTINUOUS
 10
-57.29245
 20
24.314033
 11
-54.79245
 21
24.314035
  0
LINE
  8
型材断面
  6
CONTINUOUS
 10
-57.29245
 20
41.314033
 11
-54.79245
 21
41.31403
  0
LINE
  8
型材断面
  6
CONTINUOUS
 10
-57.29245
 20
24.314033
 11
-57.29245
 21
41.314033
  0
LINE
  8
型材断面
  6
CONTINUOUS
 10
-54.79245
 20
24.314035
 11
-54.79245
 21
41.31403
  0
LINE
  8
型材断面
  6
CONTINUOUS
 10
-124.110107
 20
44.647385
 11
-124.345807
 21
44.411685
  0
LINE
  8
型材断面
  6
CONTINUOUS
 10
-121.610105
 20
42.147385
 11
-121.845805
 21
41.911685
  0
LINE
  8
型材断面
  6
CONTINUOUS
 10
-121.845805
 20
41.911685
 11
-124.345807
 21
44.411685
  0
LINE
  8
型材断面
  6
CONTINUOUS
 10
-121.610105
 20
42.147385
 11
-124.110107
 21
44.647385
  0
LINE
  8
型材断面
  6
CONTINUOUS
 10
-125.27564
 20
45.577218
 11
-124.227955
 21
44.529537
  0
LINE
  8
型材断面
  6
CONTINUOUS
 10
-121.845792
 20
33.2307
 11
-121.845805
 21
41.911685
  0
LINE
  8
型材断面
  6
CONTINUOUS
 10
-106.45745
 20
42.147378
 11
-121.610103
 21
42.147387
  0
LINE
  8
型材断面
  6
CONTINUOUS
 10
-124.345792
 20
32.814033
 11
-124.345807
 21
44.411685
  0
LINE
  8
型材断面
  6
CONTINUOUS
 10
-22.51245
 20
42.147317
 11
-38.86245
 21
42.14733
  0
LINE
  8
型材断面
  6
CONTINUOUS
 10
-22.51245
 20
23.480747
 11
-38.86245
 21
23.480735
  0
LINE
  8
型材断面
  6
CONTINUOUS
 10
-22.51245
 20
44.64732
 11
-124.11011
 21
44.647387
  0
LINE
  8
型材断面
  6
CONTINUOUS
 10
-22.51245
 20
20.980745
 11
-124.11011
 21
20.980677
  0
LINE
  8
型材断面
  6
CONTINUOUS
 10
79.75089
 20
-77.192947
 11
79.75089
 21
-77.529612
  0
LINE
  8
型材断面
  6
CONTINUOUS
 10
80.054222
 20
-73.096397
 11
80.25089
 21
-73.293065
  0
LINE
  8
型材断面
  6
CONTINUOUS
 10
80.25089
 20
-73.293065
 11
80.25089
 21
-77.192947
  0
LINE
  8
型材断面
  6
CONTINUOUS
 62
    47
 10
80.054265
 20
-73.096443
 11
-22.51245
 21
-73.096443
  0
LINE
  8
型材断面
  6
CONTINUOUS
 10
80.25089
 20
-73.293065
 11
-22.51245
 21
-73.293065
  0
LINE
  8
型材断面
  6
CONTINUOUS
 10
80.25089
 20
-77.192947
 11
-22.51245
 21
-77.192947
  0
LINE
  8
型材断面
  6
CONTINUOUS
 10
79.75089
 20
-77.529612
 11
-22.51245
 21
-77.529612
  0
LINE
  8
型材断面
  6
CONTINUOUS
 10
-124.77579
 20
-77.192947
 11
-124.77579
 21
-77.529612
  0
LINE
  8
型材断面
  6
CONTINUOUS
 10
-125.079123
 20
-73.096397
 11
-125.27579
 21
-73.293065
  0
LINE
  8
型材断面
  6
CONTINUOUS
 10
-125.27579
 20
-73.293065
 11
-125.27579
 21
-77.192947
  0
LINE
  8
型材断面
  6
CONTINUOUS
 62
    47
 10
-125.079165
 20
-73.096443
 11
-22.51245
 21
-73.096443
  0
LINE
  8
型材断面
  6
CONTINUOUS
 10
-125.27579
 20
-73.293065
 11
-22.51245
 21
-73.293065
  0
LINE
  8
型材断面
  6
CONTINUOUS
 10
-125.27579
 20
-77.192947
 11
-22.51245
 21
-77.192947
  0
LINE
  8
型材断面
  6
CONTINUOUS
 10
-124.77579
 20
-77.529612
 11
-22.51245
 21
-77.529612
  0
LINE
  8
型材断面
  6
CONTINUOUS
 10
174.520817
 20
45.077223
 11
174.857482
 21
45.077223
  0
LINE
  8
型材断面
  6
CONTINUOUS
 10
170.424267
 20
45.380555
 11
170.620935
 21
45.577223
  0
LINE
  8
型材断面
  6
CONTINUOUS
 10
170.620935
 20
45.577223
 11
174.520817
 21
45.577223
  0
LINE
  8
型材断面
  6
CONTINUOUS
 62
    47
 10
170.424313
 20
45.380597
 11
170.424313
 21
32.814033
  0
LINE
  8
型材断面
  6
CONTINUOUS
 10
170.620935
 20
45.577223
 11
170.620935
 21
32.814033
  0
LINE
  8
型材断面
  6
CONTINUOUS
 10
174.857482
 20
45.077223
 11
174.857482
 21
32.814033
  0
LINE
  8
型材断面
  6
CONTINUOUS
 10
174.520817
 20
45.577223
 11
174.520817
 21
32.814033
  0
LINE
  8
型材断面
  6
CONTINUOUS
 10
174.520817
 20
20.550842
 11
174.857482
 21
20.550842
  0
LINE
  8
型材断面
  6
CONTINUOUS
 10
170.424267
 20
20.24751
 11
170.620935
 21
20.050842
  0
LINE
  8
型材断面
  6
CONTINUOUS
 10
170.620935
 20
20.050842
 11
174.520817
 21
20.050842
  0
LINE
  8
型材断面
  6
CONTINUOUS
 62
    47
 10
170.424313
 20
20.247467
 11
170.424313
 21
32.814033
  0
LINE
  8
型材断面
  6
CONTINUOUS
 10
170.620935
 20
20.050842
 11
170.620935
 21
32.814033
  0
LINE
  8
型材断面
  6
CONTINUOUS
 10
174.857482
 20
20.550842
 11
174.857482
 21
32.814033
  0
LINE
  8
型材断面
  6
CONTINUOUS
 10
174.520817
 20
20.050842
 11
174.520817
 21
32.814033
  0
TEXT
  7
TextStyle03
  8
文字
  6
CONTINUOUS
 10
-30.45
 20
9.325
  1
可動装置側
 40
3.0
 72
     5
 11
-13.95
 21
9.325
  0
TEXT
  7
TextStyle03
  8
文字
  6
CONTINUOUS
 10
-30.45
 20
53.3
  1
可動装置側
 40
3.0
 72
     5
 11
-13.95
 21
53.3
  0
TEXT
  7
TextStyle03
  8
文字
  6
CONTINUOUS
 10
-160.55
 20
79.425
  1
はケーシング位置を示す
 40
3.0
 72
     5
 11
-123.8
 21
79.425
  0
TEXT
  7
TextStyle03
  8
文字
  6
CONTINUOUS
 10
-160.55
 20
76.05
  1
４ヶ所中1ヶ所に設定
 40
3.0
 72
     5
 11
-128.8625
 21
76.05
  0
TEXT
  7
TextStyle03
  8
文字
  6
CONTINUOUS
 10
-160.55
 20
84.95
  1
は排水穴位置を示す
 40
3.0
 72
     5
 11
-130.55
 21
84.95
  0
TEXT
  7
TextStyle03
  8
文字
  6
CONTINUOUS
 10
-143.55
 20
11.275
  1
アンカーピッチ
 40
3.0
 50
90.0
 72
     5
 11
-143.55
 21
34.525
  0
TEXT
  7
TextStyle03
  8
文字
  6
CONTINUOUS
 10
-109.05
 20
79.95
  1
アンカーピッチ
 40
3.0
 72
     5
 11
-85.8
 21
79.95
  0
TEXT
  7
TextStyle03
  8
文字
  6
CONTINUOUS
 10
-164.275
 20
70.075
  1
アンカー数量　２２ヶ所
 40
3.0
 72
     5
 11
-127.525
 21
70.075
  0
TEXT
  7
TextStyle03
  8
文字
  6
CONTINUOUS
 10
-164.325
 20
64.3
  1
アームユニット数　４～６ヶ所
 40
3.0
 72
     5
 11
-117.45
 21
64.3
  0
TEXT
  7
TextStyle03
  8
文字
  6
CONTINUOUS
 10
-169.25
 20
59.35
  1
※重量に依るのでご相談ください
 40
3.0
 72
     5
 11
-119.0
 21
59.35
  0
LINE
  8
文字
  6
CONTINUOUS
 10
-125.275788
 20
-70.743062
 11
-125.275788
 21
-12.609317
  0
LINE
  8
文字
  6
CONTINUOUS
 10
80.250887
 20
-70.743062
 11
80.250887
 21
-12.609317
  0
LINE
  8
文字
  6
CONTINUOUS
 10
96.664375
 20
-69.076395
 11
83.060695
 21
-69.076395
  0
LINE
  8
文字
  6
CONTINUOUS
 10
96.664375
 20
-61.743062
 11
83.060695
 21
-61.743062
  0
LINE
  8
文字
  6
CONTINUOUS
 10
168.616577
 20
45.57722
 11
111.5072
 21
45.57722
  0
LINE
  8
文字
  6
CONTINUOUS
 10
168.616577
 20
20.050848
 11
111.5072
 21
20.050848
  0
LINE
  8
文字
  6
CONTINUOUS
 10
166.404265
 20
51.815152
 11
166.404265
 21
46.90238
  0
LINE
  8
文字
  6
CONTINUOUS
 10
159.070932
 20
51.815152
 11
159.070932
 21
46.90238
  0
LINE
  8
文字
  6
CONTINUOUS
 10
140.240772
 20
-55.621863
 11
140.240772
 21
-62.609648
  0
LINE
  8
文字
  6
CONTINUOUS
 10
172.574105
 20
-55.621863
 11
172.574105
 21
-62.609648
  0
TEXT
  7
TextStyle03
  8
文字
  6
CONTINUOUS
 10
154.025
 20
-77.35
  1
網入り6.8t
 40
3.0
 72
     5
 11
170.7125
 21
-77.35
  0
TEXT
  7
TextStyle03
  8
文字
  6
CONTINUOUS
 10
160.7
 20
-82.025
  1
×６枚
 40
3.0
 72
     5
 11
170.45
 21
-82.025
  0
TEXT
  7
TextStyle03
  8
文字
  6
CONTINUOUS
 10
59.825
 20
125.25
  1
シリーズ：ＴＦＦＬ
 40
5.0
 72
     5
 11
109.825
 21
125.25
  0
TEXT
  7
TextStyle03
  8
文字
  6
CONTINUOUS
 10
59.825
 20
119.625
  1
　　　　　（上下可動）600×6000タイプ
 40
5.0
 72
     5
 11
163.2625
 21
119.625
  0
TEXT
  7
TextStyle03
  8
文字
  6
CONTINUOUS
 10
59.825
 20
114.0
  1
図面名　：外観姿図
 40
5.0
 72
     5
 11
109.825
 21
114.0
  0
TEXT
  7
TextStyle03
  8
文字
  6
CONTINUOUS
 10
59.825
 20
108.375
  1
　　　　　　
 40
5.0
 72
     5
 11
92.95
 21
108.375
  0
TEXT
  7
TextStyle03
  8
文字
  6
CONTINUOUS
 10
59.975
 20
104.525
  1
ＮＳコード：ＮＳＦＬ
 40
5.0
 72
     5
 11
115.6
 21
104.525
  0
INSERT
  2
*DIM_0002
  8
寸法
  6
CONTINUOUS
 10
0.0
 20
0.0
  0
INSERT
  2
*DIM_0003
  8
寸法
  6
CONTINUOUS
 10
0.0
 20
0.0
  0
INSERT
  2
*DIM_0004
  8
寸法
  6
CONTINUOUS
 10
0.0
 20
0.0
  0
INSERT
  2
*DIM_0005
  8
寸法
  6
CONTINUOUS
 10
0.0
 20
0.0
  0
INSERT
  2
*DIM_0006
  8
寸法
  6
CONTINUOUS
 10
0.0
 20
0.0
  0
INSERT
  2
*DIM_0007
  8
寸法
  6
CONTINUOUS
 10
0.0
 20
0.0
  0
INSERT
  2
*DIM_0008
  8
寸法
  6
CONTINUOUS
 10
0.0
 20
0.0
  0
INSERT
  2
*DIM_0009
  8
寸法
  6
CONTINUOUS
 10
0.0
 20
0.0
  0
INSERT
  2
*DIM_0010
  8
寸法
  6
CONTINUOUS
 10
0.0
 20
0.0
  0
INSERT
  2
*DIM_0011
  8
寸法
  6
CONTINUOUS
 10
0.0
 20
0.0
  0
INSERT
  2
*DIM_0012
  8
寸法
  6
CONTINUOUS
 10
0.0
 20
0.0
  0
INSERT
  2
*DIM_0013
  8
寸法
  6
CONTINUOUS
 10
0.0
 20
0.0
  0
INSERT
  2
*DIM_0014
  8
寸法
  6
CONTINUOUS
 10
0.0
 20
0.0
  0
INSERT
  2
*DIM_0015
  8
寸法
  6
CONTINUOUS
 10
0.0
 20
0.0
  0
INSERT
  2
*DIM_0016
  8
寸法
  6
CONTINUOUS
 10
0.0
 20
0.0
  0
INSERT
  2
*DIM_0017
  8
寸法
  6
CONTINUOUS
 10
0.0
 20
0.0
  0
INSERT
  2
*DIM_0025
  8
寸法
  6
CONTINUOUS
 10
0.0
 20
0.0
  0
INSERT
  2
*DIM_0026
  8
寸法
  6
CONTINUOUS
 10
0.0
 20
0.0
  0
INSERT
  2
*DIM_0027
  8
寸法
  6
CONTINUOUS
 10
0.0
 20
0.0
  0
INSERT
  2
*DIM_0028
  8
寸法
  6
CONTINUOUS
 10
0.0
 20
0.0
  0
INSERT
  2
*DIM_0029
  8
寸法
  6
CONTINUOUS
 10
0.0
 20
0.0
  0
INSERT
  2
*DIM_0030
  8
寸法
  6
CONTINUOUS
 10
0.0
 20
0.0
  0
INSERT
  2
*DIM_0031
  8
寸法
  6
CONTINUOUS
 10
0.0
 20
0.0
  0
INSERT
  2
*DIM_0032
  8
寸法
  6
CONTINUOUS
 10
0.0
 20
0.0
  0
INSERT
  2
*DIM_0033
  8
寸法
  6
CONTINUOUS
 10
0.0
 20
0.0
  0
LINE
  8
別途部材
  6
CONTINUOUS
 62
    47
 10
-124.34579
 20
-69.176395
 11
-124.34579
 21
-69.243062
  0
ARC
  8
別途部材
  6
CONTINUOUS
 62
    47
 10
-124.245785
 20
-69.176396
 40
0.1
 50
90.0
 51
180.0
  0
LINE
  8
別途部材
  6
CONTINUOUS
 62
    47
 10
-124.189268
 20
-69.243062
 11
-124.189268
 21
-70.743062
  0
LINE
  8
別途部材
  6
DOT
 62
    47
 10
-124.34579
 20
-61.843062
 11
-124.34579
 21
-61.90973
  0
ARC
  8
別途部材
  6
DOT
 62
    47
 10
-124.245785
 20
-61.843062
 40
0.1
 50
90.0
 51
180.0
  0
LINE
  8
別途部材
  6
DOT
 62
    47
 10
-124.189268
 20
-61.90973
 11
-124.189268
 21
-63.40973
  0
LINE
  8
別途部材
  6
CONTINUOUS
 62
    47
 10
79.32089
 20
-69.176395
 11
79.32089
 21
-69.243062
  0
ARC
  8
別途部材
  6
CONTINUOUS
 62
    47
 10
79.220884
 20
-69.176396
 40
0.1
 50
0.0
 51
90.0
  0
LINE
  8
別途部材
  6
CONTINUOUS
 62
    47
 10
79.164367
 20
-69.243062
 11
79.164367
 21
-70.743062
  0
LINE
  8
別途部材
  6
DOT
 62
    47
 10
79.32089
 20
-61.843062
 11
79.32089
 21
-61.90973
  0
ARC
  8
別途部材
  6
DOT
 62
    47
 10
79.220884
 20
-61.843062
 40
0.1
 50
0.0
 51
90.0
  0
LINE
  8
別途部材
  6
DOT
 62
    47
 10
79.164367
 20
-61.90973
 11
79.164367
 21
-63.40973
  0
LINE
  8
別途部材
  6
CONTINUOUS
 62
    47
 10
-125.275788
 20
-71.893065
 11
-22.51245
 21
-71.893065
  0
LINE
  8
別途部材
  6
CONTINUOUS
 62
    47
 10
-125.275788
 20
-73.05973
 11
-22.51245
 21
-73.05973
  0
LINE
  8
別途部材
  6
CONTINUOUS
 62
    47
 10
-124.189268
 20
-70.743062
 11
-22.51245
 21
-70.743062
  0
LINE
  8
別途部材
  6
CONTINUOUS
 62
    47
 10
-124.34579
 20
-69.243062
 11
-22.51245
 21
-69.243062
  0
LINE
  8
別途部材
  6
CONTINUOUS
 62
    47
 10
-124.24579
 20
-69.076395
 11
-22.51245
 21
-69.076395
  0
LINE
  8
別途部材
  6
DOT
 62
    47
 10
-125.275788
 20
-65.726397
 11
-22.51245
 21
-65.726397
  0
LINE
  8
別途部材
  6
DOT
 62
    47
 10
-125.275788
 20
-64.559732
 11
-22.51245
 21
-64.559732
  0
LINE
  8
別途部材
  6
DOT
 62
    47
 10
-124.189268
 20
-63.40973
 11
-22.51245
 21
-63.40973
  0
LINE
  8
別途部材
  6
DOT
 62
    47
 10
-124.24579
 20
-61.743062
 11
-22.51245
 21
-61.743062
  0
LINE
  8
別途部材
  6
DOT
 62
    47
 10
-124.34579
 20
-61.90973
 11
-22.51245
 21
-61.90973
  0
LINE
  8
別途部材
  6
CONTINUOUS
 62
    47
 10
80.250887
 20
-73.05973
 11
-22.51245
 21
-73.05973
  0
LINE
  8
別途部材
  6
CONTINUOUS
 62
    47
 10
80.250887
 20
-71.893065
 11
-22.51245
 21
-71.893065
  0
LINE
  8
別途部材
  6
CONTINUOUS
 62
    47
 10
79.164367
 20
-70.743062
 11
-22.51245
 21
-70.743062
  0
LINE
  8
別途部材
  6
CONTINUOUS
 62
    47
 10
79.22089
 20
-69.076395
 11
-22.51245
 21
-69.076395
  0
LINE
  8
別途部材
  6
CONTINUOUS
 62
    47
 10
79.32089
 20
-69.243062
 11
-22.51245
 21
-69.243062
  0
LINE
  8
別途部材
  6
DOT
 62
    47
 10
80.250887
 20
-65.726397
 11
-22.51245
 21
-65.726397
  0
LINE
  8
別途部材
  6
DOT
 62
    47
 10
80.250887
 20
-64.559732
 11
-22.51245
 21
-64.559732
  0
LINE
  8
別途部材
  6
DOT
 62
    47
 10
79.164367
 20
-63.40973
 11
-22.51245
 21
-63.40973
  0
LINE
  8
別途部材
  6
DOT
 62
    47
 10
79.22089
 20
-61.743062
 11
-22.51245
 21
-61.743062
  0
LINE
  8
別途部材
  6
DOT
 62
    47
 10
79.32089
 20
-61.90973
 11
-22.51245
 21
-61.90973
  0
LINE
  8
別途部材
  6
CONTINUOUS
 62
    47
 10
166.504265
 20
20.980845
 11
166.570932
 21
20.980845
  0
ARC
  8
別途部材
  6
CONTINUOUS
 62
    47
 10
166.504267
 20
21.080846
 40
0.1
 50
180.0
 51
270.0
  0
LINE
  8
別途部材
  6
CONTINUOUS
 62
    47
 10
166.570932
 20
21.137368
 11
168.070932
 21
21.137368
  0
LINE
  8
別途部材
  6
CONTINUOUS
 62
    47
 10
170.3876
 20
20.050848
 11
170.3876
 21
32.814033
  0
LINE
  8
別途部材
  6
CONTINUOUS
 62
    47
 10
169.220935
 20
20.050848
 11
169.220935
 21
32.814033
  0
LINE
  8
別途部材
  6
CONTINUOUS
 62
    47
 10
168.070932
 20
21.137368
 11
168.070932
 21
32.814033
  0
LINE
  8
別途部材
  6
CONTINUOUS
 62
    47
 10
166.570932
 20
20.980845
 11
166.570932
 21
32.814033
  0
LINE
  8
別途部材
  6
CONTINUOUS
 62
    47
 10
166.404265
 20
21.080845
 11
166.404265
 21
32.814033
  0
LINE
  8
別途部材
  6
CONTINUOUS
 62
    47
 10
166.504265
 20
44.647222
 11
166.570932
 21
44.647222
  0
ARC
  8
別途部材
  6
CONTINUOUS
 62
    47
 10
166.504267
 20
44.547222
 40
0.1
 50
90.0
 51
180.0
  0
LINE
  8
別途部材
  6
CONTINUOUS
 62
    47
 10
166.570932
 20
44.4907
 11
168.070932
 21
44.4907
  0
LINE
  8
別途部材
  6
CONTINUOUS
 62
    47
 10
170.3876
 20
45.57722
 11
170.3876
 21
32.814033
  0
LINE
  8
別途部材
  6
CONTINUOUS
 62
    47
 10
169.220935
 20
45.57722
 11
169.220935
 21
32.814033
  0
LINE
  8
別途部材
  6
CONTINUOUS
 62
    47
 10
168.070932
 20
44.4907
 11
168.070932
 21
32.814033
  0
LINE
  8
別途部材
  6
CONTINUOUS
 62
    47
 10
166.570932
 20
44.647222
 11
166.570932
 21
32.814033
  0
LINE
  8
別途部材
  6
CONTINUOUS
 62
    47
 10
166.404265
 20
44.547222
 11
166.404265
 21
32.814033
  0
LINE
  8
曲げ物
  6
CONTINUOUS
 10
172.574105
 20
-63.785395
 11
140.240772
 21
-63.785395
  0
LINE
  8
曲げ物
  6
CONTINUOUS
 10
-103.719793
 20
34.739582
 11
-107.415105
 21
31.04427
  0
LINE
  8
曲げ物
  6
CONTINUOUS
 10
-104.423262
 20
33.203472
 11
-105.878993
 21
31.747742
  0
LINE
  8
曲げ物
  6
CONTINUOUS
 10
-105.255902
 20
34.036112
 11
-106.711632
 21
32.580383
  0
LINE
  8
曲げ物
  6
CONTINUOUS
 10
-70.883593
 20
34.739582
 11
-74.578905
 21
31.04427
  0
LINE
  8
曲げ物
  6
CONTINUOUS
 10
-71.587062
 20
33.203472
 11
-73.042792
 21
31.747742
  0
LINE
  8
曲げ物
  6
CONTINUOUS
 10
-72.419703
 20
34.036112
 11
-73.875432
 21
32.580383
  0
LINE
  8
曲げ物
  6
CONTINUOUS
 10
-36.56901
 20
34.739582
 11
-40.264322
 21
31.04427
  0
LINE
  8
曲げ物
  6
CONTINUOUS
 10
-37.27248
 20
33.203472
 11
-38.72821
 21
31.747742
  0
LINE
  8
曲げ物
  6
CONTINUOUS
 10
-38.10512
 20
34.036112
 11
-39.56085
 21
32.580383
  0
LINE
  8
曲げ物
  6
CONTINUOUS
 10
-4.926303
 20
34.739582
 11
-8.621615
 21
31.04427
  0
LINE
  8
曲げ物
  6
CONTINUOUS
 10
-5.629773
 20
33.203472
 11
-7.085502
 21
31.747742
  0
LINE
  8
曲げ物
  6
CONTINUOUS
 10
-6.462413
 20
34.036112
 11
-7.918142
 21
32.580383
  0
LINE
  8
曲げ物
  6
CONTINUOUS
 10
29.900783
 20
34.739582
 11
26.20547
 21
31.04427
  0
LINE
  8
曲げ物
  6
CONTINUOUS
 10
29.197313
 20
33.203472
 11
27.741583
 21
31.747742
  0
LINE
  8
曲げ物
  6
CONTINUOUS
 10
28.364673
 20
34.036112
 11
26.908943
 21
32.580383
  0
LINE
  8
曲げ物
  6
CONTINUOUS
 10
62.21328
 20
34.739582
 11
58.517967
 21
31.04427
  0
LINE
  8
曲げ物
  6
CONTINUOUS
 10
61.50981
 20
33.203472
 11
60.05408
 21
31.747742
  0
LINE
  8
曲げ物
  6
CONTINUOUS
 10
60.67717
 20
34.036112
 11
59.22144
 21
32.580383
  0
LINE
  8
曲げ物
  6
CONTINUOUS
 10
172.574105
 20
-83.785395
 11
140.240772
 21
-83.785395
  0
LINE
  8
曲げ物
  6
CONTINUOUS
 10
140.240772
 20
-63.785395
 11
140.240772
 21
-83.785395
  0
LINE
  8
曲げ物
  6
CONTINUOUS
 10
172.574105
 20
-63.785395
 11
172.574105
 21
-83.785395
  0
LINE
  8
鉄骨等
  6
CONTINUOUS
 62
    47
 10
-125.275788
 20
-73.05973
 11
-125.275788
 21
-71.893065
  0
LINE
  8
鉄骨等
  6
CONTINUOUS
 62
    47
 10
-125.275788
 20
-71.893065
 11
-123.872603
 21
-70.743065
  0
LINE
  8
鉄骨等
  6
DOT
 62
    47
 10
-125.275788
 20
-65.726397
 11
-125.275788
 21
-64.559732
  0
LINE
  8
鉄骨等
  6
DOT
 62
    47
 10
-125.275788
 20
-64.559732
 11
-123.872603
 21
-63.409732
  0
LINE
  8
鉄骨等
  6
CONTINUOUS
 62
    47
 10
80.250887
 20
-73.05973
 11
80.250887
 21
-71.893065
  0
LINE
  8
鉄骨等
  6
CONTINUOUS
 62
    47
 10
80.250887
 20
-71.893065
 11
78.847703
 21
-70.743065
  0
LINE
  8
鉄骨等
  6
DOT
 62
    47
 10
80.250887
 20
-65.726397
 11
80.250887
 21
-64.559732
  0
LINE
  8
鉄骨等
  6
DOT
 62
    47
 10
80.250887
 20
-64.559732
 11
78.847703
 21
-63.409732
  0
LINE
  8
鉄骨等
  6
CONTINUOUS
 62
    47
 10
170.3876
 20
20.050848
 11
169.220935
 21
20.050848
  0
LINE
  8
鉄骨等
  6
CONTINUOUS
 62
    47
 10
169.220935
 20
20.050848
 11
168.070935
 21
21.454032
  0
LINE
  8
鉄骨等
  6
CONTINUOUS
 62
    47
 10
170.3876
 20
45.57722
 11
169.220935
 21
45.57722
  0
LINE
  8
鉄骨等
  6
CONTINUOUS
 62
    47
 10
169.220935
 20
45.57722
 11
168.070935
 21
44.174033
  0
ENDSEC
  0
EOF
