  0
SECTION
  2
HEADER
  9
$EXTMIN
 10
-210.0
 20
-148.5
  9
$EXTMAX
 10
210.0
 20
148.5
  9
$PDMODE
 70
    32
  9
$PDSIZE
 40
1.5
  9
$LTSCALE
 40
10.0
  0
ENDSEC
  0
SECTION
  2
TABLES
  0
TABLE
  2
LTYPE
 70
    15
  0
LTYPE
  2
CONTINUOUS
 70
    64
  3
実線
 72
    65
 73
     0
 40
0.0
  0
LTYPE
  2
DASHED
 70
    64
  3
破線A
 72
    65
 73
     2
 40
0.6
 49
0.4
 49
-0.2
  0
LTYPE
  2
DASHEDX2
 70
    64
  3
破線B
 72
    65
 73
     2
 40
1.3
 49
0.9
 49
-0.4
  0
LTYPE
  2
DASHDOT
 70
    64
  3
１点鎖線A
 72
    65
 73
     4
 40
0.5375
 49
0.375
 49
-0.05
 49
0.0625
 49
-0.05
  0
LTYPE
  2
DASHDOTX2
 70
    64
  3
１点鎖線B
 72
    65
 73
     4
 40
1.075
 49
0.75
 49
-0.1
 49
0.125
 49
-0.1
  0
LTYPE
  2
DIVIDE2
 70
    64
  3
２点鎖線A
 72
    65
 73
     6
 40
0.5125
 49
0.3
 49
-0.0375
 49
0.05
 49
-0.0375
 49
0.05
 49
-0.0375
  0
LTYPE
  2
DIVIDE
 70
    64
  3
２点鎖線B
 72
    65
 73
     6
 40
1.05
 49
0.55
 49
-0.1
 49
0.1
 49
-0.1
 49
0.1
 49
-0.1
  0
LTYPE
  2
DOT
 70
    64
  3
点線A
 72
    65
 73
     2
 40
0.1125
 49
0.0625
 49
-0.05
  0
LTYPE
  2
DOTX2
 70
    64
  3
点線B
 72
    65
 73
     2
 40
0.275
 49
0.15
 49
-0.125
  0
LTYPE
  2
CONTINUOUS
 70
    64
  3
実線
 72
    65
 73
     0
 40
0.0
  0
LTYPE
  2
CONTINUOUS
 70
    64
  3
実線
 72
    65
 73
     0
 40
0.0
  0
LTYPE
  2
CONTINUOUS
 70
    64
  3
実線
 72
    65
 73
     0
 40
0.0
  0
LTYPE
  2
CONTINUOUS
 70
    64
  3
実線
 72
    65
 73
     0
 40
0.0
  0
LTYPE
  2
CONTINUOUS
 70
    64
  3
実線
 72
    65
 73
     0
 40
0.0
  0
LTYPE
  2
CONTINUOUS
 70
    64
  3
実線
 72
    65
 73
     0
 40
0.0
  0
ENDTAB
  0
TABLE
  2
LAYER
 70
    34
  0
LAYER
  2
通り芯
 70
     0
 62
    15
  6
CONTINUOUS
  0
LAYER
  2
補助線
 70
     0
 62
    16
  6
DOT
  0
LAYER
  2
躯体
 70
     0
 62
    31
  6
CONTINUOUS
  0
LAYER
  2
型材
 70
     0
 62
    32
  6
CONTINUOUS
  0
LAYER
  2
型材断面
 70
     0
 62
    47
  6
CONTINUOUS
  0
LAYER
  2
ガラス
 70
     0
 62
    48
  6
CONTINUOUS
  0
LAYER
  2
ゴム等
 70
     0
 62
    63
  6
CONTINUOUS
  0
LAYER
  2
ボルト／ビス
 70
     0
 62
    64
  6
CONTINUOUS
  0
LAYER
  2
文字
 70
     0
 62
    79
  6
CONTINUOUS
  0
LAYER
  2
寸法
 70
     0
 62
    80
  6
CONTINUOUS
  0
LAYER
  2
ﾊｯﾁﾝｸﾞ
 70
     0
 62
    95
  6
CONTINUOUS
  0
LAYER
  2
別途部材
 70
     0
 62
    96
  6
CONTINUOUS
  0
LAYER
  2
曲げ物
 70
     0
 62
   111
  6
CONTINUOUS
  0
LAYER
  2
鉄骨等
 70
     0
 62
   112
  6
CONTINUOUS
  0
LAYER
  2
St
 70
     0
 62
   127
  6
CONTINUOUS
  0
LAYER
  2
その他部品等
 70
     0
 62
   128
  6
CONTINUOUS
  0
LAYER
  2
ｶﾞｽｹｯﾄ
 70
     0
 62
   143
  6
CONTINUOUS
  0
LAYER
  2
ｽｹｯﾁ
 70
     0
 62
    14
  6
CONTINUOUS
  0
LAYER
  2
0
 70
     0
 62
    17
  6
CONTINUOUS
  0
LAYER
  2
1
 70
     0
 62
    30
  6
CONTINUOUS
  0
LAYER
  2
4
 70
     0
 62
    33
  6
CONTINUOUS
  0
LAYER
  2
ﾚｲﾔ3
 70
     0
 62
    46
  6
CONTINUOUS
  0
LAYER
  2
外形線
 70
     0
 62
    49
  6
CONTINUOUS
  0
LAYER
  2
部品
 70
     0
 62
    14
  6
CONTINUOUS
  0
LAYER
  2
サッシ芯
 70
     0
 62
    17
  6
DASHDOTX2
  0
LAYER
  2
寸法線
 70
     0
 62
    62
  6
CONTINUOUS
  0
LAYER
  2
姿図外形線
 70
     0
 62
    65
  6
CONTINUOUS
  0
LAYER
  2
姿補助線
 70
     0
 62
    30
  6
CONTINUOUS
  0
LAYER
  2
透視線
 70
     0
 62
    78
  6
DOT
  0
LAYER
  2
用紙
 70
     0
 62
    81
  6
CONTINUOUS
  0
LAYER
  2
実線図枠
 70
     0
 62
    94
  6
CONTINUOUS
  0
LAYER
  2
補助図枠
 70
     0
 62
    97
  6
CONTINUOUS
  0
LAYER
  2
建具記号
 70
     0
 62
   110
  6
CONTINUOUS
  0
LAYER
  2
補助文字
 70
     0
 62
   113
  6
CONTINUOUS
  0
ENDTAB
  0
TABLE
  2
STYLE
 70
    10
  0
STYLE
  2
STANDARD
 70
     0
 40
1.0
 41
1.0
 42
1.0
 50
0.0
 71
     0
  3
TXT
  4
BIGFONT
  0
STYLE
  2
TATE
 70
     4
 40
1.0
 41
1.0
 42
1.0
 50
0.0
 71
     0
  3
TXT
  4
BIGFONT
  0
STYLE
  2
TextStyle03
 70
     0
 40
1.0
 41
1.0
 42
1.0
 50
0.0
 71
     0
  3
MONOTXT
  4
BIGFONT
  0
STYLE
  2
TextStyle04
 70
     0
 40
1.0
 41
1.0
 42
1.0
 50
0.0
 71
     0
  3
MONOTXT
  4
BIGFONT
  0
STYLE
  2
TextStyle05
 70
     0
 40
1.0
 41
1.0
 42
1.0
 50
0.0
 71
     0
  3
MONOTXT
  4
BIGFONT
  0
STYLE
  2
TextStyle06
 70
     0
 40
1.0
 41
1.0
 42
1.0
 50
0.0
 71
     0
  3
MONOTXT
  4
BIGFONT
  0
STYLE
  2
TextStyle07
 70
     0
 40
1.0
 41
1.0
 42
1.0
 50
0.0
 71
     0
  3
MONOTXT
  4
BIGFONT
  0
STYLE
  2
TextStyle08
 70
     0
 40
1.0
 41
1.0
 42
1.0
 50
0.0
 71
     0
  3
MONOTXT
  4
BIGFONT
  0
STYLE
  2
TextStyle09
 70
     0
 40
1.0
 41
1.0
 42
1.0
 50
0.0
 71
     0
  3
MONOTXT
  4
BIGFONT
  0
STYLE
  2
TextStyle10
 70
     0
 40
1.0
 41
1.0
 42
1.0
 50
0.0
 71
     0
  3
MONOTXT
  4
BIGFONT
  0
ENDTAB
  0
ENDSEC
  0
SECTION
  2
BLOCKS
  0
BLOCK
  2
*GRP_0001
 70
    65
 10
0.0
 20
0.0
  0
LINE
  8
型材断面
  6
CONTINUOUS
 10
195.0
 20
133.5
 11
195.0
 21
-133.5
  0
LINE
  8
型材断面
  6
CONTINUOUS
 10
195.0
 20
-133.5
 11
-185.0
 21
-133.5
  0
LINE
  8
型材断面
  6
CONTINUOUS
 10
-185.0
 20
-133.5
 11
-185.0
 21
133.5
  0
LINE
  8
型材断面
  6
CONTINUOUS
 10
195.0
 20
133.5
 11
-185.0
 21
133.5
  0
LINE
  8
型材断面
  6
CONTINUOUS
 10
145.0
 20
-133.5
 11
145.0
 21
-118.5
  0
LINE
  8
型材断面
  6
CONTINUOUS
 10
195.0
 20
-118.5
 11
145.0
 21
-118.5
  0
ENDBLK
  0
BLOCK
  2
*DIM_0002
 70
    65
 10
0.0
 20
0.0
  0
LINE
  8
寸法
  6
BYBLOCK
 62
     0
 10
-87.10894
 20
19.183902
 11
-87.10894
 21
14.03092
  0
LINE
  8
寸法
  6
BYBLOCK
 62
     0
 10
-28.775608
 20
19.183905
 11
-28.775608
 21
14.03092
  0
LINE
  8
寸法
  6
BYBLOCK
 62
     0
 10
-87.10894
 20
14.03092
 11
-28.775608
 21
14.03092
  0
POINT
  8
寸法
 62
     0
 10
-87.10894
 20
14.03092
  0
POINT
  8
寸法
 62
     0
 10
-28.775608
 20
14.03092
  0
TEXT
  7
TextStyle03
  8
寸法
  6
CONTINUOUS
 62
     0
 10
-61.23125
 20
14.4
  1
1750
 40
3.0
 72
     5
 11
-54.66875
 21
14.4
  0
ENDBLK
  0
BLOCK
  2
*DIM_0003
 70
    65
 10
0.0
 20
0.0
  0
LINE
  8
寸法
  6
BYBLOCK
 62
     0
 10
29.557725
 20
19.183902
 11
29.557725
 21
14.03092
  0
LINE
  8
寸法
  6
BYBLOCK
 62
     0
 10
-28.775608
 20
14.03092
 11
29.557725
 21
14.03092
  0
POINT
  8
寸法
 62
     0
 10
29.557725
 20
14.03092
  0
TEXT
  7
TextStyle03
  8
寸法
  6
CONTINUOUS
 62
     0
 10
-2.90625
 20
14.4
  1
1750
 40
3.0
 72
     5
 11
3.65625
 21
14.4
  0
ENDBLK
  0
BLOCK
  2
*DIM_0004
 70
    65
 10
0.0
 20
0.0
  0
LINE
  8
寸法
  6
BYBLOCK
 62
     0
 10
47.224393
 20
42.814035
 11
56.948675
 21
42.814035
  0
LINE
  8
寸法
  6
BYBLOCK
 62
     0
 10
49.854522
 20
39.114035
 11
56.948675
 21
39.114035
  0
LINE
  8
寸法
  6
BYBLOCK
 62
     0
 10
56.948675
 20
42.814035
 11
56.948675
 21
39.114035
  0
POINT
  8
寸法
 62
     0
 10
56.948675
 20
42.814035
  0
POINT
  8
寸法
 62
     0
 10
56.948675
 20
39.114035
  0
TEXT
  7
TextStyle03
  8
寸法
  6
CONTINUOUS
 62
     0
 10
56.625
 20
43.8125
  1
111
 40
3.0
 50
90.0
 72
     5
 11
56.625
 21
48.6875
  0
ENDBLK
  0
BLOCK
  2
*DIM_0005
 70
    65
 10
0.0
 20
0.0
  0
LINE
  8
寸法
  6
BYBLOCK
 62
     0
 10
47.224393
 20
22.81403
 11
56.948675
 21
22.814027
  0
LINE
  8
寸法
  6
BYBLOCK
 62
     0
 10
49.854522
 20
26.51403
 11
56.948675
 21
26.514027
  0
LINE
  8
寸法
  6
BYBLOCK
 62
     0
 10
56.948675
 20
22.814027
 11
56.948675
 21
26.514027
  0
POINT
  8
寸法
 62
     0
 10
56.948675
 20
22.814027
  0
POINT
  8
寸法
 62
     0
 10
56.948675
 20
26.514027
  0
TEXT
  7
TextStyle03
  8
寸法
  6
CONTINUOUS
 62
     0
 10
56.95
 20
16.5625
  1
111
 40
3.0
 50
90.0
 72
     5
 11
56.95
 21
21.4375
  0
ENDBLK
  0
BLOCK
  2
*DIM_0006
 70
    65
 10
0.0
 20
0.0
  0
LINE
  8
寸法
  6
BYBLOCK
 62
     0
 10
-106.775608
 20
39.4807
 11
-120.068445
 21
39.4807
  0
LINE
  8
寸法
  6
BYBLOCK
 62
     0
 10
-106.775608
 20
26.147365
 11
-120.068445
 21
26.147365
  0
LINE
  8
寸法
  6
BYBLOCK
 62
     0
 10
-120.068445
 20
39.4807
 11
-120.068445
 21
26.147365
  0
POINT
  8
寸法
 62
     0
 10
-120.068445
 20
39.4807
  0
POINT
  8
寸法
 62
     0
 10
-120.068445
 20
26.147365
  0
TEXT
  7
TextStyle03
  8
寸法
  6
CONTINUOUS
 62
     0
 10
-120.475
 20
30.3625
  1
400
 40
3.0
 50
90.0
 72
     5
 11
-120.475
 21
35.2375
  0
ENDBLK
  0
BLOCK
  2
*DIM_0007
 70
    65
 10
0.0
 20
0.0
  0
LINE
  8
寸法
  6
BYBLOCK
 62
     0
 10
-95.442275
 20
45.814033
 11
-95.442275
 21
74.922105
  0
LINE
  8
寸法
  6
BYBLOCK
 62
     0
 10
-68.775608
 20
45.814033
 11
-68.775608
 21
74.922105
  0
LINE
  8
寸法
  6
BYBLOCK
 62
     0
 10
-95.442275
 20
74.922105
 11
-68.775608
 21
74.922105
  0
POINT
  8
寸法
 62
     0
 10
-95.442275
 20
74.922105
  0
POINT
  8
寸法
 62
     0
 10
-68.775608
 20
74.922105
  0
TEXT
  7
TextStyle03
  8
寸法
  6
CONTINUOUS
 62
     0
 10
-84.5875
 20
75.275
  1
800
 40
3.0
 72
     5
 11
-79.7125
 21
75.275
  0
ENDBLK
  0
BLOCK
  2
*DIM_0008
 70
    65
 10
0.0
 20
0.0
  0
LINE
  8
寸法
  6
BYBLOCK
 62
     0
 10
-42.10894
 20
45.814033
 11
-42.10894
 21
74.922105
  0
LINE
  8
寸法
  6
BYBLOCK
 62
     0
 10
-68.775608
 20
74.922105
 11
-42.10894
 21
74.922105
  0
POINT
  8
寸法
 62
     0
 10
-42.10894
 20
74.922105
  0
TEXT
  7
TextStyle03
  8
寸法
  6
CONTINUOUS
 62
     0
 10
-57.9125
 20
75.275
  1
800
 40
3.0
 72
     5
 11
-53.0375
 21
75.275
  0
ENDBLK
  0
BLOCK
  2
*DIM_0009
 70
    65
 10
0.0
 20
0.0
  0
LINE
  8
寸法
  6
BYBLOCK
 62
     0
 10
-15.442275
 20
45.814033
 11
-15.442275
 21
74.922105
  0
LINE
  8
寸法
  6
BYBLOCK
 62
     0
 10
-42.10894
 20
74.922105
 11
-15.442275
 21
74.922105
  0
POINT
  8
寸法
 62
     0
 10
-15.442275
 20
74.922105
  0
TEXT
  7
TextStyle03
  8
寸法
  6
CONTINUOUS
 62
     0
 10
-31.2375
 20
75.275
  1
800
 40
3.0
 72
     5
 11
-26.3625
 21
75.275
  0
ENDBLK
  0
BLOCK
  2
*DIM_0010
 70
    65
 10
0.0
 20
0.0
  0
LINE
  8
寸法
  6
BYBLOCK
 62
     0
 10
11.224393
 20
45.814033
 11
11.224393
 21
74.922105
  0
LINE
  8
寸法
  6
BYBLOCK
 62
     0
 10
-15.442275
 20
74.922105
 11
11.224393
 21
74.922105
  0
POINT
  8
寸法
 62
     0
 10
11.224393
 20
74.922105
  0
TEXT
  7
TextStyle03
  8
寸法
  6
CONTINUOUS
 62
     0
 10
-4.5875
 20
75.275
  1
800
 40
3.0
 72
     5
 11
0.2875
 21
75.275
  0
ENDBLK
  0
BLOCK
  2
*DIM_0011
 70
    65
 10
0.0
 20
0.0
  0
LINE
  8
寸法
  6
BYBLOCK
 62
     0
 10
37.89106
 20
45.814033
 11
37.89106
 21
74.922105
  0
LINE
  8
寸法
  6
BYBLOCK
 62
     0
 10
11.224393
 20
74.922105
 11
37.89106
 21
74.922105
  0
POINT
  8
寸法
 62
     0
 10
37.89106
 20
74.922105
  0
TEXT
  7
TextStyle03
  8
寸法
  6
CONTINUOUS
 62
     0
 10
22.0875
 20
75.275
  1
800
 40
3.0
 72
     5
 11
26.9625
 21
75.275
  0
ENDBLK
  0
BLOCK
  2
*GRP_0012
 70
    65
 10
0.0
 20
0.0
  0
LINE
  8
別途部材
  6
DOT
 62
    47
 10
127.907775
 20
20.980845
 11
127.974443
 21
20.980845
  0
ARC
  8
別途部材
  6
DOT
 62
    47
 10
127.907776
 20
21.080846
 40
0.1
 50
180.0
 51
270.0
  0
LINE
  8
別途部材
  6
DOT
 62
    47
 10
127.974443
 20
21.137368
 11
129.474443
 21
21.137368
  0
LINE
  8
別途部材
  6
DOT
 62
    47
 10
131.79111
 20
20.050848
 11
131.79111
 21
32.814033
  0
LINE
  8
別途部材
  6
DOT
 62
    47
 10
130.624445
 20
20.050848
 11
130.624445
 21
32.814033
  0
LINE
  8
別途部材
  6
DOT
 62
    47
 10
129.474443
 20
21.137368
 11
129.474443
 21
32.814033
  0
LINE
  8
別途部材
  6
DOT
 62
    47
 10
127.974443
 20
20.980845
 11
127.974443
 21
32.814033
  0
LINE
  8
別途部材
  6
DOT
 62
    47
 10
127.807775
 20
21.080845
 11
127.807775
 21
32.814033
  0
LINE
  8
別途部材
  6
DOT
 62
    47
 10
127.907775
 20
44.647222
 11
127.974443
 21
44.647222
  0
ARC
  8
別途部材
  6
DOT
 62
    47
 10
127.907776
 20
44.547222
 40
0.1
 50
90.0
 51
180.0
  0
LINE
  8
別途部材
  6
DOT
 62
    47
 10
127.974443
 20
44.4907
 11
129.474443
 21
44.4907
  0
LINE
  8
別途部材
  6
DOT
 62
    47
 10
131.79111
 20
45.57722
 11
131.79111
 21
32.814033
  0
LINE
  8
別途部材
  6
DOT
 62
    47
 10
130.624445
 20
45.57722
 11
130.624445
 21
32.814033
  0
LINE
  8
別途部材
  6
DOT
 62
    47
 10
129.474443
 20
44.4907
 11
129.474443
 21
32.814033
  0
LINE
  8
別途部材
  6
DOT
 62
    47
 10
127.974443
 20
44.647222
 11
127.974443
 21
32.814033
  0
LINE
  8
別途部材
  6
DOT
 62
    47
 10
127.807775
 20
44.547222
 11
127.807775
 21
32.814033
  0
LINE
  8
鉄骨等
  6
DOT
 62
    47
 10
131.79111
 20
20.050848
 11
130.624445
 21
20.050848
  0
LINE
  8
鉄骨等
  6
DOT
 62
    47
 10
130.624445
 20
20.050848
 11
129.474445
 21
21.454032
  0
LINE
  8
鉄骨等
  6
DOT
 62
    47
 10
131.79111
 20
45.57722
 11
130.624445
 21
45.57722
  0
LINE
  8
鉄骨等
  6
DOT
 62
    47
 10
130.624445
 20
45.57722
 11
129.474445
 21
44.174033
  0
ENDBLK
  0
BLOCK
  2
*DIM_0013
 70
    65
 10
0.0
 20
0.0
  0
LINE
  8
寸法
  6
BYBLOCK
 62
     0
 10
80.244043
 20
22.814035
 11
80.244043
 21
42.814035
  0
POINT
  8
寸法
 62
     0
 10
80.244043
 20
22.814035
  0
POINT
  8
寸法
 62
     0
 10
80.244043
 20
42.814035
  0
TEXT
  7
TextStyle03
  8
寸法
  6
CONTINUOUS
 62
     0
 10
79.875
 20
21.925
  1
呼称寸法　600
 40
3.0
 50
90.0
 72
     5
 11
79.875
 21
43.675
  0
ENDBLK
  0
BLOCK
  2
*DIM_0014
 70
    65
 10
0.0
 20
0.0
  0
LINE
  8
寸法
  6
CONTINUOUS
 10
80.244043
 20
45.57722
 11
80.244043
 21
42.814035
  0
POINT
  8
寸法
 10
80.244043
 20
45.57722
  0
POINT
  8
寸法
 10
80.244043
 20
42.814035
  0
TEXT
  7
TextStyle03
  8
寸法
  6
CONTINUOUS
 10
81.65
 20
46.64375
  1
82.9
 40
3.0
 50
90.0
 72
     5
 11
81.65
 21
53.20625
  0
ENDBLK
  0
BLOCK
  2
*DIM_0015
 70
    65
 10
0.0
 20
0.0
  0
LINE
  8
寸法
  6
CONTINUOUS
 10
80.244043
 20
22.814035
 11
80.244043
 21
20.050848
  0
POINT
  8
寸法
 10
80.244043
 20
22.814035
  0
POINT
  8
寸法
 10
80.244043
 20
20.050848
  0
TEXT
  7
TextStyle03
  8
寸法
  6
CONTINUOUS
 10
81.65
 20
12.41875
  1
82.9
 40
3.0
 50
90.0
 72
     5
 11
81.65
 21
18.98125
  0
ENDBLK
  0
BLOCK
  2
*DIM_0016
 70
    65
 10
0.0
 20
0.0
  0
LINE
  8
寸法
  6
CONTINUOUS
 10
-103.775612
 20
-12.609317
 11
-106.538945
 21
-12.609317
  0
POINT
  8
寸法
 10
-103.775612
 20
-12.609317
  0
POINT
  8
寸法
 10
-106.538945
 20
-12.609317
  0
TEXT
  7
TextStyle03
  8
寸法
  6
CONTINUOUS
 10
-111.13125
 20
-11.7
  1
82.9
 40
3.0
 72
     5
 11
-104.56875
 21
-11.7
  0
ENDBLK
  0
BLOCK
  2
*DIM_0017
 70
    65
 10
0.0
 20
0.0
  0
LINE
  8
寸法
  6
CONTINUOUS
 10
48.987728
 20
-12.609317
 11
46.224393
 21
-12.609317
  0
POINT
  8
寸法
 10
48.987728
 20
-12.609317
  0
POINT
  8
寸法
 10
46.224393
 20
-12.609317
  0
TEXT
  7
TextStyle03
  8
寸法
  6
CONTINUOUS
 10
47.24375
 20
-11.75
  1
82.9
 40
3.0
 72
     5
 11
53.80625
 21
-11.75
  0
ENDBLK
  0
BLOCK
  2
*DIM_0018
 70
    65
 10
0.0
 20
0.0
  0
LINE
  8
寸法
  6
CONTINUOUS
 10
-103.775612
 20
-12.609317
 11
46.224388
 21
-12.609317
  0
POINT
  8
寸法
 10
-103.775612
 20
-12.609317
  0
POINT
  8
寸法
 10
46.224388
 20
-12.609317
  0
TEXT
  7
TextStyle03
  8
寸法
  6
CONTINUOUS
 10
-40.51875
 20
-12.25
  1
呼称寸法　4500
 40
3.0
 72
     5
 11
-17.08125
 21
-12.25
  0
ENDBLK
  0
BLOCK
  2
*GRP_0019
 70
    65
 10
0.0
 20
0.0
  0
LINE
  8
補助線
  6
BYBLOCK
 62
    64
 10
-83.701142
 20
-74.615697
 11
-83.850068
 21
-74.690523
  0
LINE
  8
補助線
  6
BYBLOCK
 62
    64
 10
-83.813018
 20
-74.578645
 11
-83.738192
 21
-74.727573
  0
LINE
  8
補助線
  6
BYBLOCK
 62
    64
 10
-73.782662
 20
-69.63234
 11
-73.93159
 21
-69.707165
  0
LINE
  8
補助線
  6
BYBLOCK
 62
    64
 10
-73.89454
 20
-69.595287
 11
-73.819715
 21
-69.744215
  0
LINE
  8
補助線
  6
BYBLOCK
 62
    64
 10
-64.013112
 20
-64.723808
 11
-63.864185
 21
-64.648982
  0
LINE
  8
補助線
  6
BYBLOCK
 62
    64
 10
-63.976062
 20
-64.61193
 11
-63.901238
 21
-64.760858
  0
LINE
  8
型材断面
  6
CONTINUOUS
 10
-84.447583
 20
-74.058133
 11
-84.669885
 21
-74.729385
  0
LINE
  8
型材断面
  6
CONTINUOUS
 10
-84.669885
 20
-74.729385
 11
-84.370582
 21
-75.32509
  0
LINE
  8
型材断面
  6
CONTINUOUS
 10
-84.370582
 20
-75.32509
 11
-83.69933
 21
-75.547393
  0
LINE
  8
型材断面
  6
CONTINUOUS
 10
-64.014925
 20
-63.792115
 11
-63.34367
 21
-64.014418
  0
LINE
  8
型材断面
  6
CONTINUOUS
 10
-63.34367
 20
-64.014418
 11
-63.044368
 21
-64.610123
  0
LINE
  8
型材断面
  6
CONTINUOUS
 10
-63.044368
 20
-64.610123
 11
-63.266673
 21
-65.281375
  0
LINE
  8
型材断面
  6
CONTINUOUS
 10
-84.447583
 20
-74.058133
 11
-64.014925
 21
-63.792115
  0
LINE
  8
型材断面
  6
CONTINUOUS
 10
-83.69933
 20
-75.547393
 11
-63.266673
 21
-65.281375
  0
CIRCLE
  8
ボルト／ビス
  6
CONTINUOUS
 10
-83.775605
 20
-74.65311
 40
0.250185
  0
CIRCLE
  8
ボルト／ビス
  6
CONTINUOUS
 10
-83.775605
 20
-74.65311
 40
0.301025
  0
LINE
  8
ボルト／ビス
  6
CONTINUOUS
 62
    64
 10
-84.02537
 20
-74.638608
 11
-83.887925
 21
-74.429558
  0
LINE
  8
ボルト／ビス
  6
CONTINUOUS
 62
    64
 10
-83.63816
 20
-74.44406
 11
-83.887925
 21
-74.429558
  0
LINE
  8
ボルト／ビス
  6
CONTINUOUS
 62
    64
 10
-83.91305
 20
-74.86216
 11
-83.663285
 21
-74.876663
  0
LINE
  8
ボルト／ビス
  6
CONTINUOUS
 62
    64
 10
-83.52584
 20
-74.667612
 11
-83.663285
 21
-74.876663
  0
LINE
  8
ボルト／ビス
  6
CONTINUOUS
 62
    64
 10
-84.02537
 20
-74.638608
 11
-83.91305
 21
-74.86216
  0
LINE
  8
ボルト／ビス
  6
CONTINUOUS
 62
    64
 10
-83.63816
 20
-74.44406
 11
-83.52584
 21
-74.667612
  0
CIRCLE
  8
ボルト／ビス
  6
CONTINUOUS
 62
    64
 10
-83.775605
 20
-74.65311
 40
0.216668
  0
CIRCLE
  8
ボルト／ビス
  6
CONTINUOUS
 10
-73.857128
 20
-69.669752
 40
0.250185
  0
CIRCLE
  8
ボルト／ビス
  6
CONTINUOUS
 10
-73.857128
 20
-69.669752
 40
0.301025
  0
LINE
  8
ボルト／ビス
  6
CONTINUOUS
 62
    64
 10
-74.106892
 20
-69.655248
 11
-73.969448
 21
-69.446198
  0
LINE
  8
ボルト／ビス
  6
CONTINUOUS
 62
    64
 10
-73.719683
 20
-69.4607
 11
-73.969448
 21
-69.446198
  0
LINE
  8
ボルト／ビス
  6
CONTINUOUS
 62
    64
 10
-73.994572
 20
-69.878802
 11
-73.744805
 21
-69.893307
  0
LINE
  8
ボルト／ビス
  6
CONTINUOUS
 62
    64
 10
-73.607362
 20
-69.684257
 11
-73.744805
 21
-69.893307
  0
LINE
  8
ボルト／ビス
  6
CONTINUOUS
 62
    64
 10
-74.106892
 20
-69.655248
 11
-73.994572
 21
-69.878802
  0
LINE
  8
ボルト／ビス
  6
CONTINUOUS
 62
    64
 10
-73.719683
 20
-69.4607
 11
-73.607362
 21
-69.684257
  0
CIRCLE
  8
ボルト／ビス
  6
CONTINUOUS
 62
    64
 10
-73.857128
 20
-69.669752
 40
0.216668
  0
CIRCLE
  8
ボルト／ビス
  6
CONTINUOUS
 10
-63.93865
 20
-64.686395
 40
0.250185
  0
CIRCLE
  8
ボルト／ビス
  6
CONTINUOUS
 10
-63.93865
 20
-64.686395
 40
0.301025
  0
LINE
  8
ボルト／ビス
  6
CONTINUOUS
 62
    64
 10
-63.801205
 20
-64.477345
 11
-64.05097
 21
-64.462842
  0
LINE
  8
ボルト／ビス
  6
CONTINUOUS
 62
    64
 10
-64.188415
 20
-64.671893
 11
-64.05097
 21
-64.462842
  0
LINE
  8
ボルト／ビス
  6
CONTINUOUS
 62
    64
 10
-63.688885
 20
-64.7009
 11
-63.826328
 21
-64.909948
  0
LINE
  8
ボルト／ビス
  6
CONTINUOUS
 62
    64
 10
-64.076095
 20
-64.895445
 11
-63.826328
 21
-64.909948
  0
LINE
  8
ボルト／ビス
  6
CONTINUOUS
 62
    64
 10
-63.801205
 20
-64.477345
 11
-63.688885
 21
-64.7009
  0
LINE
  8
ボルト／ビス
  6
CONTINUOUS
 62
    64
 10
-64.188415
 20
-64.671893
 11
-64.076095
 21
-64.895445
  0
CIRCLE
  8
ボルト／ビス
  6
CONTINUOUS
 62
    64
 10
-63.93865
 20
-64.686395
 40
0.216668
  0
ENDBLK
  0
BLOCK
  2
*GRP_0020
 70
    65
 10
0.0
 20
0.0
  0
LINE
  8
補助線
  6
BYBLOCK
 62
    64
 10
-64.013112
 20
-74.615697
 11
-63.864188
 21
-74.690523
  0
LINE
  8
補助線
  6
BYBLOCK
 62
    64
 10
-63.901238
 20
-74.578645
 11
-63.976062
 21
-74.727573
  0
LINE
  8
補助線
  6
BYBLOCK
 62
    64
 10
-73.931592
 20
-69.63234
 11
-73.782665
 21
-69.707165
  0
LINE
  8
補助線
  6
BYBLOCK
 62
    64
 10
-73.819715
 20
-69.595287
 11
-73.89454
 21
-69.744215
  0
LINE
  8
補助線
  6
BYBLOCK
 62
    64
 10
-83.701142
 20
-64.723808
 11
-83.85007
 21
-64.648982
  0
LINE
  8
補助線
  6
BYBLOCK
 62
    64
 10
-83.738192
 20
-64.61193
 11
-83.813018
 21
-64.760858
  0
LINE
  8
型材断面
  6
CONTINUOUS
 10
-63.266673
 20
-74.058133
 11
-63.04437
 21
-74.729385
  0
LINE
  8
型材断面
  6
CONTINUOUS
 10
-63.04437
 20
-74.729385
 11
-63.343672
 21
-75.32509
  0
LINE
  8
型材断面
  6
CONTINUOUS
 10
-63.343672
 20
-75.32509
 11
-64.014925
 21
-75.547393
  0
LINE
  8
型材断面
  6
CONTINUOUS
 10
-83.69933
 20
-63.792115
 11
-84.370585
 21
-64.014418
  0
LINE
  8
型材断面
  6
CONTINUOUS
 10
-84.370585
 20
-64.014418
 11
-84.669888
 21
-64.610123
  0
LINE
  8
型材断面
  6
CONTINUOUS
 10
-84.669888
 20
-64.610123
 11
-84.447583
 21
-65.281375
  0
LINE
  8
型材断面
  6
CONTINUOUS
 10
-63.266673
 20
-74.058133
 11
-83.69933
 21
-63.792115
  0
LINE
  8
型材断面
  6
CONTINUOUS
 10
-64.014925
 20
-75.547393
 11
-84.447583
 21
-65.281375
  0
CIRCLE
  8
ボルト／ビス
  6
CONTINUOUS
 10
-63.93865
 20
-74.65311
 40
0.250185
  0
CIRCLE
  8
ボルト／ビス
  6
CONTINUOUS
 10
-63.93865
 20
-74.65311
 40
0.301025
  0
LINE
  8
ボルト／ビス
  6
CONTINUOUS
 62
    64
 10
-63.688885
 20
-74.638608
 11
-63.82633
 21
-74.429558
  0
LINE
  8
ボルト／ビス
  6
CONTINUOUS
 62
    64
 10
-64.076095
 20
-74.44406
 11
-63.82633
 21
-74.429558
  0
LINE
  8
ボルト／ビス
  6
CONTINUOUS
 62
    64
 10
-63.801205
 20
-74.86216
 11
-64.05097
 21
-74.876663
  0
LINE
  8
ボルト／ビス
  6
CONTINUOUS
 62
    64
 10
-64.188415
 20
-74.667612
 11
-64.05097
 21
-74.876663
  0
LINE
  8
ボルト／ビス
  6
CONTINUOUS
 62
    64
 10
-63.688885
 20
-74.638608
 11
-63.801205
 21
-74.86216
  0
LINE
  8
ボルト／ビス
  6
CONTINUOUS
 62
    64
 10
-64.076095
 20
-74.44406
 11
-64.188415
 21
-74.667612
  0
CIRCLE
  8
ボルト／ビス
  6
CONTINUOUS
 62
    64
 10
-63.93865
 20
-74.65311
 40
0.216668
  0
CIRCLE
  8
ボルト／ビス
  6
CONTINUOUS
 10
-73.857128
 20
-69.669752
 40
0.250185
  0
CIRCLE
  8
ボルト／ビス
  6
CONTINUOUS
 10
-73.857128
 20
-69.669752
 40
0.301025
  0
LINE
  8
ボルト／ビス
  6
CONTINUOUS
 62
    64
 10
-73.607362
 20
-69.655248
 11
-73.744808
 21
-69.446198
  0
LINE
  8
ボルト／ビス
  6
CONTINUOUS
 62
    64
 10
-73.994572
 20
-69.4607
 11
-73.744808
 21
-69.446198
  0
LINE
  8
ボルト／ビス
  6
CONTINUOUS
 62
    64
 10
-73.719683
 20
-69.878802
 11
-73.96945
 21
-69.893307
  0
LINE
  8
ボルト／ビス
  6
CONTINUOUS
 62
    64
 10
-74.106892
 20
-69.684257
 11
-73.96945
 21
-69.893307
  0
LINE
  8
ボルト／ビス
  6
CONTINUOUS
 62
    64
 10
-73.607362
 20
-69.655248
 11
-73.719683
 21
-69.878802
  0
LINE
  8
ボルト／ビス
  6
CONTINUOUS
 62
    64
 10
-73.994572
 20
-69.4607
 11
-74.106892
 21
-69.684257
  0
CIRCLE
  8
ボルト／ビス
  6
CONTINUOUS
 62
    64
 10
-73.857128
 20
-69.669752
 40
0.216668
  0
CIRCLE
  8
ボルト／ビス
  6
CONTINUOUS
 10
-83.775605
 20
-64.686395
 40
0.250185
  0
CIRCLE
  8
ボルト／ビス
  6
CONTINUOUS
 10
-83.775605
 20
-64.686395
 40
0.301025
  0
LINE
  8
ボルト／ビス
  6
CONTINUOUS
 62
    64
 10
-83.91305
 20
-64.477345
 11
-83.663285
 21
-64.462842
  0
LINE
  8
ボルト／ビス
  6
CONTINUOUS
 62
    64
 10
-83.52584
 20
-64.671893
 11
-83.663285
 21
-64.462842
  0
LINE
  8
ボルト／ビス
  6
CONTINUOUS
 62
    64
 10
-84.02537
 20
-64.7009
 11
-83.887928
 21
-64.909948
  0
LINE
  8
ボルト／ビス
  6
CONTINUOUS
 62
    64
 10
-83.63816
 20
-64.895445
 11
-83.887928
 21
-64.909948
  0
LINE
  8
ボルト／ビス
  6
CONTINUOUS
 62
    64
 10
-83.91305
 20
-64.477345
 11
-84.02537
 21
-64.7009
  0
LINE
  8
ボルト／ビス
  6
CONTINUOUS
 62
    64
 10
-83.52584
 20
-64.671893
 11
-83.63816
 21
-64.895445
  0
CIRCLE
  8
ボルト／ビス
  6
CONTINUOUS
 62
    64
 10
-83.775605
 20
-64.686395
 40
0.216668
  0
ENDBLK
  0
BLOCK
  2
*GRP_0021
 70
    65
 10
0.0
 20
0.0
  0
LINE
  8
補助線
  6
BYBLOCK
 62
    64
 10
26.149933
 20
-74.615697
 11
26.298857
 21
-74.690523
  0
LINE
  8
補助線
  6
BYBLOCK
 62
    64
 10
26.261808
 20
-74.578645
 11
26.186982
 21
-74.727573
  0
LINE
  8
補助線
  6
BYBLOCK
 62
    64
 10
16.231452
 20
-69.63234
 11
16.38038
 21
-69.707165
  0
LINE
  8
補助線
  6
BYBLOCK
 62
    64
 10
16.34333
 20
-69.595287
 11
16.268505
 21
-69.744215
  0
LINE
  8
補助線
  6
BYBLOCK
 62
    64
 10
6.461902
 20
-64.723808
 11
6.312975
 21
-64.648982
  0
LINE
  8
補助線
  6
BYBLOCK
 62
    64
 10
6.424853
 20
-64.61193
 11
6.350028
 21
-64.760858
  0
LINE
  8
型材断面
  6
CONTINUOUS
 10
26.896372
 20
-74.058133
 11
27.118675
 21
-74.729385
  0
LINE
  8
型材断面
  6
CONTINUOUS
 10
27.118675
 20
-74.729385
 11
26.819372
 21
-75.32509
  0
LINE
  8
型材断面
  6
CONTINUOUS
 10
26.819372
 20
-75.32509
 11
26.14812
 21
-75.547393
  0
LINE
  8
型材断面
  6
CONTINUOUS
 10
6.463715
 20
-63.792115
 11
5.79246
 21
-64.014418
  0
LINE
  8
型材断面
  6
CONTINUOUS
 10
5.79246
 20
-64.014418
 11
5.493158
 21
-64.610123
  0
LINE
  8
型材断面
  6
CONTINUOUS
 10
5.493158
 20
-64.610123
 11
5.715462
 21
-65.281375
  0
LINE
  8
型材断面
  6
CONTINUOUS
 10
26.896372
 20
-74.058133
 11
6.463715
 21
-63.792115
  0
LINE
  8
型材断面
  6
CONTINUOUS
 10
26.14812
 20
-75.547393
 11
5.715462
 21
-65.281375
  0
CIRCLE
  8
ボルト／ビス
  6
CONTINUOUS
 10
26.224395
 20
-74.65311
 40
0.250185
  0
CIRCLE
  8
ボルト／ビス
  6
CONTINUOUS
 10
26.224395
 20
-74.65311
 40
0.301025
  0
LINE
  8
ボルト／ビス
  6
CONTINUOUS
 62
    64
 10
26.47416
 20
-74.638608
 11
26.336715
 21
-74.429558
  0
LINE
  8
ボルト／ビス
  6
CONTINUOUS
 62
    64
 10
26.08695
 20
-74.44406
 11
26.336715
 21
-74.429558
  0
LINE
  8
ボルト／ビス
  6
CONTINUOUS
 62
    64
 10
26.36184
 20
-74.86216
 11
26.112075
 21
-74.876663
  0
LINE
  8
ボルト／ビス
  6
CONTINUOUS
 62
    64
 10
25.97463
 20
-74.667612
 11
26.112075
 21
-74.876663
  0
LINE
  8
ボルト／ビス
  6
CONTINUOUS
 62
    64
 10
26.47416
 20
-74.638608
 11
26.36184
 21
-74.86216
  0
LINE
  8
ボルト／ビス
  6
CONTINUOUS
 62
    64
 10
26.08695
 20
-74.44406
 11
25.97463
 21
-74.667612
  0
CIRCLE
  8
ボルト／ビス
  6
CONTINUOUS
 62
    64
 10
26.224395
 20
-74.65311
 40
0.216668
  0
CIRCLE
  8
ボルト／ビス
  6
CONTINUOUS
 10
16.305918
 20
-69.669752
 40
0.250185
  0
CIRCLE
  8
ボルト／ビス
  6
CONTINUOUS
 10
16.305918
 20
-69.669752
 40
0.301025
  0
LINE
  8
ボルト／ビス
  6
CONTINUOUS
 62
    64
 10
16.555682
 20
-69.655248
 11
16.418238
 21
-69.446198
  0
LINE
  8
ボルト／ビス
  6
CONTINUOUS
 62
    64
 10
16.168472
 20
-69.4607
 11
16.418238
 21
-69.446198
  0
LINE
  8
ボルト／ビス
  6
CONTINUOUS
 62
    64
 10
16.443362
 20
-69.878802
 11
16.193595
 21
-69.893307
  0
LINE
  8
ボルト／ビス
  6
CONTINUOUS
 62
    64
 10
16.056152
 20
-69.684257
 11
16.193595
 21
-69.893307
  0
LINE
  8
ボルト／ビス
  6
CONTINUOUS
 62
    64
 10
16.555682
 20
-69.655248
 11
16.443362
 21
-69.878802
  0
LINE
  8
ボルト／ビス
  6
CONTINUOUS
 62
    64
 10
16.168472
 20
-69.4607
 11
16.056152
 21
-69.684257
  0
CIRCLE
  8
ボルト／ビス
  6
CONTINUOUS
 62
    64
 10
16.305918
 20
-69.669752
 40
0.216668
  0
CIRCLE
  8
ボルト／ビス
  6
CONTINUOUS
 10
6.38744
 20
-64.686395
 40
0.250185
  0
CIRCLE
  8
ボルト／ビス
  6
CONTINUOUS
 10
6.38744
 20
-64.686395
 40
0.301025
  0
LINE
  8
ボルト／ビス
  6
CONTINUOUS
 62
    64
 10
6.249995
 20
-64.477345
 11
6.49976
 21
-64.462842
  0
LINE
  8
ボルト／ビス
  6
CONTINUOUS
 62
    64
 10
6.637205
 20
-64.671893
 11
6.49976
 21
-64.462842
  0
LINE
  8
ボルト／ビス
  6
CONTINUOUS
 62
    64
 10
6.137675
 20
-64.7009
 11
6.275117
 21
-64.909948
  0
LINE
  8
ボルト／ビス
  6
CONTINUOUS
 62
    64
 10
6.524885
 20
-64.895445
 11
6.275117
 21
-64.909948
  0
LINE
  8
ボルト／ビス
  6
CONTINUOUS
 62
    64
 10
6.249995
 20
-64.477345
 11
6.137675
 21
-64.7009
  0
LINE
  8
ボルト／ビス
  6
CONTINUOUS
 62
    64
 10
6.637205
 20
-64.671893
 11
6.524885
 21
-64.895445
  0
CIRCLE
  8
ボルト／ビス
  6
CONTINUOUS
 62
    64
 10
6.38744
 20
-64.686395
 40
0.216668
  0
ENDBLK
  0
BLOCK
  2
*GRP_0022
 70
    65
 10
0.0
 20
0.0
  0
LINE
  8
補助線
  6
BYBLOCK
 62
    64
 10
6.461902
 20
-74.615697
 11
6.312977
 21
-74.690523
  0
LINE
  8
補助線
  6
BYBLOCK
 62
    64
 10
6.350028
 20
-74.578645
 11
6.424853
 21
-74.727573
  0
LINE
  8
補助線
  6
BYBLOCK
 62
    64
 10
16.380383
 20
-69.63234
 11
16.231455
 21
-69.707165
  0
LINE
  8
補助線
  6
BYBLOCK
 62
    64
 10
16.268505
 20
-69.595287
 11
16.34333
 21
-69.744215
  0
LINE
  8
補助線
  6
BYBLOCK
 62
    64
 10
26.149933
 20
-64.723808
 11
26.29886
 21
-64.648982
  0
LINE
  8
補助線
  6
BYBLOCK
 62
    64
 10
26.186982
 20
-64.61193
 11
26.261808
 21
-64.760858
  0
LINE
  8
型材断面
  6
CONTINUOUS
 10
5.715462
 20
-74.058133
 11
5.49316
 21
-74.729385
  0
LINE
  8
型材断面
  6
CONTINUOUS
 10
5.49316
 20
-74.729385
 11
5.792462
 21
-75.32509
  0
LINE
  8
型材断面
  6
CONTINUOUS
 10
5.792462
 20
-75.32509
 11
6.463715
 21
-75.547393
  0
LINE
  8
型材断面
  6
CONTINUOUS
 10
26.14812
 20
-63.792115
 11
26.819375
 21
-64.014418
  0
LINE
  8
型材断面
  6
CONTINUOUS
 10
26.819375
 20
-64.014418
 11
27.118678
 21
-64.610123
  0
LINE
  8
型材断面
  6
CONTINUOUS
 10
27.118678
 20
-64.610123
 11
26.896372
 21
-65.281375
  0
LINE
  8
型材断面
  6
CONTINUOUS
 10
5.715462
 20
-74.058133
 11
26.14812
 21
-63.792115
  0
LINE
  8
型材断面
  6
CONTINUOUS
 10
6.463715
 20
-75.547393
 11
26.896372
 21
-65.281375
  0
CIRCLE
  8
ボルト／ビス
  6
CONTINUOUS
 10
6.38744
 20
-74.65311
 40
0.250185
  0
CIRCLE
  8
ボルト／ビス
  6
CONTINUOUS
 10
6.38744
 20
-74.65311
 40
0.301025
  0
LINE
  8
ボルト／ビス
  6
CONTINUOUS
 62
    64
 10
6.137675
 20
-74.638608
 11
6.27512
 21
-74.429558
  0
LINE
  8
ボルト／ビス
  6
CONTINUOUS
 62
    64
 10
6.524885
 20
-74.44406
 11
6.27512
 21
-74.429558
  0
LINE
  8
ボルト／ビス
  6
CONTINUOUS
 62
    64
 10
6.249995
 20
-74.86216
 11
6.49976
 21
-74.876663
  0
LINE
  8
ボルト／ビス
  6
CONTINUOUS
 62
    64
 10
6.637205
 20
-74.667612
 11
6.49976
 21
-74.876663
  0
LINE
  8
ボルト／ビス
  6
CONTINUOUS
 62
    64
 10
6.137675
 20
-74.638608
 11
6.249995
 21
-74.86216
  0
LINE
  8
ボルト／ビス
  6
CONTINUOUS
 62
    64
 10
6.524885
 20
-74.44406
 11
6.637205
 21
-74.667612
  0
CIRCLE
  8
ボルト／ビス
  6
CONTINUOUS
 62
    64
 10
6.38744
 20
-74.65311
 40
0.216668
  0
CIRCLE
  8
ボルト／ビス
  6
CONTINUOUS
 10
16.305918
 20
-69.669752
 40
0.250185
  0
CIRCLE
  8
ボルト／ビス
  6
CONTINUOUS
 10
16.305918
 20
-69.669752
 40
0.301025
  0
LINE
  8
ボルト／ビス
  6
CONTINUOUS
 62
    64
 10
16.056152
 20
-69.655248
 11
16.193598
 21
-69.446198
  0
LINE
  8
ボルト／ビス
  6
CONTINUOUS
 62
    64
 10
16.443362
 20
-69.4607
 11
16.193598
 21
-69.446198
  0
LINE
  8
ボルト／ビス
  6
CONTINUOUS
 62
    64
 10
16.168472
 20
-69.878802
 11
16.41824
 21
-69.893307
  0
LINE
  8
ボルト／ビス
  6
CONTINUOUS
 62
    64
 10
16.555682
 20
-69.684257
 11
16.41824
 21
-69.893307
  0
LINE
  8
ボルト／ビス
  6
CONTINUOUS
 62
    64
 10
16.056152
 20
-69.655248
 11
16.168472
 21
-69.878802
  0
LINE
  8
ボルト／ビス
  6
CONTINUOUS
 62
    64
 10
16.443362
 20
-69.4607
 11
16.555682
 21
-69.684257
  0
CIRCLE
  8
ボルト／ビス
  6
CONTINUOUS
 62
    64
 10
16.305918
 20
-69.669752
 40
0.216668
  0
CIRCLE
  8
ボルト／ビス
  6
CONTINUOUS
 10
26.224395
 20
-64.686395
 40
0.250185
  0
CIRCLE
  8
ボルト／ビス
  6
CONTINUOUS
 10
26.224395
 20
-64.686395
 40
0.301025
  0
LINE
  8
ボルト／ビス
  6
CONTINUOUS
 62
    64
 10
26.36184
 20
-64.477345
 11
26.112075
 21
-64.462842
  0
LINE
  8
ボルト／ビス
  6
CONTINUOUS
 62
    64
 10
25.97463
 20
-64.671893
 11
26.112075
 21
-64.462842
  0
LINE
  8
ボルト／ビス
  6
CONTINUOUS
 62
    64
 10
26.47416
 20
-64.7009
 11
26.336717
 21
-64.909948
  0
LINE
  8
ボルト／ビス
  6
CONTINUOUS
 62
    64
 10
26.08695
 20
-64.895445
 11
26.336717
 21
-64.909948
  0
LINE
  8
ボルト／ビス
  6
CONTINUOUS
 62
    64
 10
26.36184
 20
-64.477345
 11
26.47416
 21
-64.7009
  0
LINE
  8
ボルト／ビス
  6
CONTINUOUS
 62
    64
 10
25.97463
 20
-64.671893
 11
26.08695
 21
-64.895445
  0
CIRCLE
  8
ボルト／ビス
  6
CONTINUOUS
 62
    64
 10
26.224395
 20
-64.686395
 40
0.216668
  0
ENDBLK
  0
BLOCK
  2
*DIM_0023
 70
    65
 10
0.0
 20
0.0
  0
LINE
  8
寸法
  6
CONTINUOUS
 10
141.310947
 20
-55.288705
 11
104.710947
 21
-55.288705
  0
POINT
  8
寸法
 10
141.310947
 20
-55.288705
  0
POINT
  8
寸法
 10
104.710947
 20
-55.288705
  0
TEXT
  7
TextStyle03
  8
寸法
  6
CONTINUOUS
 10
119.71875
 20
-54.925
  1
1098
 40
3.0
 72
     5
 11
126.28125
 21
-54.925
  0
ENDBLK
  0
BLOCK
  2
*DIM_0024
 70
    65
 10
0.0
 20
0.0
  0
LINE
  8
寸法
  6
BYBLOCK
 62
     0
 10
65.401215
 20
-69.076395
 11
65.401215
 21
-61.743062
  0
POINT
  8
寸法
 62
     0
 10
65.401215
 20
-61.743062
  0
TEXT
  7
TextStyle03
  8
寸法
  6
CONTINUOUS
 62
     0
 10
65.075
 20
-59.86875
  1
上昇203以上
 40
3.0
 50
90.0
 72
     5
 11
65.075
 21
-41.68125
  0
ENDBLK
  0
BLOCK
  2
*DIM_0025
 70
    65
 10
0.0
 20
0.0
  0
LINE
  8
寸法
  6
BYBLOCK
 62
     0
 10
135.141108
 20
51.815152
 11
127.807775
 21
51.815152
  0
POINT
  8
寸法
 62
     0
 10
127.807775
 20
51.815152
  0
TEXT
  7
TextStyle03
  8
寸法
  6
CONTINUOUS
 62
     0
 10
105.88125
 20
49.875
  1
上昇203以上
 40
3.0
 72
     5
 11
124.06875
 21
49.875
  0
ENDBLK
  0
BLOCK
  2
*DIM_0026
 70
    65
 10
0.0
 20
0.0
  0
LINE
  8
寸法
  6
CONTINUOUS
 10
146.310947
 20
-63.785395
 11
151.461212
 21
-63.785395
  0
LINE
  8
寸法
  6
CONTINUOUS
 10
146.310947
 20
-83.785395
 11
151.461212
 21
-83.785395
  0
LINE
  8
寸法
  6
CONTINUOUS
 10
151.461212
 20
-63.785395
 11
151.461212
 21
-83.785395
  0
POINT
  8
寸法
 10
151.461212
 20
-63.785395
  0
POINT
  8
寸法
 10
151.461212
 20
-83.785395
  0
TEXT
  7
TextStyle03
  8
寸法
  6
CONTINUOUS
 10
151.075
 20
-76.2375
  1
600
 40
3.0
 50
90.0
 72
     5
 11
151.075
 21
-71.3625
  0
ENDBLK
  0
BLOCK
  2
*DIM_0027
 70
    65
 10
0.0
 20
0.0
  0
LINE
  8
寸法
  6
CONTINUOUS
 10
52.899905
 20
-69.076395
 11
65.401215
 21
-69.076395
  0
LINE
  8
寸法
  6
CONTINUOUS
 10
53.98773
 20
-77.192947
 11
65.401215
 21
-77.192947
  0
LINE
  8
寸法
  6
CONTINUOUS
 10
65.401215
 20
-69.076395
 11
65.401215
 21
-77.192947
  0
POINT
  8
寸法
 10
65.401215
 20
-69.076395
  0
POINT
  8
寸法
 10
65.401215
 20
-77.192947
  0
TEXT
  7
TextStyle03
  8
寸法
  6
CONTINUOUS
 10
68.425
 20
-77.275
  1
243.5
 40
3.0
 50
90.0
 72
     5
 11
68.425
 21
-69.025
  0
ENDBLK
  0
BLOCK
  2
*DIM_0028
 70
    65
 10
0.0
 20
0.0
  0
LINE
  8
寸法
  6
CONTINUOUS
 10
135.141108
 20
49.457957
 11
135.141108
 21
51.815152
  0
LINE
  8
寸法
  6
CONTINUOUS
 10
143.25766
 20
48.403357
 11
143.25766
 21
51.815152
  0
LINE
  8
寸法
  6
CONTINUOUS
 10
135.141108
 20
51.815152
 11
143.25766
 21
51.815152
  0
POINT
  8
寸法
 10
135.141108
 20
51.815152
  0
POINT
  8
寸法
 10
143.25766
 20
51.815152
  0
TEXT
  7
TextStyle03
  8
寸法
  6
CONTINUOUS
 10
135.1
 20
52.175
  1
243.5
 40
3.0
 72
     5
 11
143.35
 21
52.175
  0
ENDBLK
  0
ENDSEC
  0
SECTION
  2
ENTITIES
  0
POLYLINE
  8
通り芯
  6
CONTINUOUS
 66
     1
 70
     1
  0
VERTEX
  8
通り芯
 10
-210.0
 20
-148.5
  0
VERTEX
  8
通り芯
 10
210.0
 20
-148.5
  0
VERTEX
  8
通り芯
 10
210.0
 20
148.5
  0
VERTEX
  8
通り芯
 10
-210.0
 20
148.5
  0
SEQEND
  0
INSERT
  2
*GRP_0001
  8
型材断面
  6
CONTINUOUS
 10
0.0
 20
0.0
  0
LINE
  8
型材断面
  6
DASHDOT
 10
46.224393
 20
-77.836442
 11
46.224393
 21
42.814033
  0
LINE
  8
型材断面
  6
DASHDOT
 10
-28.775608
 20
-77.836442
 11
-28.775608
 21
42.814033
  0
LINE
  8
型材断面
  6
DASHDOT
 10
-103.775608
 20
-77.836442
 11
-103.775608
 21
42.814033
  0
POLYLINE
  8
型材断面
  6
CONTINUOUS
 66
     1
 70
     1
  0
VERTEX
  8
型材断面
 10
-19.388875
 20
13.03811
  0
VERTEX
  8
型材断面
 10
-38.160805
 20
13.03811
  0
VERTEX
  8
型材断面
 10
-38.160805
 20
8.301267
  0
VERTEX
  8
型材断面
 10
-19.388875
 20
8.301267
  0
SEQEND
  0
POLYLINE
  8
型材断面
  6
CONTINUOUS
 66
     1
 70
     1
  0
VERTEX
  8
型材断面
 10
-19.388875
 20
52.589955
  0
VERTEX
  8
型材断面
 10
-38.160805
 20
52.589955
  0
VERTEX
  8
型材断面
 10
-38.160805
 20
57.326798
  0
VERTEX
  8
型材断面
 10
-19.388875
 20
57.326798
  0
SEQEND
  0
LINE
  8
型材断面
  6
DASHDOT
 10
143.901155
 20
42.814033
 11
-103.775608
 21
42.814033
  0
LINE
  8
型材断面
  6
DASHDOT
 10
143.901155
 20
22.814033
 11
-103.775608
 21
22.814033
  0
LINE
  8
型材断面
  6
DASHDOT
 10
143.901155
 20
32.814033
 11
-103.775608
 21
32.814033
  0
LINE
  8
型材断面
  6
DASHDOT
 10
-28.775608
 20
22.814033
 11
-28.775608
 21
42.814033
  0
LINE
  8
型材断面
  6
CONTINUOUS
 10
-144.627815
 20
80.791505
 11
-144.03176
 21
78.200998
  0
LINE
  8
型材断面
  6
CONTINUOUS
 10
-144.627815
 20
80.791505
 11
-145.223873
 21
78.200998
  0
LINE
  8
型材断面
  6
CONTINUOUS
 10
-145.223873
 20
78.200998
 11
-144.03176
 21
78.200998
  0
LINE
  8
型材断面
  6
CONTINUOUS
 10
-150.650403
 20
74.922105
 11
-104.408625
 21
74.922105
  0
LINE
  8
型材断面
  6
CONTINUOUS
 10
-144.627815
 20
87.32138
 11
-146.123445
 21
84.730873
  0
LINE
  8
型材断面
  6
CONTINUOUS
 10
-144.627815
 20
87.32138
 11
-143.132185
 21
84.730873
  0
LINE
  8
型材断面
  6
CONTINUOUS
 10
-143.132185
 20
84.730873
 11
-146.123445
 21
84.730873
  0
LINE
  8
型材断面
  6
CONTINUOUS
 10
-150.650403
 20
83.792277
 11
-104.408625
 21
83.792277
  0
LINE
  8
型材断面
  6
CONTINUOUS
 10
-150.650403
 20
69.134073
 11
-104.408625
 21
69.134073
  0
LINE
  8
型材断面
  6
CONTINUOUS
 10
-150.650403
 20
63.34604
 11
-104.408625
 21
63.34604
  0
INSERT
  2
*GRP_0012
  8
型材断面
  6
DASHDOT
 10
0.0
 20
0.0
  0
INSERT
  2
*GRP_0019
  8
型材断面
  6
CONTINUOUS
 10
0.0
 20
0.0
  0
INSERT
  2
*GRP_0020
  8
型材断面
  6
CONTINUOUS
 10
0.0
 20
0.0
  0
INSERT
  2
*GRP_0021
  8
型材断面
  6
CONTINUOUS
 10
0.0
 20
0.0
  0
INSERT
  2
*GRP_0022
  8
型材断面
  6
CONTINUOUS
 10
0.0
 20
0.0
  0
LINE
  8
型材断面
  6
CONTINUOUS
 10
-106.538945
 20
45.57722
 11
48.987728
 21
45.57722
  0
LINE
  8
型材断面
  6
CONTINUOUS
 10
48.987728
 20
20.050848
 11
-106.538945
 21
20.050848
  0
LINE
  8
型材断面
  6
CONTINUOUS
 10
-106.538945
 20
32.814035
 11
-109.129453
 21
34.309665
  0
LINE
  8
型材断面
  6
CONTINUOUS
 10
-106.538945
 20
32.814035
 11
-109.129453
 21
31.318405
  0
LINE
  8
型材断面
  6
CONTINUOUS
 10
-109.129453
 20
31.318405
 11
-109.129453
 21
34.309665
  0
LINE
  8
型材断面
  6
CONTINUOUS
 10
-106.538945
 20
39.114038
 11
-109.129455
 21
38.517985
  0
LINE
  8
型材断面
  6
CONTINUOUS
 10
-106.538945
 20
39.114038
 11
-109.129453
 21
39.710097
  0
LINE
  8
型材断面
  6
CONTINUOUS
 10
-109.129453
 20
39.710097
 11
-109.129455
 21
38.517985
  0
LINE
  8
型材断面
  6
CONTINUOUS
 10
-106.538945
 20
26.514033
 11
-109.129455
 21
27.110085
  0
LINE
  8
型材断面
  6
CONTINUOUS
 10
-106.538945
 20
26.514033
 11
-109.129453
 21
25.917972
  0
LINE
  8
型材断面
  6
CONTINUOUS
 10
-109.129453
 20
25.917972
 11
-109.129455
 21
27.110085
  0
LINE
  8
型材断面
  6
CONTINUOUS
 10
-87.10894
 20
45.57722
 11
-88.60457
 21
48.167727
  0
LINE
  8
型材断面
  6
CONTINUOUS
 10
-87.10894
 20
45.57722
 11
-85.61331
 21
48.167727
  0
LINE
  8
型材断面
  6
CONTINUOUS
 10
-85.61331
 20
48.167727
 11
-88.60457
 21
48.167727
  0
LINE
  8
型材断面
  6
CONTINUOUS
 10
29.557725
 20
45.57722
 11
31.053355
 21
48.167727
  0
LINE
  8
型材断面
  6
CONTINUOUS
 10
29.557725
 20
45.57722
 11
28.062095
 21
48.167727
  0
LINE
  8
型材断面
  6
CONTINUOUS
 10
28.062095
 20
48.167727
 11
31.053355
 21
48.167727
  0
LINE
  8
型材断面
  6
CONTINUOUS
 10
-28.775608
 20
45.577218
 11
-27.279978
 21
48.167725
  0
LINE
  8
型材断面
  6
CONTINUOUS
 10
-28.775608
 20
45.577218
 11
-30.271238
 21
48.167725
  0
LINE
  8
型材断面
  6
CONTINUOUS
 10
-30.271238
 20
48.167725
 11
-27.279978
 21
48.167725
  0
LINE
  8
型材断面
  6
CONTINUOUS
 10
48.987728
 20
32.814033
 11
51.578235
 21
34.309663
  0
LINE
  8
型材断面
  6
CONTINUOUS
 10
48.987728
 20
32.814033
 11
51.578235
 21
31.318403
  0
LINE
  8
型材断面
  6
CONTINUOUS
 10
51.578235
 20
31.318403
 11
51.578235
 21
34.309663
  0
LINE
  8
型材断面
  6
CONTINUOUS
 10
48.987728
 20
39.114035
 11
51.578238
 21
38.517982
  0
LINE
  8
型材断面
  6
CONTINUOUS
 10
48.987728
 20
39.114035
 11
51.578235
 21
39.710095
  0
LINE
  8
型材断面
  6
CONTINUOUS
 10
51.578235
 20
39.710095
 11
51.578238
 21
38.517982
  0
LINE
  8
型材断面
  6
CONTINUOUS
 10
48.987728
 20
26.51403
 11
51.578238
 21
27.110082
  0
LINE
  8
型材断面
  6
CONTINUOUS
 10
48.987728
 20
26.51403
 11
51.578235
 21
25.91797
  0
LINE
  8
型材断面
  6
CONTINUOUS
 10
51.578235
 20
25.91797
 11
51.578238
 21
27.110082
  0
LINE
  8
型材断面
  6
CONTINUOUS
 10
-87.10894
 20
20.050848
 11
-88.60457
 21
17.46034
  0
LINE
  8
型材断面
  6
CONTINUOUS
 10
-87.10894
 20
20.050848
 11
-85.61331
 21
17.46034
  0
LINE
  8
型材断面
  6
CONTINUOUS
 10
-85.61331
 20
17.46034
 11
-88.60457
 21
17.46034
  0
LINE
  8
型材断面
  6
CONTINUOUS
 10
29.557725
 20
20.050848
 11
31.053355
 21
17.46034
  0
LINE
  8
型材断面
  6
CONTINUOUS
 10
29.557725
 20
20.050848
 11
28.062095
 21
17.46034
  0
LINE
  8
型材断面
  6
CONTINUOUS
 10
28.062095
 20
17.46034
 11
31.053355
 21
17.46034
  0
LINE
  8
型材断面
  6
CONTINUOUS
 10
-28.775608
 20
20.050845
 11
-27.279978
 21
17.460338
  0
LINE
  8
型材断面
  6
CONTINUOUS
 10
-28.775608
 20
20.050845
 11
-30.271238
 21
17.460338
  0
LINE
  8
型材断面
  6
CONTINUOUS
 10
-30.271238
 20
17.460338
 11
-27.279978
 21
17.460338
  0
LINE
  8
型材断面
  6
DASHDOT
 10
9.014393
 20
22.814033
 11
9.014393
 21
42.814033
  0
LINE
  8
型材断面
  6
CONTINUOUS
 10
10.264393
 20
24.314035
 11
7.764393
 21
24.314038
  0
LINE
  8
型材断面
  6
CONTINUOUS
 10
10.264393
 20
41.31403
 11
7.764393
 21
41.314027
  0
LINE
  8
型材断面
  6
CONTINUOUS
 10
10.264393
 20
24.314035
 11
10.264393
 21
41.31403
  0
LINE
  8
型材断面
  6
CONTINUOUS
 10
7.764393
 20
24.314038
 11
7.764393
 21
41.314027
  0
LINE
  8
型材断面
  6
CONTINUOUS
 10
-27.525608
 20
24.314035
 11
-30.025608
 21
24.314038
  0
LINE
  8
型材断面
  6
CONTINUOUS
 10
-27.525608
 20
41.31403
 11
-30.025608
 21
41.314027
  0
LINE
  8
型材断面
  6
CONTINUOUS
 10
-27.525608
 20
24.314035
 11
-27.525608
 21
41.31403
  0
LINE
  8
型材断面
  6
CONTINUOUS
 10
-30.025608
 20
24.314038
 11
-30.025608
 21
41.314027
  0
LINE
  8
型材断面
  6
CONTINUOUS
 10
-9.46394
 20
23.480717
 11
-9.46394
 21
20.980717
  0
LINE
  8
型材断面
  6
CONTINUOUS
 10
-10.297275
 20
23.480717
 11
-10.297275
 21
20.980717
  0
LINE
  8
型材断面
  6
CONTINUOUS
 10
28.03606
 20
23.480717
 11
28.03606
 21
20.980717
  0
LINE
  8
型材断面
  6
CONTINUOUS
 10
27.202725
 20
23.480717
 11
27.202725
 21
20.980717
  0
LINE
  8
型材断面
  6
CONTINUOUS
 10
-9.46394
 20
42.147348
 11
-9.46394
 21
44.647348
  0
LINE
  8
型材断面
  6
CONTINUOUS
 10
-10.297275
 20
42.147348
 11
-10.297275
 21
44.647348
  0
LINE
  8
型材断面
  6
CONTINUOUS
 10
28.03606
 20
42.147348
 11
28.03606
 21
44.647348
  0
LINE
  8
型材断面
  6
CONTINUOUS
 10
27.202725
 20
42.147348
 11
27.202725
 21
44.647348
  0
LINE
  8
型材断面
  6
CONTINUOUS
 10
-10.297275
 20
42.147348
 11
-28.775608
 21
42.147335
  0
LINE
  8
型材断面
  6
CONTINUOUS
 10
-10.297275
 20
23.480717
 11
-28.775608
 21
23.48073
  0
LINE
  8
型材断面
  6
CONTINUOUS
 10
27.202725
 20
23.48069
 11
-9.46394
 21
23.480717
  0
LINE
  8
型材断面
  6
CONTINUOUS
 10
27.202725
 20
42.147375
 11
-9.46394
 21
42.147348
  0
LINE
  8
型材断面
  6
CONTINUOUS
 10
48.98773
 20
20.050848
 11
48.98773
 21
45.57722
  0
LINE
  8
型材断面
  6
CONTINUOUS
 10
47.82205
 20
20.98068
 11
48.05775
 21
21.21638
  0
LINE
  8
型材断面
  6
CONTINUOUS
 10
45.322048
 20
23.48068
 11
45.557748
 21
23.71638
  0
LINE
  8
型材断面
  6
CONTINUOUS
 10
45.557748
 20
23.71638
 11
48.05775
 21
21.21638
  0
LINE
  8
型材断面
  6
CONTINUOUS
 10
45.322048
 20
23.48068
 11
47.82205
 21
20.98068
  0
LINE
  8
型材断面
  6
CONTINUOUS
 10
48.987582
 20
20.050848
 11
47.939898
 21
21.098527
  0
LINE
  8
型材断面
  6
CONTINUOUS
 10
48.057735
 20
32.814033
 11
48.05775
 21
21.21638
  0
LINE
  8
型材断面
  6
CONTINUOUS
 10
45.557735
 20
33.2307
 11
48.057735
 21
33.2307
  0
LINE
  8
型材断面
  6
CONTINUOUS
 10
45.557735
 20
32.397365
 11
48.057735
 21
32.397365
  0
LINE
  8
型材断面
  6
CONTINUOUS
 10
45.557735
 20
32.397365
 11
45.557748
 21
23.71638
  0
LINE
  8
型材断面
  6
CONTINUOUS
 10
47.82205
 20
44.647385
 11
48.05775
 21
44.411685
  0
LINE
  8
型材断面
  6
CONTINUOUS
 10
45.322048
 20
42.147385
 11
45.557748
 21
41.911685
  0
LINE
  8
型材断面
  6
CONTINUOUS
 10
45.557748
 20
41.911685
 11
48.05775
 21
44.411685
  0
LINE
  8
型材断面
  6
CONTINUOUS
 10
45.322048
 20
42.147385
 11
47.82205
 21
44.647385
  0
LINE
  8
型材断面
  6
CONTINUOUS
 10
48.987582
 20
45.577218
 11
47.939898
 21
44.529537
  0
LINE
  8
型材断面
  6
CONTINUOUS
 10
45.557735
 20
33.2307
 11
45.557748
 21
41.911685
  0
LINE
  8
型材断面
  6
CONTINUOUS
 10
48.057735
 20
32.814033
 11
48.05775
 21
44.411685
  0
LINE
  8
型材断面
  6
CONTINUOUS
 10
-28.775608
 20
44.647335
 11
47.822053
 21
44.647387
  0
LINE
  8
型材断面
  6
CONTINUOUS
 10
28.03606
 20
42.147375
 11
45.32205
 21
42.147387
  0
LINE
  8
型材断面
  6
CONTINUOUS
 10
28.03606
 20
23.48069
 11
45.32205
 21
23.480677
  0
LINE
  8
型材断面
  6
CONTINUOUS
 10
-28.775608
 20
20.98073
 11
47.822053
 21
20.980677
  0
LINE
  8
型材断面
  6
DASHDOT
 10
-66.565607
 20
22.814033
 11
-66.565607
 21
42.814033
  0
LINE
  8
型材断面
  6
CONTINUOUS
 10
-67.815607
 20
24.314035
 11
-65.315607
 21
24.314038
  0
LINE
  8
型材断面
  6
CONTINUOUS
 10
-67.815607
 20
41.31403
 11
-65.315607
 21
41.314027
  0
LINE
  8
型材断面
  6
CONTINUOUS
 10
-67.815607
 20
24.314035
 11
-67.815607
 21
41.31403
  0
LINE
  8
型材断面
  6
CONTINUOUS
 10
-65.315607
 20
24.314038
 11
-65.315607
 21
41.314027
  0
LINE
  8
型材断面
  6
CONTINUOUS
 10
-48.087275
 20
23.480717
 11
-48.087275
 21
20.980717
  0
LINE
  8
型材断面
  6
CONTINUOUS
 10
-47.25394
 20
23.480717
 11
-47.25394
 21
20.980717
  0
LINE
  8
型材断面
  6
CONTINUOUS
 10
-85.587275
 20
23.480717
 11
-85.587275
 21
20.980717
  0
LINE
  8
型材断面
  6
CONTINUOUS
 10
-84.75394
 20
23.480717
 11
-84.75394
 21
20.980717
  0
LINE
  8
型材断面
  6
CONTINUOUS
 10
-48.087275
 20
42.147348
 11
-48.087275
 21
44.647348
  0
LINE
  8
型材断面
  6
CONTINUOUS
 10
-47.25394
 20
42.147348
 11
-47.25394
 21
44.647348
  0
LINE
  8
型材断面
  6
CONTINUOUS
 10
-85.587275
 20
42.147348
 11
-85.587275
 21
44.647348
  0
LINE
  8
型材断面
  6
CONTINUOUS
 10
-84.75394
 20
42.147348
 11
-84.75394
 21
44.647348
  0
LINE
  8
型材断面
  6
CONTINUOUS
 10
-84.75394
 20
23.48069
 11
-48.087275
 21
23.480717
  0
LINE
  8
型材断面
  6
CONTINUOUS
 10
-84.75394
 20
42.147375
 11
-48.087275
 21
42.147348
  0
LINE
  8
型材断面
  6
CONTINUOUS
 10
-106.538945
 20
20.050848
 11
-106.538945
 21
45.57722
  0
LINE
  8
型材断面
  6
CONTINUOUS
 10
-105.373265
 20
20.98068
 11
-105.608965
 21
21.21638
  0
LINE
  8
型材断面
  6
CONTINUOUS
 10
-102.873262
 20
23.48068
 11
-103.108962
 21
23.71638
  0
LINE
  8
型材断面
  6
CONTINUOUS
 10
-103.108962
 20
23.71638
 11
-105.608965
 21
21.21638
  0
LINE
  8
型材断面
  6
CONTINUOUS
 10
-102.873262
 20
23.48068
 11
-105.373265
 21
20.98068
  0
LINE
  8
型材断面
  6
CONTINUOUS
 10
-106.538797
 20
20.050848
 11
-105.491112
 21
21.098527
  0
LINE
  8
型材断面
  6
CONTINUOUS
 10
-105.60895
 20
32.814033
 11
-105.608965
 21
21.21638
  0
LINE
  8
型材断面
  6
CONTINUOUS
 10
-103.10895
 20
33.2307
 11
-105.60895
 21
33.2307
  0
LINE
  8
型材断面
  6
CONTINUOUS
 10
-103.10895
 20
32.397365
 11
-105.60895
 21
32.397365
  0
LINE
  8
型材断面
  6
CONTINUOUS
 10
-103.10895
 20
32.397365
 11
-103.108962
 21
23.71638
  0
LINE
  8
型材断面
  6
CONTINUOUS
 10
-105.373265
 20
44.647385
 11
-105.608965
 21
44.411685
  0
LINE
  8
型材断面
  6
CONTINUOUS
 10
-102.873262
 20
42.147385
 11
-103.108962
 21
41.911685
  0
LINE
  8
型材断面
  6
CONTINUOUS
 10
-103.108962
 20
41.911685
 11
-105.608965
 21
44.411685
  0
LINE
  8
型材断面
  6
CONTINUOUS
 10
-102.873262
 20
42.147385
 11
-105.373265
 21
44.647385
  0
LINE
  8
型材断面
  6
CONTINUOUS
 10
-106.538797
 20
45.577218
 11
-105.491112
 21
44.529537
  0
LINE
  8
型材断面
  6
CONTINUOUS
 10
-103.10895
 20
33.2307
 11
-103.108962
 21
41.911685
  0
LINE
  8
型材断面
  6
CONTINUOUS
 10
-105.60895
 20
32.814033
 11
-105.608965
 21
44.411685
  0
LINE
  8
型材断面
  6
CONTINUOUS
 10
-85.587275
 20
42.147375
 11
-102.873265
 21
42.147387
  0
LINE
  8
型材断面
  6
CONTINUOUS
 10
-85.587275
 20
23.48069
 11
-102.873265
 21
23.480677
  0
LINE
  8
型材断面
  6
CONTINUOUS
 10
-28.775608
 20
23.48073
 11
-47.25394
 21
23.480717
  0
LINE
  8
型材断面
  6
CONTINUOUS
 10
-28.775608
 20
42.147335
 11
-47.25394
 21
42.147348
  0
LINE
  8
型材断面
  6
CONTINUOUS
 10
-28.775608
 20
44.647335
 11
-105.373268
 21
44.647387
  0
LINE
  8
型材断面
  6
CONTINUOUS
 10
-28.775608
 20
20.98073
 11
-105.373268
 21
20.980677
  0
LINE
  8
型材断面
  6
CONTINUOUS
 10
48.48773
 20
-77.192947
 11
48.48773
 21
-77.529612
  0
LINE
  8
型材断面
  6
CONTINUOUS
 10
48.791063
 20
-73.096397
 11
48.98773
 21
-73.293065
  0
LINE
  8
型材断面
  6
CONTINUOUS
 10
48.98773
 20
-73.293065
 11
48.98773
 21
-77.192947
  0
LINE
  8
型材断面
  6
CONTINUOUS
 10
143.25766
 20
45.077223
 11
143.594325
 21
45.077223
  0
LINE
  8
型材断面
  6
CONTINUOUS
 10
139.16111
 20
45.380555
 11
139.357777
 21
45.577223
  0
LINE
  8
型材断面
  6
CONTINUOUS
 10
139.357777
 20
45.577223
 11
143.25766
 21
45.577223
  0
LINE
  8
型材断面
  6
CONTINUOUS
 62
    47
 10
139.161155
 20
45.380597
 11
139.161155
 21
32.814033
  0
LINE
  8
型材断面
  6
CONTINUOUS
 10
139.357777
 20
45.577223
 11
139.357777
 21
32.814033
  0
LINE
  8
型材断面
  6
CONTINUOUS
 10
143.594325
 20
45.077223
 11
143.594325
 21
32.814033
  0
LINE
  8
型材断面
  6
CONTINUOUS
 10
143.25766
 20
45.577223
 11
143.25766
 21
32.814033
  0
LINE
  8
型材断面
  6
CONTINUOUS
 10
143.25766
 20
20.550842
 11
143.594325
 21
20.550842
  0
LINE
  8
型材断面
  6
CONTINUOUS
 10
139.16111
 20
20.24751
 11
139.357777
 21
20.050842
  0
LINE
  8
型材断面
  6
CONTINUOUS
 10
139.357777
 20
20.050842
 11
143.25766
 21
20.050842
  0
LINE
  8
型材断面
  6
CONTINUOUS
 62
    47
 10
139.161155
 20
20.247467
 11
139.161155
 21
32.814033
  0
LINE
  8
型材断面
  6
CONTINUOUS
 10
139.357777
 20
20.050842
 11
139.357777
 21
32.814033
  0
LINE
  8
型材断面
  6
CONTINUOUS
 10
143.594325
 20
20.550842
 11
143.594325
 21
32.814033
  0
LINE
  8
型材断面
  6
CONTINUOUS
 10
143.25766
 20
20.050842
 11
143.25766
 21
32.814033
  0
LINE
  8
型材断面
  6
CONTINUOUS
 10
48.98773
 20
-77.192947
 11
-28.775608
 21
-77.192947
  0
LINE
  8
型材断面
  6
CONTINUOUS
 10
48.48773
 20
-77.529612
 11
-28.775608
 21
-77.529612
  0
LINE
  8
型材断面
  6
CONTINUOUS
 10
48.98773
 20
-73.293065
 11
-28.775608
 21
-73.293065
  0
LINE
  8
型材断面
  6
CONTINUOUS
 62
    47
 10
48.791105
 20
-73.096443
 11
-28.775608
 21
-73.096443
  0
LINE
  8
型材断面
  6
CONTINUOUS
 10
-106.038945
 20
-77.192947
 11
-106.038945
 21
-77.529612
  0
LINE
  8
型材断面
  6
CONTINUOUS
 10
-106.342277
 20
-73.096397
 11
-106.538945
 21
-73.293065
  0
LINE
  8
型材断面
  6
CONTINUOUS
 10
-106.538945
 20
-73.293065
 11
-106.538945
 21
-77.192947
  0
LINE
  8
型材断面
  6
CONTINUOUS
 10
-106.538945
 20
-77.192947
 11
-28.775608
 21
-77.192947
  0
LINE
  8
型材断面
  6
CONTINUOUS
 10
-106.038945
 20
-77.529612
 11
-28.775608
 21
-77.529612
  0
LINE
  8
型材断面
  6
CONTINUOUS
 10
-106.538945
 20
-73.293065
 11
-28.775608
 21
-73.293065
  0
LINE
  8
型材断面
  6
CONTINUOUS
 62
    47
 10
-106.34232
 20
-73.096443
 11
-28.775608
 21
-73.096443
  0
TEXT
  7
TextStyle03
  8
文字
  6
CONTINUOUS
 10
-37.125
 20
9.325
  1
可動装置側
 40
3.0
 72
     5
 11
-20.625
 21
9.325
  0
TEXT
  7
TextStyle03
  8
文字
  6
CONTINUOUS
 10
-37.125
 20
53.3
  1
可動装置側
 40
3.0
 72
     5
 11
-20.625
 21
53.3
  0
TEXT
  7
TextStyle03
  8
文字
  6
CONTINUOUS
 10
-141.8
 20
79.425
  1
はケーシング位置を示す
 40
3.0
 72
     5
 11
-105.05
 21
79.425
  0
TEXT
  7
TextStyle03
  8
文字
  6
CONTINUOUS
 10
-141.8
 20
76.05
  1
４ヶ所中1ヶ所に設定
 40
3.0
 72
     5
 11
-110.1125
 21
76.05
  0
TEXT
  7
TextStyle03
  8
文字
  6
CONTINUOUS
 10
-141.8
 20
84.95
  1
は排水穴位置を示す
 40
3.0
 72
     5
 11
-111.8
 21
84.95
  0
TEXT
  7
TextStyle03
  8
文字
  6
CONTINUOUS
 10
-124.825
 20
11.275
  1
アンカーピッチ
 40
3.0
 50
90.0
 72
     5
 11
-124.825
 21
34.525
  0
TEXT
  7
TextStyle03
  8
文字
  6
CONTINUOUS
 10
-88.85
 20
79.875
  1
アンカーピッチ
 40
3.0
 72
     5
 11
-65.6
 21
79.875
  0
TEXT
  7
TextStyle03
  8
文字
  6
CONTINUOUS
 10
-145.525
 20
70.075
  1
アンカー数量　１６ヶ所
 40
3.0
 72
     5
 11
-108.775
 21
70.075
  0
TEXT
  7
TextStyle03
  8
文字
  6
CONTINUOUS
 10
-145.575
 20
64.3
  1
アームユニット数　４ヶ所
 40
3.0
 72
     5
 11
-105.45
 21
64.3
  0
LINE
  8
文字
  6
CONTINUOUS
 10
137.35342
 20
45.57722
 11
80.244043
 21
45.57722
  0
LINE
  8
文字
  6
CONTINUOUS
 10
137.35342
 20
20.050848
 11
80.244043
 21
20.050848
  0
LINE
  8
文字
  6
CONTINUOUS
 10
135.141108
 20
51.815152
 11
135.141108
 21
46.90238
  0
LINE
  8
文字
  6
CONTINUOUS
 10
127.807775
 20
51.815152
 11
127.807775
 21
46.90238
  0
LINE
  8
文字
  6
CONTINUOUS
 10
-106.538945
 20
-70.743062
 11
-106.538945
 21
-12.609317
  0
LINE
  8
文字
  6
CONTINUOUS
 10
48.987728
 20
-70.743062
 11
48.987728
 21
-12.609317
  0
LINE
  8
文字
  6
CONTINUOUS
 10
65.401215
 20
-69.076395
 11
51.797535
 21
-69.076395
  0
LINE
  8
文字
  6
CONTINUOUS
 10
65.401215
 20
-61.743062
 11
51.797535
 21
-61.743062
  0
LINE
  8
文字
  6
CONTINUOUS
 10
141.310947
 20
-55.288705
 11
141.310947
 21
-62.514787
  0
LINE
  8
文字
  6
CONTINUOUS
 10
104.710947
 20
-55.288705
 11
104.710947
 21
-62.514787
  0
TEXT
  7
TextStyle03
  8
文字
  6
CONTINUOUS
 10
122.775
 20
-77.35
  1
網入り6.8t
 40
3.0
 72
     5
 11
139.4625
 21
-77.35
  0
TEXT
  7
TextStyle03
  8
文字
  6
CONTINUOUS
 10
129.45
 20
-82.025
  1
×４枚
 40
3.0
 72
     5
 11
139.2
 21
-82.025
  0
TEXT
  7
TextStyle03
  8
文字
  6
CONTINUOUS
 10
58.925
 20
125.25
  1
シリーズ：ＴＦＦＬ
 40
5.0
 72
     5
 11
108.925
 21
125.25
  0
TEXT
  7
TextStyle03
  8
文字
  6
CONTINUOUS
 10
58.925
 20
119.625
  1
　　　　　（上下可動）600×4500タイプ
 40
5.0
 72
     5
 11
162.3625
 21
119.625
  0
TEXT
  7
TextStyle03
  8
文字
  6
CONTINUOUS
 10
58.925
 20
114.0
  1
図面名　：外観姿図
 40
5.0
 72
     5
 11
108.925
 21
114.0
  0
TEXT
  7
TextStyle03
  8
文字
  6
CONTINUOUS
 10
58.925
 20
108.375
  1
　　　　　　
 40
5.0
 72
     5
 11
92.05
 21
108.375
  0
TEXT
  7
TextStyle03
  8
文字
  6
CONTINUOUS
 10
59.075
 20
104.525
  1
ＮＳコード：ＮＳＦＬ
 40
5.0
 72
     5
 11
114.7
 21
104.525
  0
INSERT
  2
*DIM_0002
  8
寸法
  6
CONTINUOUS
 10
0.0
 20
0.0
  0
INSERT
  2
*DIM_0003
  8
寸法
  6
CONTINUOUS
 10
0.0
 20
0.0
  0
INSERT
  2
*DIM_0004
  8
寸法
  6
CONTINUOUS
 10
0.0
 20
0.0
  0
INSERT
  2
*DIM_0005
  8
寸法
  6
CONTINUOUS
 10
0.0
 20
0.0
  0
INSERT
  2
*DIM_0006
  8
寸法
  6
CONTINUOUS
 10
0.0
 20
0.0
  0
INSERT
  2
*DIM_0007
  8
寸法
  6
CONTINUOUS
 10
0.0
 20
0.0
  0
INSERT
  2
*DIM_0008
  8
寸法
  6
CONTINUOUS
 10
0.0
 20
0.0
  0
INSERT
  2
*DIM_0009
  8
寸法
  6
CONTINUOUS
 10
0.0
 20
0.0
  0
INSERT
  2
*DIM_0010
  8
寸法
  6
CONTINUOUS
 10
0.0
 20
0.0
  0
INSERT
  2
*DIM_0011
  8
寸法
  6
CONTINUOUS
 10
0.0
 20
0.0
  0
INSERT
  2
*DIM_0013
  8
寸法
  6
CONTINUOUS
 10
0.0
 20
0.0
  0
INSERT
  2
*DIM_0014
  8
寸法
  6
CONTINUOUS
 10
0.0
 20
0.0
  0
INSERT
  2
*DIM_0015
  8
寸法
  6
CONTINUOUS
 10
0.0
 20
0.0
  0
INSERT
  2
*DIM_0016
  8
寸法
  6
CONTINUOUS
 10
0.0
 20
0.0
  0
INSERT
  2
*DIM_0017
  8
寸法
  6
CONTINUOUS
 10
0.0
 20
0.0
  0
INSERT
  2
*DIM_0018
  8
寸法
  6
CONTINUOUS
 10
0.0
 20
0.0
  0
INSERT
  2
*DIM_0023
  8
寸法
  6
CONTINUOUS
 10
0.0
 20
0.0
  0
INSERT
  2
*DIM_0024
  8
寸法
  6
CONTINUOUS
 10
0.0
 20
0.0
  0
INSERT
  2
*DIM_0025
  8
寸法
  6
CONTINUOUS
 10
0.0
 20
0.0
  0
INSERT
  2
*DIM_0026
  8
寸法
  6
CONTINUOUS
 10
0.0
 20
0.0
  0
INSERT
  2
*DIM_0027
  8
寸法
  6
CONTINUOUS
 10
0.0
 20
0.0
  0
INSERT
  2
*DIM_0028
  8
寸法
  6
CONTINUOUS
 10
0.0
 20
0.0
  0
LINE
  8
別途部材
  6
CONTINUOUS
 62
    47
 10
135.241108
 20
20.980845
 11
135.307775
 21
20.980845
  0
ARC
  8
別途部材
  6
CONTINUOUS
 62
    47
 10
135.241109
 20
21.080846
 40
0.1
 50
180.0
 51
270.0
  0
LINE
  8
別途部材
  6
CONTINUOUS
 62
    47
 10
135.307775
 20
21.137368
 11
136.807775
 21
21.137368
  0
LINE
  8
別途部材
  6
CONTINUOUS
 62
    47
 10
139.124443
 20
20.050848
 11
139.124443
 21
32.814033
  0
LINE
  8
別途部材
  6
CONTINUOUS
 62
    47
 10
137.957777
 20
20.050848
 11
137.957777
 21
32.814033
  0
LINE
  8
別途部材
  6
CONTINUOUS
 62
    47
 10
136.807775
 20
21.137368
 11
136.807775
 21
32.814033
  0
LINE
  8
別途部材
  6
CONTINUOUS
 62
    47
 10
135.307775
 20
20.980845
 11
135.307775
 21
32.814033
  0
LINE
  8
別途部材
  6
CONTINUOUS
 62
    47
 10
135.141108
 20
21.080845
 11
135.141108
 21
32.814033
  0
LINE
  8
別途部材
  6
CONTINUOUS
 62
    47
 10
135.241108
 20
44.647222
 11
135.307775
 21
44.647222
  0
ARC
  8
別途部材
  6
CONTINUOUS
 62
    47
 10
135.241109
 20
44.547222
 40
0.1
 50
90.0
 51
180.0
  0
LINE
  8
別途部材
  6
CONTINUOUS
 62
    47
 10
135.307775
 20
44.4907
 11
136.807775
 21
44.4907
  0
LINE
  8
別途部材
  6
CONTINUOUS
 62
    47
 10
139.124443
 20
45.57722
 11
139.124443
 21
32.814033
  0
LINE
  8
別途部材
  6
CONTINUOUS
 62
    47
 10
137.957777
 20
45.57722
 11
137.957777
 21
32.814033
  0
LINE
  8
別途部材
  6
CONTINUOUS
 62
    47
 10
136.807775
 20
44.4907
 11
136.807775
 21
32.814033
  0
LINE
  8
別途部材
  6
CONTINUOUS
 62
    47
 10
135.307775
 20
44.647222
 11
135.307775
 21
32.814033
  0
LINE
  8
別途部材
  6
CONTINUOUS
 62
    47
 10
135.141108
 20
44.547222
 11
135.141108
 21
32.814033
  0
LINE
  8
別途部材
  6
CONTINUOUS
 62
    47
 10
-105.608947
 20
-69.176395
 11
-105.608947
 21
-69.243062
  0
ARC
  8
別途部材
  6
CONTINUOUS
 62
    47
 10
-105.508945
 20
-69.176399
 40
0.1
 50
90.0
 51
180.0
  0
LINE
  8
別途部材
  6
CONTINUOUS
 62
    47
 10
-105.452425
 20
-69.243062
 11
-105.452425
 21
-70.743062
  0
LINE
  8
別途部材
  6
DOT
 62
    47
 10
-105.608947
 20
-61.843062
 11
-105.608947
 21
-61.90973
  0
ARC
  8
別途部材
  6
DOT
 62
    47
 10
-105.508945
 20
-61.843065
 40
0.1
 50
90.0
 51
180.0
  0
LINE
  8
別途部材
  6
DOT
 62
    47
 10
-105.452425
 20
-61.90973
 11
-105.452425
 21
-63.40973
  0
LINE
  8
別途部材
  6
CONTINUOUS
 62
    47
 10
48.05773
 20
-69.176395
 11
48.05773
 21
-69.243062
  0
ARC
  8
別途部材
  6
CONTINUOUS
 62
    47
 10
47.957724
 20
-69.176399
 40
0.1
 50
0.0
 51
90.0
  0
LINE
  8
別途部材
  6
CONTINUOUS
 62
    47
 10
47.901208
 20
-69.243062
 11
47.901208
 21
-70.743062
  0
LINE
  8
別途部材
  6
DOT
 62
    47
 10
48.05773
 20
-61.843062
 11
48.05773
 21
-61.90973
  0
ARC
  8
別途部材
  6
DOT
 62
    47
 10
47.957724
 20
-61.843065
 40
0.1
 50
0.0
 51
90.0
  0
LINE
  8
別途部材
  6
DOT
 62
    47
 10
47.901208
 20
-61.90973
 11
47.901208
 21
-63.40973
  0
LINE
  8
別途部材
  6
DOT
 62
    47
 10
-105.452425
 20
-63.40973
 11
-28.775608
 21
-63.40973
  0
LINE
  8
別途部材
  6
DOT
 62
    47
 10
-106.538945
 20
-64.559732
 11
-28.775608
 21
-64.559732
  0
LINE
  8
別途部材
  6
DOT
 62
    47
 10
-106.538945
 20
-65.726397
 11
-28.775608
 21
-65.726397
  0
LINE
  8
別途部材
  6
DOT
 62
    47
 10
-105.508947
 20
-61.743062
 11
-28.775608
 21
-61.743062
  0
LINE
  8
別途部材
  6
DOT
 62
    47
 10
-105.608947
 20
-61.90973
 11
-28.775608
 21
-61.90973
  0
LINE
  8
別途部材
  6
CONTINUOUS
 62
    47
 10
-106.538945
 20
-71.893065
 11
-28.775608
 21
-71.893065
  0
LINE
  8
別途部材
  6
CONTINUOUS
 62
    47
 10
-105.452425
 20
-70.743062
 11
-28.775608
 21
-70.743062
  0
LINE
  8
別途部材
  6
CONTINUOUS
 62
    47
 10
-105.508947
 20
-69.076395
 11
-28.775608
 21
-69.076395
  0
LINE
  8
別途部材
  6
CONTINUOUS
 62
    47
 10
-105.608947
 20
-69.243062
 11
-28.775608
 21
-69.243062
  0
LINE
  8
別途部材
  6
CONTINUOUS
 62
    47
 10
-106.538945
 20
-73.05973
 11
-28.775608
 21
-73.05973
  0
LINE
  8
別途部材
  6
DOT
 62
    47
 10
47.95773
 20
-61.743062
 11
-28.775608
 21
-61.743062
  0
LINE
  8
別途部材
  6
DOT
 62
    47
 10
48.05773
 20
-61.90973
 11
-28.775608
 21
-61.90973
  0
LINE
  8
別途部材
  6
DOT
 62
    47
 10
47.901208
 20
-63.40973
 11
-28.775608
 21
-63.40973
  0
LINE
  8
別途部材
  6
DOT
 62
    47
 10
48.987728
 20
-64.559732
 11
-28.775608
 21
-64.559732
  0
LINE
  8
別途部材
  6
DOT
 62
    47
 10
48.987728
 20
-65.726397
 11
-28.775608
 21
-65.726397
  0
LINE
  8
別途部材
  6
CONTINUOUS
 62
    47
 10
48.05773
 20
-69.243062
 11
-28.775608
 21
-69.243062
  0
LINE
  8
別途部材
  6
CONTINUOUS
 62
    47
 10
47.95773
 20
-69.076395
 11
-28.775608
 21
-69.076395
  0
LINE
  8
別途部材
  6
CONTINUOUS
 62
    47
 10
47.901208
 20
-70.743062
 11
-28.775608
 21
-70.743062
  0
LINE
  8
別途部材
  6
CONTINUOUS
 62
    47
 10
48.987728
 20
-71.893065
 11
-28.775608
 21
-71.893065
  0
LINE
  8
別途部材
  6
CONTINUOUS
 62
    47
 10
48.987728
 20
-73.05973
 11
-28.775608
 21
-73.05973
  0
LINE
  8
別途部材
  6
CONTINUOUS
 10
104.710947
 20
-63.785395
 11
104.710947
 21
-83.785395
  0
LINE
  8
曲げ物
  6
CONTINUOUS
 10
30.950122
 20
34.739582
 11
27.25481
 21
31.04427
  0
LINE
  8
曲げ物
  6
CONTINUOUS
 10
30.246652
 20
33.203472
 11
28.790922
 21
31.747742
  0
LINE
  8
曲げ物
  6
CONTINUOUS
 10
29.414012
 20
34.036112
 11
27.958282
 21
32.580383
  0
LINE
  8
曲げ物
  6
CONTINUOUS
 10
-8.134045
 20
34.739582
 11
-11.829357
 21
31.04427
  0
LINE
  8
曲げ物
  6
CONTINUOUS
 10
-8.837515
 20
33.203472
 11
-10.293245
 21
31.747742
  0
LINE
  8
曲げ物
  6
CONTINUOUS
 10
-9.670155
 20
34.036112
 11
-11.125885
 21
32.580383
  0
LINE
  8
曲げ物
  6
CONTINUOUS
 10
-45.385845
 20
34.739582
 11
-49.081157
 21
31.04427
  0
LINE
  8
曲げ物
  6
CONTINUOUS
 10
-46.089315
 20
33.203472
 11
-47.545045
 21
31.747742
  0
LINE
  8
曲げ物
  6
CONTINUOUS
 10
-46.921955
 20
34.036112
 11
-48.377685
 21
32.580383
  0
LINE
  8
曲げ物
  6
CONTINUOUS
 10
-82.597012
 20
34.739582
 11
-86.292325
 21
31.04427
  0
LINE
  8
曲げ物
  6
CONTINUOUS
 10
-83.300483
 20
33.203472
 11
-84.756213
 21
31.747742
  0
LINE
  8
曲げ物
  6
CONTINUOUS
 10
-84.133122
 20
34.036112
 11
-85.588853
 21
32.580383
  0
LINE
  8
曲げ物
  6
CONTINUOUS
 10
141.310947
 20
-63.785395
 11
104.710947
 21
-63.785395
  0
LINE
  8
曲げ物
  6
CONTINUOUS
 10
141.310947
 20
-83.785395
 11
104.710947
 21
-83.785395
  0
LINE
  8
曲げ物
  6
CONTINUOUS
 10
141.310947
 20
-63.785395
 11
141.310947
 21
-83.785395
  0
LINE
  8
鉄骨等
  6
CONTINUOUS
 62
    47
 10
139.124443
 20
20.050848
 11
137.957777
 21
20.050848
  0
LINE
  8
鉄骨等
  6
CONTINUOUS
 62
    47
 10
137.957777
 20
20.050848
 11
136.807777
 21
21.454032
  0
LINE
  8
鉄骨等
  6
CONTINUOUS
 62
    47
 10
139.124443
 20
45.57722
 11
137.957777
 21
45.57722
  0
LINE
  8
鉄骨等
  6
CONTINUOUS
 62
    47
 10
137.957777
 20
45.57722
 11
136.807777
 21
44.174033
  0
LINE
  8
鉄骨等
  6
CONTINUOUS
 62
    47
 10
-106.538945
 20
-73.05973
 11
-106.538945
 21
-71.893065
  0
LINE
  8
鉄骨等
  6
CONTINUOUS
 62
    47
 10
-106.538945
 20
-71.893065
 11
-105.13576
 21
-70.743065
  0
LINE
  8
鉄骨等
  6
DOT
 62
    47
 10
-106.538945
 20
-65.726397
 11
-106.538945
 21
-64.559732
  0
LINE
  8
鉄骨等
  6
DOT
 62
    47
 10
-106.538945
 20
-64.559732
 11
-105.13576
 21
-63.409732
  0
LINE
  8
鉄骨等
  6
CONTINUOUS
 62
    47
 10
48.987728
 20
-73.05973
 11
48.987728
 21
-71.893065
  0
LINE
  8
鉄骨等
  6
CONTINUOUS
 62
    47
 10
48.987728
 20
-71.893065
 11
47.584542
 21
-70.743065
  0
LINE
  8
鉄骨等
  6
DOT
 62
    47
 10
48.987728
 20
-65.726397
 11
48.987728
 21
-64.559732
  0
LINE
  8
鉄骨等
  6
DOT
 62
    47
 10
48.987728
 20
-64.559732
 11
47.584542
 21
-63.409732
  0
ENDSEC
  0
EOF
