  0
SECTION
  2
HEADER
  9
$EXTMIN
 10
-210.0
 20
-148.5
  9
$EXTMAX
 10
210.0
 20
148.5
  9
$PDMODE
 70
    32
  9
$PDSIZE
 40
1.5
  9
$LTSCALE
 40
10.0
  0
ENDSEC
  0
SECTION
  2
TABLES
  0
TABLE
  2
LTYPE
 70
    15
  0
LTYPE
  2
CONTINUOUS
 70
    64
  3
実線
 72
    65
 73
     0
 40
0.0
  0
LTYPE
  2
DASHED
 70
    64
  3
破線A
 72
    65
 73
     2
 40
0.6
 49
0.4
 49
-0.2
  0
LTYPE
  2
DASHEDX2
 70
    64
  3
破線B
 72
    65
 73
     2
 40
1.3
 49
0.9
 49
-0.4
  0
LTYPE
  2
DASHDOT
 70
    64
  3
１点鎖線A
 72
    65
 73
     4
 40
0.5375
 49
0.375
 49
-0.05
 49
0.0625
 49
-0.05
  0
LTYPE
  2
DASHDOTX2
 70
    64
  3
１点鎖線B
 72
    65
 73
     4
 40
1.075
 49
0.75
 49
-0.1
 49
0.125
 49
-0.1
  0
LTYPE
  2
DIVIDE2
 70
    64
  3
２点鎖線A
 72
    65
 73
     6
 40
0.5125
 49
0.3
 49
-0.0375
 49
0.05
 49
-0.0375
 49
0.05
 49
-0.0375
  0
LTYPE
  2
DIVIDE
 70
    64
  3
２点鎖線B
 72
    65
 73
     6
 40
1.05
 49
0.55
 49
-0.1
 49
0.1
 49
-0.1
 49
0.1
 49
-0.1
  0
LTYPE
  2
DOT
 70
    64
  3
点線A
 72
    65
 73
     2
 40
0.1125
 49
0.0625
 49
-0.05
  0
LTYPE
  2
DOTX2
 70
    64
  3
点線B
 72
    65
 73
     2
 40
0.275
 49
0.15
 49
-0.125
  0
LTYPE
  2
CONTINUOUS
 70
    64
  3
実線
 72
    65
 73
     0
 40
0.0
  0
LTYPE
  2
CONTINUOUS
 70
    64
  3
実線
 72
    65
 73
     0
 40
0.0
  0
LTYPE
  2
CONTINUOUS
 70
    64
  3
実線
 72
    65
 73
     0
 40
0.0
  0
LTYPE
  2
CONTINUOUS
 70
    64
  3
実線
 72
    65
 73
     0
 40
0.0
  0
LTYPE
  2
CONTINUOUS
 70
    64
  3
実線
 72
    65
 73
     0
 40
0.0
  0
LTYPE
  2
CONTINUOUS
 70
    64
  3
実線
 72
    65
 73
     0
 40
0.0
  0
ENDTAB
  0
TABLE
  2
LAYER
 70
    34
  0
LAYER
  2
通り芯
 70
     0
 62
    15
  6
CONTINUOUS
  0
LAYER
  2
補助線
 70
     0
 62
    16
  6
DOT
  0
LAYER
  2
躯体
 70
     0
 62
    31
  6
CONTINUOUS
  0
LAYER
  2
型材
 70
     0
 62
    32
  6
CONTINUOUS
  0
LAYER
  2
型材断面
 70
     0
 62
    47
  6
CONTINUOUS
  0
LAYER
  2
ガラス
 70
     0
 62
    48
  6
CONTINUOUS
  0
LAYER
  2
ゴム等
 70
     0
 62
    63
  6
CONTINUOUS
  0
LAYER
  2
ボルト／ビス
 70
     0
 62
    64
  6
CONTINUOUS
  0
LAYER
  2
文字
 70
     0
 62
    79
  6
CONTINUOUS
  0
LAYER
  2
寸法
 70
     0
 62
    80
  6
CONTINUOUS
  0
LAYER
  2
ﾊｯﾁﾝｸﾞ
 70
     0
 62
    95
  6
CONTINUOUS
  0
LAYER
  2
別途部材
 70
     0
 62
    96
  6
CONTINUOUS
  0
LAYER
  2
曲げ物
 70
     0
 62
   111
  6
CONTINUOUS
  0
LAYER
  2
鉄骨等
 70
     0
 62
   112
  6
CONTINUOUS
  0
LAYER
  2
St
 70
     0
 62
   127
  6
CONTINUOUS
  0
LAYER
  2
その他部品等
 70
     0
 62
   128
  6
CONTINUOUS
  0
LAYER
  2
ｶﾞｽｹｯﾄ
 70
     0
 62
   143
  6
CONTINUOUS
  0
LAYER
  2
ｽｹｯﾁ
 70
     0
 62
    14
  6
CONTINUOUS
  0
LAYER
  2
0
 70
     0
 62
    17
  6
CONTINUOUS
  0
LAYER
  2
1
 70
     0
 62
    30
  6
CONTINUOUS
  0
LAYER
  2
4
 70
     0
 62
    33
  6
CONTINUOUS
  0
LAYER
  2
ﾚｲﾔ3
 70
     0
 62
    46
  6
CONTINUOUS
  0
LAYER
  2
外形線
 70
     0
 62
    49
  6
CONTINUOUS
  0
LAYER
  2
部品
 70
     0
 62
    14
  6
CONTINUOUS
  0
LAYER
  2
サッシ芯
 70
     0
 62
    17
  6
DASHDOTX2
  0
LAYER
  2
寸法線
 70
     0
 62
    62
  6
CONTINUOUS
  0
LAYER
  2
姿図外形線
 70
     0
 62
    65
  6
CONTINUOUS
  0
LAYER
  2
姿補助線
 70
     0
 62
    30
  6
CONTINUOUS
  0
LAYER
  2
透視線
 70
     0
 62
    78
  6
DOT
  0
LAYER
  2
用紙
 70
     0
 62
    81
  6
CONTINUOUS
  0
LAYER
  2
実線図枠
 70
     0
 62
    94
  6
CONTINUOUS
  0
LAYER
  2
補助図枠
 70
     0
 62
    97
  6
CONTINUOUS
  0
LAYER
  2
建具記号
 70
     0
 62
   110
  6
CONTINUOUS
  0
LAYER
  2
補助文字
 70
     0
 62
   113
  6
CONTINUOUS
  0
ENDTAB
  0
TABLE
  2
STYLE
 70
    10
  0
STYLE
  2
STANDARD
 70
     0
 40
1.0
 41
1.0
 42
1.0
 50
0.0
 71
     0
  3
TXT
  4
BIGFONT
  0
STYLE
  2
TATE
 70
     4
 40
1.0
 41
1.0
 42
1.0
 50
0.0
 71
     0
  3
TXT
  4
BIGFONT
  0
STYLE
  2
TextStyle03
 70
     0
 40
1.0
 41
1.0
 42
1.0
 50
0.0
 71
     0
  3
MONOTXT
  4
BIGFONT
  0
STYLE
  2
TextStyle04
 70
     0
 40
1.0
 41
1.0
 42
1.0
 50
0.0
 71
     0
  3
MONOTXT
  4
BIGFONT
  0
STYLE
  2
TextStyle05
 70
     0
 40
1.0
 41
1.0
 42
1.0
 50
0.0
 71
     0
  3
MONOTXT
  4
BIGFONT
  0
STYLE
  2
TextStyle06
 70
     0
 40
1.0
 41
1.0
 42
1.0
 50
0.0
 71
     0
  3
MONOTXT
  4
BIGFONT
  0
STYLE
  2
TextStyle07
 70
     0
 40
1.0
 41
1.0
 42
1.0
 50
0.0
 71
     0
  3
MONOTXT
  4
BIGFONT
  0
STYLE
  2
TextStyle08
 70
     0
 40
1.0
 41
1.0
 42
1.0
 50
0.0
 71
     0
  3
MONOTXT
  4
BIGFONT
  0
STYLE
  2
TextStyle09
 70
     0
 40
1.0
 41
1.0
 42
1.0
 50
0.0
 71
     0
  3
MONOTXT
  4
BIGFONT
  0
STYLE
  2
TextStyle10
 70
     0
 40
1.0
 41
1.0
 42
1.0
 50
0.0
 71
     0
  3
MONOTXT
  4
BIGFONT
  0
ENDTAB
  0
ENDSEC
  0
SECTION
  2
BLOCKS
  0
BLOCK
  2
*GRP_0001
 70
    65
 10
0.0
 20
0.0
  0
LINE
  8
型材断面
  6
CONTINUOUS
 10
195.0
 20
133.5
 11
195.0
 21
-133.5
  0
LINE
  8
型材断面
  6
CONTINUOUS
 10
195.0
 20
-133.5
 11
-185.0
 21
-133.5
  0
LINE
  8
型材断面
  6
CONTINUOUS
 10
-185.0
 20
-133.5
 11
-185.0
 21
133.5
  0
LINE
  8
型材断面
  6
CONTINUOUS
 10
195.0
 20
133.5
 11
-185.0
 21
133.5
  0
LINE
  8
型材断面
  6
CONTINUOUS
 10
145.0
 20
-133.5
 11
145.0
 21
-118.5
  0
LINE
  8
型材断面
  6
CONTINUOUS
 10
195.0
 20
-118.5
 11
145.0
 21
-118.5
  0
ENDBLK
  0
BLOCK
  2
*DIM_0002
 70
    65
 10
0.0
 20
0.0
  0
LINE
  8
寸法
  6
BYBLOCK
 62
     0
 10
-78.620467
 20
19.183902
 11
-78.620467
 21
14.10329
  0
LINE
  8
寸法
  6
BYBLOCK
 62
     0
 10
-11.953802
 20
19.183902
 11
-11.953802
 21
14.10329
  0
LINE
  8
寸法
  6
BYBLOCK
 62
     0
 10
-78.620467
 20
14.10329
 11
-11.953802
 21
14.10329
  0
POINT
  8
寸法
 62
     0
 10
-78.620467
 20
14.10329
  0
POINT
  8
寸法
 62
     0
 10
-11.953802
 20
14.10329
  0
TEXT
  7
TextStyle03
  8
寸法
  6
CONTINUOUS
 62
     0
 10
-48.55625
 20
14.475
  1
2000
 40
3.0
 72
     5
 11
-41.99375
 21
14.475
  0
ENDBLK
  0
BLOCK
  2
*DIM_0003
 70
    65
 10
0.0
 20
0.0
  0
LINE
  8
寸法
  6
BYBLOCK
 62
     0
 10
5.712865
 20
42.814035
 11
15.437147
 21
42.814035
  0
LINE
  8
寸法
  6
BYBLOCK
 62
     0
 10
8.342995
 20
39.114035
 11
15.437147
 21
39.114035
  0
LINE
  8
寸法
  6
BYBLOCK
 62
     0
 10
15.437147
 20
42.814035
 11
15.437147
 21
39.114035
  0
POINT
  8
寸法
 62
     0
 10
15.437147
 20
42.814035
  0
POINT
  8
寸法
 62
     0
 10
15.437147
 20
39.114035
  0
TEXT
  7
TextStyle03
  8
寸法
  6
CONTINUOUS
 62
     0
 10
15.125
 20
43.8125
  1
111
 40
3.0
 50
90.0
 72
     5
 11
15.125
 21
48.6875
  0
ENDBLK
  0
BLOCK
  2
*DIM_0004
 70
    65
 10
0.0
 20
0.0
  0
LINE
  8
寸法
  6
BYBLOCK
 62
     0
 10
5.712865
 20
22.81403
 11
15.437147
 21
22.814027
  0
LINE
  8
寸法
  6
BYBLOCK
 62
     0
 10
8.342995
 20
26.51403
 11
15.437147
 21
26.514027
  0
LINE
  8
寸法
  6
BYBLOCK
 62
     0
 10
15.437147
 20
22.814027
 11
15.437147
 21
26.514027
  0
POINT
  8
寸法
 62
     0
 10
15.437147
 20
22.814027
  0
POINT
  8
寸法
 62
     0
 10
15.437147
 20
26.514027
  0
TEXT
  7
TextStyle03
  8
寸法
  6
CONTINUOUS
 62
     0
 10
15.45
 20
16.5625
  1
111
 40
3.0
 50
90.0
 72
     5
 11
15.45
 21
21.4375
  0
ENDBLK
  0
BLOCK
  2
*DIM_0005
 70
    65
 10
0.0
 20
0.0
  0
LINE
  8
寸法
  6
BYBLOCK
 62
     0
 10
-98.287135
 20
39.4807
 11
-111.579972
 21
39.4807
  0
LINE
  8
寸法
  6
BYBLOCK
 62
     0
 10
-98.287135
 20
26.147365
 11
-111.579972
 21
26.147365
  0
LINE
  8
寸法
  6
BYBLOCK
 62
     0
 10
-111.579972
 20
39.4807
 11
-111.579972
 21
26.147365
  0
POINT
  8
寸法
 62
     0
 10
-111.579972
 20
39.4807
  0
POINT
  8
寸法
 62
     0
 10
-111.579972
 20
26.147365
  0
TEXT
  7
TextStyle03
  8
寸法
  6
CONTINUOUS
 62
     0
 10
-112.0
 20
30.3625
  1
400
 40
3.0
 50
90.0
 72
     5
 11
-112.0
 21
35.2375
  0
ENDBLK
  0
BLOCK
  2
*DIM_0006
 70
    65
 10
0.0
 20
0.0
  0
LINE
  8
寸法
  6
BYBLOCK
 62
     0
 10
-85.287135
 20
45.814033
 11
-85.287135
 21
74.922105
  0
LINE
  8
寸法
  6
BYBLOCK
 62
     0
 10
-58.620467
 20
45.814033
 11
-58.620467
 21
74.922105
  0
LINE
  8
寸法
  6
BYBLOCK
 62
     0
 10
-85.287135
 20
74.922105
 11
-58.620467
 21
74.922105
  0
POINT
  8
寸法
 62
     0
 10
-85.287135
 20
74.922105
  0
POINT
  8
寸法
 62
     0
 10
-58.620467
 20
74.922105
  0
TEXT
  7
TextStyle03
  8
寸法
  6
CONTINUOUS
 62
     0
 10
-74.4125
 20
75.275
  1
800
 40
3.0
 72
     5
 11
-69.5375
 21
75.275
  0
ENDBLK
  0
BLOCK
  2
*DIM_0007
 70
    65
 10
0.0
 20
0.0
  0
LINE
  8
寸法
  6
BYBLOCK
 62
     0
 10
-31.953802
 20
45.814033
 11
-31.953802
 21
74.922105
  0
LINE
  8
寸法
  6
BYBLOCK
 62
     0
 10
-58.620467
 20
74.922105
 11
-31.953802
 21
74.922105
  0
POINT
  8
寸法
 62
     0
 10
-31.953802
 20
74.922105
  0
TEXT
  7
TextStyle03
  8
寸法
  6
CONTINUOUS
 62
     0
 10
-47.7375
 20
75.275
  1
800
 40
3.0
 72
     5
 11
-42.8625
 21
75.275
  0
ENDBLK
  0
BLOCK
  2
*DIM_0008
 70
    65
 10
0.0
 20
0.0
  0
LINE
  8
寸法
  6
BYBLOCK
 62
     0
 10
-5.287135
 20
45.814033
 11
-5.287135
 21
74.922105
  0
LINE
  8
寸法
  6
BYBLOCK
 62
     0
 10
-31.953802
 20
74.922105
 11
-5.287135
 21
74.922105
  0
POINT
  8
寸法
 62
     0
 10
-5.287135
 20
74.922105
  0
TEXT
  7
TextStyle03
  8
寸法
  6
CONTINUOUS
 62
     0
 10
-21.0625
 20
75.275
  1
800
 40
3.0
 72
     5
 11
-16.1875
 21
75.275
  0
ENDBLK
  0
BLOCK
  2
*GRP_0009
 70
    65
 10
0.0
 20
0.0
  0
LINE
  8
別途部材
  6
DOT
 62
    47
 10
86.396248
 20
20.980845
 11
86.462915
 21
20.980845
  0
ARC
  8
別途部材
  6
DOT
 62
    47
 10
86.396252
 20
21.080846
 40
0.1
 50
180.0
 51
270.0
  0
LINE
  8
別途部材
  6
DOT
 62
    47
 10
86.462915
 20
21.137368
 11
87.962915
 21
21.137368
  0
LINE
  8
別途部材
  6
DOT
 62
    47
 10
90.279582
 20
20.050848
 11
90.279582
 21
32.814033
  0
LINE
  8
別途部材
  6
DOT
 62
    47
 10
89.112918
 20
20.050848
 11
89.112918
 21
32.814033
  0
LINE
  8
別途部材
  6
DOT
 62
    47
 10
87.962915
 20
21.137368
 11
87.962915
 21
32.814033
  0
LINE
  8
別途部材
  6
DOT
 62
    47
 10
86.462915
 20
20.980845
 11
86.462915
 21
32.814033
  0
LINE
  8
別途部材
  6
DOT
 62
    47
 10
86.296248
 20
21.080845
 11
86.296248
 21
32.814033
  0
LINE
  8
別途部材
  6
DOT
 62
    47
 10
86.396248
 20
44.647222
 11
86.462915
 21
44.647222
  0
ARC
  8
別途部材
  6
DOT
 62
    47
 10
86.396252
 20
44.547222
 40
0.1
 50
90.0
 51
180.0
  0
LINE
  8
別途部材
  6
DOT
 62
    47
 10
86.462915
 20
44.4907
 11
87.962915
 21
44.4907
  0
LINE
  8
別途部材
  6
DOT
 62
    47
 10
90.279582
 20
45.57722
 11
90.279582
 21
32.814033
  0
LINE
  8
別途部材
  6
DOT
 62
    47
 10
89.112918
 20
45.57722
 11
89.112918
 21
32.814033
  0
LINE
  8
別途部材
  6
DOT
 62
    47
 10
87.962915
 20
44.4907
 11
87.962915
 21
32.814033
  0
LINE
  8
別途部材
  6
DOT
 62
    47
 10
86.462915
 20
44.647222
 11
86.462915
 21
32.814033
  0
LINE
  8
別途部材
  6
DOT
 62
    47
 10
86.296248
 20
44.547222
 11
86.296248
 21
32.814033
  0
LINE
  8
鉄骨等
  6
DOT
 62
    47
 10
90.279582
 20
20.050848
 11
89.112918
 21
20.050848
  0
LINE
  8
鉄骨等
  6
DOT
 62
    47
 10
89.112918
 20
20.050848
 11
87.962918
 21
21.454032
  0
LINE
  8
鉄骨等
  6
DOT
 62
    47
 10
90.279582
 20
45.57722
 11
89.112918
 21
45.57722
  0
LINE
  8
鉄骨等
  6
DOT
 62
    47
 10
89.112918
 20
45.57722
 11
87.962918
 21
44.174033
  0
ENDBLK
  0
BLOCK
  2
*DIM_0010
 70
    65
 10
0.0
 20
0.0
  0
LINE
  8
寸法
  6
BYBLOCK
 62
     0
 10
38.732515
 20
22.814035
 11
38.732515
 21
42.814035
  0
POINT
  8
寸法
 62
     0
 10
38.732515
 20
22.814035
  0
POINT
  8
寸法
 62
     0
 10
38.732515
 20
42.814035
  0
TEXT
  7
TextStyle03
  8
寸法
  6
CONTINUOUS
 62
     0
 10
38.35
 20
21.925
  1
呼称寸法　600
 40
3.0
 50
90.0
 72
     5
 11
38.35
 21
43.675
  0
ENDBLK
  0
BLOCK
  2
*DIM_0011
 70
    65
 10
0.0
 20
0.0
  0
LINE
  8
寸法
  6
CONTINUOUS
 10
38.732515
 20
45.57722
 11
38.732515
 21
42.814035
  0
POINT
  8
寸法
 10
38.732515
 20
45.57722
  0
POINT
  8
寸法
 10
38.732515
 20
42.814035
  0
TEXT
  7
TextStyle03
  8
寸法
  6
CONTINUOUS
 10
40.125
 20
46.64375
  1
82.9
 40
3.0
 50
90.0
 72
     5
 11
40.125
 21
53.20625
  0
ENDBLK
  0
BLOCK
  2
*DIM_0012
 70
    65
 10
0.0
 20
0.0
  0
LINE
  8
寸法
  6
CONTINUOUS
 10
38.732515
 20
22.814035
 11
38.732515
 21
20.050848
  0
POINT
  8
寸法
 10
38.732515
 20
22.814035
  0
POINT
  8
寸法
 10
38.732515
 20
20.050848
  0
TEXT
  7
TextStyle03
  8
寸法
  6
CONTINUOUS
 10
40.125
 20
12.41875
  1
82.9
 40
3.0
 50
90.0
 72
     5
 11
40.125
 21
18.98125
  0
ENDBLK
  0
BLOCK
  2
*GRP_0013
 70
    65
 10
0.0
 20
0.0
  0
LINE
  8
補助線
  6
BYBLOCK
 62
    64
 10
-91.879338
 20
-74.615697
 11
-92.028262
 21
-74.690523
  0
LINE
  8
補助線
  6
BYBLOCK
 62
    64
 10
-91.991212
 20
-74.578645
 11
-91.916388
 21
-74.727573
  0
LINE
  8
補助線
  6
BYBLOCK
 62
    64
 10
-81.960858
 20
-69.63234
 11
-82.109785
 21
-69.707165
  0
LINE
  8
補助線
  6
BYBLOCK
 62
    64
 10
-82.072735
 20
-69.595287
 11
-81.99791
 21
-69.744215
  0
LINE
  8
補助線
  6
BYBLOCK
 62
    64
 10
-72.191308
 20
-64.723808
 11
-72.04238
 21
-64.648982
  0
LINE
  8
補助線
  6
BYBLOCK
 62
    64
 10
-72.154258
 20
-64.61193
 11
-72.079432
 21
-64.760858
  0
LINE
  8
型材断面
  6
CONTINUOUS
 10
-92.625777
 20
-74.058133
 11
-92.84808
 21
-74.729385
  0
LINE
  8
型材断面
  6
CONTINUOUS
 10
-92.84808
 20
-74.729385
 11
-92.548777
 21
-75.32509
  0
LINE
  8
型材断面
  6
CONTINUOUS
 10
-92.548777
 20
-75.32509
 11
-91.877525
 21
-75.547393
  0
LINE
  8
型材断面
  6
CONTINUOUS
 10
-72.19312
 20
-63.792115
 11
-71.521865
 21
-64.014418
  0
LINE
  8
型材断面
  6
CONTINUOUS
 10
-71.521865
 20
-64.014418
 11
-71.222563
 21
-64.610123
  0
LINE
  8
型材断面
  6
CONTINUOUS
 10
-71.222563
 20
-64.610123
 11
-71.444867
 21
-65.281375
  0
LINE
  8
型材断面
  6
CONTINUOUS
 10
-92.625777
 20
-74.058133
 11
-72.19312
 21
-63.792115
  0
LINE
  8
型材断面
  6
CONTINUOUS
 10
-91.877525
 20
-75.547393
 11
-71.444867
 21
-65.281375
  0
CIRCLE
  8
ボルト／ビス
  6
CONTINUOUS
 10
-91.9538
 20
-74.65311
 40
0.250185
  0
CIRCLE
  8
ボルト／ビス
  6
CONTINUOUS
 10
-91.9538
 20
-74.65311
 40
0.301025
  0
LINE
  8
ボルト／ビス
  6
CONTINUOUS
 62
    64
 10
-92.203565
 20
-74.638608
 11
-92.06612
 21
-74.429558
  0
LINE
  8
ボルト／ビス
  6
CONTINUOUS
 62
    64
 10
-91.816355
 20
-74.44406
 11
-92.06612
 21
-74.429558
  0
LINE
  8
ボルト／ビス
  6
CONTINUOUS
 62
    64
 10
-92.091245
 20
-74.86216
 11
-91.84148
 21
-74.876663
  0
LINE
  8
ボルト／ビス
  6
CONTINUOUS
 62
    64
 10
-91.704035
 20
-74.667612
 11
-91.84148
 21
-74.876663
  0
LINE
  8
ボルト／ビス
  6
CONTINUOUS
 62
    64
 10
-92.203565
 20
-74.638608
 11
-92.091245
 21
-74.86216
  0
LINE
  8
ボルト／ビス
  6
CONTINUOUS
 62
    64
 10
-91.816355
 20
-74.44406
 11
-91.704035
 21
-74.667612
  0
CIRCLE
  8
ボルト／ビス
  6
CONTINUOUS
 62
    64
 10
-91.9538
 20
-74.65311
 40
0.216668
  0
CIRCLE
  8
ボルト／ビス
  6
CONTINUOUS
 10
-82.035322
 20
-69.669752
 40
0.250185
  0
CIRCLE
  8
ボルト／ビス
  6
CONTINUOUS
 10
-82.035322
 20
-69.669752
 40
0.301025
  0
LINE
  8
ボルト／ビス
  6
CONTINUOUS
 62
    64
 10
-82.285088
 20
-69.655248
 11
-82.147642
 21
-69.446198
  0
LINE
  8
ボルト／ビス
  6
CONTINUOUS
 62
    64
 10
-81.897877
 20
-69.4607
 11
-82.147642
 21
-69.446198
  0
LINE
  8
ボルト／ビス
  6
CONTINUOUS
 62
    64
 10
-82.172768
 20
-69.878802
 11
-81.923
 21
-69.893307
  0
LINE
  8
ボルト／ビス
  6
CONTINUOUS
 62
    64
 10
-81.785557
 20
-69.684257
 11
-81.923
 21
-69.893307
  0
LINE
  8
ボルト／ビス
  6
CONTINUOUS
 62
    64
 10
-82.285088
 20
-69.655248
 11
-82.172768
 21
-69.878802
  0
LINE
  8
ボルト／ビス
  6
CONTINUOUS
 62
    64
 10
-81.897877
 20
-69.4607
 11
-81.785557
 21
-69.684257
  0
CIRCLE
  8
ボルト／ビス
  6
CONTINUOUS
 62
    64
 10
-82.035322
 20
-69.669752
 40
0.216668
  0
CIRCLE
  8
ボルト／ビス
  6
CONTINUOUS
 10
-72.116845
 20
-64.686395
 40
0.250185
  0
CIRCLE
  8
ボルト／ビス
  6
CONTINUOUS
 10
-72.116845
 20
-64.686395
 40
0.301025
  0
LINE
  8
ボルト／ビス
  6
CONTINUOUS
 62
    64
 10
-71.9794
 20
-64.477345
 11
-72.229165
 21
-64.462842
  0
LINE
  8
ボルト／ビス
  6
CONTINUOUS
 62
    64
 10
-72.36661
 20
-64.671893
 11
-72.229165
 21
-64.462842
  0
LINE
  8
ボルト／ビス
  6
CONTINUOUS
 62
    64
 10
-71.86708
 20
-64.7009
 11
-72.004522
 21
-64.909948
  0
LINE
  8
ボルト／ビス
  6
CONTINUOUS
 62
    64
 10
-72.25429
 20
-64.895445
 11
-72.004522
 21
-64.909948
  0
LINE
  8
ボルト／ビス
  6
CONTINUOUS
 62
    64
 10
-71.9794
 20
-64.477345
 11
-71.86708
 21
-64.7009
  0
LINE
  8
ボルト／ビス
  6
CONTINUOUS
 62
    64
 10
-72.36661
 20
-64.671893
 11
-72.25429
 21
-64.895445
  0
CIRCLE
  8
ボルト／ビス
  6
CONTINUOUS
 62
    64
 10
-72.116845
 20
-64.686395
 40
0.216668
  0
ENDBLK
  0
BLOCK
  2
*GRP_0014
 70
    65
 10
0.0
 20
0.0
  0
LINE
  8
補助線
  6
BYBLOCK
 62
    64
 10
-72.191308
 20
-74.615697
 11
-72.042382
 21
-74.690523
  0
LINE
  8
補助線
  6
BYBLOCK
 62
    64
 10
-72.079432
 20
-74.578645
 11
-72.154258
 21
-74.727573
  0
LINE
  8
補助線
  6
BYBLOCK
 62
    64
 10
-82.109788
 20
-69.63234
 11
-81.96086
 21
-69.707165
  0
LINE
  8
補助線
  6
BYBLOCK
 62
    64
 10
-81.99791
 20
-69.595287
 11
-82.072735
 21
-69.744215
  0
LINE
  8
補助線
  6
BYBLOCK
 62
    64
 10
-91.879338
 20
-64.723808
 11
-92.028265
 21
-64.648982
  0
LINE
  8
補助線
  6
BYBLOCK
 62
    64
 10
-91.916388
 20
-64.61193
 11
-91.991212
 21
-64.760858
  0
LINE
  8
型材断面
  6
CONTINUOUS
 10
-71.444867
 20
-74.058133
 11
-71.222565
 21
-74.729385
  0
LINE
  8
型材断面
  6
CONTINUOUS
 10
-71.222565
 20
-74.729385
 11
-71.521868
 21
-75.32509
  0
LINE
  8
型材断面
  6
CONTINUOUS
 10
-71.521868
 20
-75.32509
 11
-72.19312
 21
-75.547393
  0
LINE
  8
型材断面
  6
CONTINUOUS
 10
-91.877525
 20
-63.792115
 11
-92.54878
 21
-64.014418
  0
LINE
  8
型材断面
  6
CONTINUOUS
 10
-92.54878
 20
-64.014418
 11
-92.848082
 21
-64.610123
  0
LINE
  8
型材断面
  6
CONTINUOUS
 10
-92.848082
 20
-64.610123
 11
-92.625777
 21
-65.281375
  0
LINE
  8
型材断面
  6
CONTINUOUS
 10
-71.444867
 20
-74.058133
 11
-91.877525
 21
-63.792115
  0
LINE
  8
型材断面
  6
CONTINUOUS
 10
-72.19312
 20
-75.547393
 11
-92.625777
 21
-65.281375
  0
CIRCLE
  8
ボルト／ビス
  6
CONTINUOUS
 10
-72.116845
 20
-74.65311
 40
0.250185
  0
CIRCLE
  8
ボルト／ビス
  6
CONTINUOUS
 10
-72.116845
 20
-74.65311
 40
0.301025
  0
LINE
  8
ボルト／ビス
  6
CONTINUOUS
 62
    64
 10
-71.86708
 20
-74.638608
 11
-72.004525
 21
-74.429558
  0
LINE
  8
ボルト／ビス
  6
CONTINUOUS
 62
    64
 10
-72.25429
 20
-74.44406
 11
-72.004525
 21
-74.429558
  0
LINE
  8
ボルト／ビス
  6
CONTINUOUS
 62
    64
 10
-71.9794
 20
-74.86216
 11
-72.229165
 21
-74.876663
  0
LINE
  8
ボルト／ビス
  6
CONTINUOUS
 62
    64
 10
-72.36661
 20
-74.667612
 11
-72.229165
 21
-74.876663
  0
LINE
  8
ボルト／ビス
  6
CONTINUOUS
 62
    64
 10
-71.86708
 20
-74.638608
 11
-71.9794
 21
-74.86216
  0
LINE
  8
ボルト／ビス
  6
CONTINUOUS
 62
    64
 10
-72.25429
 20
-74.44406
 11
-72.36661
 21
-74.667612
  0
CIRCLE
  8
ボルト／ビス
  6
CONTINUOUS
 62
    64
 10
-72.116845
 20
-74.65311
 40
0.216668
  0
CIRCLE
  8
ボルト／ビス
  6
CONTINUOUS
 10
-82.035322
 20
-69.669752
 40
0.250185
  0
CIRCLE
  8
ボルト／ビス
  6
CONTINUOUS
 10
-82.035322
 20
-69.669752
 40
0.301025
  0
LINE
  8
ボルト／ビス
  6
CONTINUOUS
 62
    64
 10
-81.785557
 20
-69.655248
 11
-81.923002
 21
-69.446198
  0
LINE
  8
ボルト／ビス
  6
CONTINUOUS
 62
    64
 10
-82.172768
 20
-69.4607
 11
-81.923002
 21
-69.446198
  0
LINE
  8
ボルト／ビス
  6
CONTINUOUS
 62
    64
 10
-81.897877
 20
-69.878802
 11
-82.147645
 21
-69.893307
  0
LINE
  8
ボルト／ビス
  6
CONTINUOUS
 62
    64
 10
-82.285088
 20
-69.684257
 11
-82.147645
 21
-69.893307
  0
LINE
  8
ボルト／ビス
  6
CONTINUOUS
 62
    64
 10
-81.785557
 20
-69.655248
 11
-81.897877
 21
-69.878802
  0
LINE
  8
ボルト／ビス
  6
CONTINUOUS
 62
    64
 10
-82.172768
 20
-69.4607
 11
-82.285088
 21
-69.684257
  0
CIRCLE
  8
ボルト／ビス
  6
CONTINUOUS
 62
    64
 10
-82.035322
 20
-69.669752
 40
0.216668
  0
CIRCLE
  8
ボルト／ビス
  6
CONTINUOUS
 10
-91.9538
 20
-64.686395
 40
0.250185
  0
CIRCLE
  8
ボルト／ビス
  6
CONTINUOUS
 10
-91.9538
 20
-64.686395
 40
0.301025
  0
LINE
  8
ボルト／ビス
  6
CONTINUOUS
 62
    64
 10
-92.091245
 20
-64.477345
 11
-91.84148
 21
-64.462842
  0
LINE
  8
ボルト／ビス
  6
CONTINUOUS
 62
    64
 10
-91.704035
 20
-64.671893
 11
-91.84148
 21
-64.462842
  0
LINE
  8
ボルト／ビス
  6
CONTINUOUS
 62
    64
 10
-92.203565
 20
-64.7009
 11
-92.066122
 21
-64.909948
  0
LINE
  8
ボルト／ビス
  6
CONTINUOUS
 62
    64
 10
-91.816355
 20
-64.895445
 11
-92.066122
 21
-64.909948
  0
LINE
  8
ボルト／ビス
  6
CONTINUOUS
 62
    64
 10
-92.091245
 20
-64.477345
 11
-92.203565
 21
-64.7009
  0
LINE
  8
ボルト／ビス
  6
CONTINUOUS
 62
    64
 10
-91.704035
 20
-64.671893
 11
-91.816355
 21
-64.895445
  0
CIRCLE
  8
ボルト／ビス
  6
CONTINUOUS
 62
    64
 10
-91.9538
 20
-64.686395
 40
0.216668
  0
ENDBLK
  0
BLOCK
  2
*GRP_0015
 70
    65
 10
0.0
 20
0.0
  0
LINE
  8
補助線
  6
BYBLOCK
 62
    64
 10
1.305072
 20
-74.615697
 11
1.453997
 21
-74.690523
  0
LINE
  8
補助線
  6
BYBLOCK
 62
    64
 10
1.416948
 20
-74.578645
 11
1.342123
 21
-74.727573
  0
LINE
  8
補助線
  6
BYBLOCK
 62
    64
 10
-8.613407
 20
-69.63234
 11
-8.46448
 21
-69.707165
  0
LINE
  8
補助線
  6
BYBLOCK
 62
    64
 10
-8.50153
 20
-69.595287
 11
-8.576355
 21
-69.744215
  0
LINE
  8
補助線
  6
BYBLOCK
 62
    64
 10
-18.382957
 20
-64.723808
 11
-18.531885
 21
-64.648982
  0
LINE
  8
補助線
  6
BYBLOCK
 62
    64
 10
-18.420007
 20
-64.61193
 11
-18.494833
 21
-64.760858
  0
LINE
  8
型材断面
  6
CONTINUOUS
 10
2.051512
 20
-74.058133
 11
2.273815
 21
-74.729385
  0
LINE
  8
型材断面
  6
CONTINUOUS
 10
2.273815
 20
-74.729385
 11
1.974512
 21
-75.32509
  0
LINE
  8
型材断面
  6
CONTINUOUS
 10
1.974512
 20
-75.32509
 11
1.30326
 21
-75.547393
  0
LINE
  8
型材断面
  6
CONTINUOUS
 10
-18.381145
 20
-63.792115
 11
-19.0524
 21
-64.014418
  0
LINE
  8
型材断面
  6
CONTINUOUS
 10
-19.0524
 20
-64.014418
 11
-19.351703
 21
-64.610123
  0
LINE
  8
型材断面
  6
CONTINUOUS
 10
-19.351703
 20
-64.610123
 11
-19.129397
 21
-65.281375
  0
LINE
  8
型材断面
  6
CONTINUOUS
 10
2.051512
 20
-74.058133
 11
-18.381145
 21
-63.792115
  0
LINE
  8
型材断面
  6
CONTINUOUS
 10
1.30326
 20
-75.547393
 11
-19.129397
 21
-65.281375
  0
CIRCLE
  8
ボルト／ビス
  6
CONTINUOUS
 10
1.379535
 20
-74.65311
 40
0.250185
  0
CIRCLE
  8
ボルト／ビス
  6
CONTINUOUS
 10
1.379535
 20
-74.65311
 40
0.301025
  0
LINE
  8
ボルト／ビス
  6
CONTINUOUS
 62
    64
 10
1.6293
 20
-74.638608
 11
1.491855
 21
-74.429558
  0
LINE
  8
ボルト／ビス
  6
CONTINUOUS
 62
    64
 10
1.24209
 20
-74.44406
 11
1.491855
 21
-74.429558
  0
LINE
  8
ボルト／ビス
  6
CONTINUOUS
 62
    64
 10
1.51698
 20
-74.86216
 11
1.267215
 21
-74.876663
  0
LINE
  8
ボルト／ビス
  6
CONTINUOUS
 62
    64
 10
1.12977
 20
-74.667612
 11
1.267215
 21
-74.876663
  0
LINE
  8
ボルト／ビス
  6
CONTINUOUS
 62
    64
 10
1.6293
 20
-74.638608
 11
1.51698
 21
-74.86216
  0
LINE
  8
ボルト／ビス
  6
CONTINUOUS
 62
    64
 10
1.24209
 20
-74.44406
 11
1.12977
 21
-74.667612
  0
CIRCLE
  8
ボルト／ビス
  6
CONTINUOUS
 62
    64
 10
1.379535
 20
-74.65311
 40
0.216668
  0
CIRCLE
  8
ボルト／ビス
  6
CONTINUOUS
 10
-8.538943
 20
-69.669752
 40
0.250185
  0
CIRCLE
  8
ボルト／ビス
  6
CONTINUOUS
 10
-8.538943
 20
-69.669752
 40
0.301025
  0
LINE
  8
ボルト／ビス
  6
CONTINUOUS
 62
    64
 10
-8.289178
 20
-69.655248
 11
-8.426623
 21
-69.446198
  0
LINE
  8
ボルト／ビス
  6
CONTINUOUS
 62
    64
 10
-8.676387
 20
-69.4607
 11
-8.426623
 21
-69.446198
  0
LINE
  8
ボルト／ビス
  6
CONTINUOUS
 62
    64
 10
-8.401498
 20
-69.878802
 11
-8.651265
 21
-69.893307
  0
LINE
  8
ボルト／ビス
  6
CONTINUOUS
 62
    64
 10
-8.788707
 20
-69.684257
 11
-8.651265
 21
-69.893307
  0
LINE
  8
ボルト／ビス
  6
CONTINUOUS
 62
    64
 10
-8.289178
 20
-69.655248
 11
-8.401498
 21
-69.878802
  0
LINE
  8
ボルト／ビス
  6
CONTINUOUS
 62
    64
 10
-8.676387
 20
-69.4607
 11
-8.788707
 21
-69.684257
  0
CIRCLE
  8
ボルト／ビス
  6
CONTINUOUS
 62
    64
 10
-8.538943
 20
-69.669752
 40
0.216668
  0
CIRCLE
  8
ボルト／ビス
  6
CONTINUOUS
 10
-18.45742
 20
-64.686395
 40
0.250185
  0
CIRCLE
  8
ボルト／ビス
  6
CONTINUOUS
 10
-18.45742
 20
-64.686395
 40
0.301025
  0
LINE
  8
ボルト／ビス
  6
CONTINUOUS
 62
    64
 10
-18.594865
 20
-64.477345
 11
-18.3451
 21
-64.462842
  0
LINE
  8
ボルト／ビス
  6
CONTINUOUS
 62
    64
 10
-18.207655
 20
-64.671893
 11
-18.3451
 21
-64.462842
  0
LINE
  8
ボルト／ビス
  6
CONTINUOUS
 62
    64
 10
-18.707185
 20
-64.7009
 11
-18.569743
 21
-64.909948
  0
LINE
  8
ボルト／ビス
  6
CONTINUOUS
 62
    64
 10
-18.319975
 20
-64.895445
 11
-18.569743
 21
-64.909948
  0
LINE
  8
ボルト／ビス
  6
CONTINUOUS
 62
    64
 10
-18.594865
 20
-64.477345
 11
-18.707185
 21
-64.7009
  0
LINE
  8
ボルト／ビス
  6
CONTINUOUS
 62
    64
 10
-18.207655
 20
-64.671893
 11
-18.319975
 21
-64.895445
  0
CIRCLE
  8
ボルト／ビス
  6
CONTINUOUS
 62
    64
 10
-18.45742
 20
-64.686395
 40
0.216668
  0
ENDBLK
  0
BLOCK
  2
*GRP_0016
 70
    65
 10
0.0
 20
0.0
  0
LINE
  8
補助線
  6
BYBLOCK
 62
    64
 10
-18.382957
 20
-74.615697
 11
-18.531883
 21
-74.690523
  0
LINE
  8
補助線
  6
BYBLOCK
 62
    64
 10
-18.494833
 20
-74.578645
 11
-18.420007
 21
-74.727573
  0
LINE
  8
補助線
  6
BYBLOCK
 62
    64
 10
-8.464477
 20
-69.63234
 11
-8.613405
 21
-69.707165
  0
LINE
  8
補助線
  6
BYBLOCK
 62
    64
 10
-8.576355
 20
-69.595287
 11
-8.50153
 21
-69.744215
  0
LINE
  8
補助線
  6
BYBLOCK
 62
    64
 10
1.305072
 20
-64.723808
 11
1.454
 21
-64.648982
  0
LINE
  8
補助線
  6
BYBLOCK
 62
    64
 10
1.342123
 20
-64.61193
 11
1.416948
 21
-64.760858
  0
LINE
  8
型材断面
  6
CONTINUOUS
 10
-19.129397
 20
-74.058133
 11
-19.3517
 21
-74.729385
  0
LINE
  8
型材断面
  6
CONTINUOUS
 10
-19.3517
 20
-74.729385
 11
-19.052398
 21
-75.32509
  0
LINE
  8
型材断面
  6
CONTINUOUS
 10
-19.052398
 20
-75.32509
 11
-18.381145
 21
-75.547393
  0
LINE
  8
型材断面
  6
CONTINUOUS
 10
1.30326
 20
-63.792115
 11
1.974515
 21
-64.014418
  0
LINE
  8
型材断面
  6
CONTINUOUS
 10
1.974515
 20
-64.014418
 11
2.273818
 21
-64.610123
  0
LINE
  8
型材断面
  6
CONTINUOUS
 10
2.273818
 20
-64.610123
 11
2.051512
 21
-65.281375
  0
LINE
  8
型材断面
  6
CONTINUOUS
 10
-19.129397
 20
-74.058133
 11
1.30326
 21
-63.792115
  0
LINE
  8
型材断面
  6
CONTINUOUS
 10
-18.381145
 20
-75.547393
 11
2.051512
 21
-65.281375
  0
CIRCLE
  8
ボルト／ビス
  6
CONTINUOUS
 10
-18.45742
 20
-74.65311
 40
0.250185
  0
CIRCLE
  8
ボルト／ビス
  6
CONTINUOUS
 10
-18.45742
 20
-74.65311
 40
0.301025
  0
LINE
  8
ボルト／ビス
  6
CONTINUOUS
 62
    64
 10
-18.707185
 20
-74.638608
 11
-18.56974
 21
-74.429558
  0
LINE
  8
ボルト／ビス
  6
CONTINUOUS
 62
    64
 10
-18.319975
 20
-74.44406
 11
-18.56974
 21
-74.429558
  0
LINE
  8
ボルト／ビス
  6
CONTINUOUS
 62
    64
 10
-18.594865
 20
-74.86216
 11
-18.3451
 21
-74.876663
  0
LINE
  8
ボルト／ビス
  6
CONTINUOUS
 62
    64
 10
-18.207655
 20
-74.667612
 11
-18.3451
 21
-74.876663
  0
LINE
  8
ボルト／ビス
  6
CONTINUOUS
 62
    64
 10
-18.707185
 20
-74.638608
 11
-18.594865
 21
-74.86216
  0
LINE
  8
ボルト／ビス
  6
CONTINUOUS
 62
    64
 10
-18.319975
 20
-74.44406
 11
-18.207655
 21
-74.667612
  0
CIRCLE
  8
ボルト／ビス
  6
CONTINUOUS
 62
    64
 10
-18.45742
 20
-74.65311
 40
0.216668
  0
CIRCLE
  8
ボルト／ビス
  6
CONTINUOUS
 10
-8.538943
 20
-69.669752
 40
0.250185
  0
CIRCLE
  8
ボルト／ビス
  6
CONTINUOUS
 10
-8.538943
 20
-69.669752
 40
0.301025
  0
LINE
  8
ボルト／ビス
  6
CONTINUOUS
 62
    64
 10
-8.788707
 20
-69.655248
 11
-8.651263
 21
-69.446198
  0
LINE
  8
ボルト／ビス
  6
CONTINUOUS
 62
    64
 10
-8.401498
 20
-69.4607
 11
-8.651263
 21
-69.446198
  0
LINE
  8
ボルト／ビス
  6
CONTINUOUS
 62
    64
 10
-8.676387
 20
-69.878802
 11
-8.42662
 21
-69.893307
  0
LINE
  8
ボルト／ビス
  6
CONTINUOUS
 62
    64
 10
-8.289178
 20
-69.684257
 11
-8.42662
 21
-69.893307
  0
LINE
  8
ボルト／ビス
  6
CONTINUOUS
 62
    64
 10
-8.788707
 20
-69.655248
 11
-8.676387
 21
-69.878802
  0
LINE
  8
ボルト／ビス
  6
CONTINUOUS
 62
    64
 10
-8.401498
 20
-69.4607
 11
-8.289178
 21
-69.684257
  0
CIRCLE
  8
ボルト／ビス
  6
CONTINUOUS
 62
    64
 10
-8.538943
 20
-69.669752
 40
0.216668
  0
CIRCLE
  8
ボルト／ビス
  6
CONTINUOUS
 10
1.379535
 20
-64.686395
 40
0.250185
  0
CIRCLE
  8
ボルト／ビス
  6
CONTINUOUS
 10
1.379535
 20
-64.686395
 40
0.301025
  0
LINE
  8
ボルト／ビス
  6
CONTINUOUS
 62
    64
 10
1.51698
 20
-64.477345
 11
1.267215
 21
-64.462842
  0
LINE
  8
ボルト／ビス
  6
CONTINUOUS
 62
    64
 10
1.12977
 20
-64.671893
 11
1.267215
 21
-64.462842
  0
LINE
  8
ボルト／ビス
  6
CONTINUOUS
 62
    64
 10
1.6293
 20
-64.7009
 11
1.491857
 21
-64.909948
  0
LINE
  8
ボルト／ビス
  6
CONTINUOUS
 62
    64
 10
1.24209
 20
-64.895445
 11
1.491857
 21
-64.909948
  0
LINE
  8
ボルト／ビス
  6
CONTINUOUS
 62
    64
 10
1.51698
 20
-64.477345
 11
1.6293
 21
-64.7009
  0
LINE
  8
ボルト／ビス
  6
CONTINUOUS
 62
    64
 10
1.12977
 20
-64.671893
 11
1.24209
 21
-64.895445
  0
CIRCLE
  8
ボルト／ビス
  6
CONTINUOUS
 62
    64
 10
1.379535
 20
-64.686395
 40
0.216668
  0
ENDBLK
  0
BLOCK
  2
*DIM_0017
 70
    65
 10
0.0
 20
0.0
  0
LINE
  8
寸法
  6
CONTINUOUS
 10
-95.287137
 20
-12.609317
 11
-98.05047
 21
-12.609317
  0
POINT
  8
寸法
 10
-95.287137
 20
-12.609317
  0
POINT
  8
寸法
 10
-98.05047
 20
-12.609317
  0
TEXT
  7
TextStyle03
  8
寸法
  6
CONTINUOUS
 10
-102.63125
 20
-11.725
  1
82.9
 40
3.0
 72
     5
 11
-96.06875
 21
-11.725
  0
ENDBLK
  0
BLOCK
  2
*DIM_0018
 70
    65
 10
0.0
 20
0.0
  0
LINE
  8
寸法
  6
CONTINUOUS
 10
7.4762
 20
-12.609317
 11
4.712865
 21
-12.609317
  0
POINT
  8
寸法
 10
7.4762
 20
-12.609317
  0
POINT
  8
寸法
 10
4.712865
 20
-12.609317
  0
TEXT
  7
TextStyle03
  8
寸法
  6
CONTINUOUS
 10
5.79375
 20
-11.775
  1
82.9
 40
3.0
 72
     5
 11
12.35625
 21
-11.775
  0
ENDBLK
  0
BLOCK
  2
*DIM_0019
 70
    65
 10
0.0
 20
0.0
  0
LINE
  8
寸法
  6
CONTINUOUS
 10
-95.287135
 20
-12.609317
 11
4.712865
 21
-12.609317
  0
POINT
  8
寸法
 10
-95.287135
 20
-12.609317
  0
POINT
  8
寸法
 10
4.712865
 20
-12.609317
  0
TEXT
  7
TextStyle03
  8
寸法
  6
CONTINUOUS
 10
-57.01875
 20
-12.25
  1
呼称寸法　3000
 40
3.0
 72
     5
 11
-33.58125
 21
-12.25
  0
ENDBLK
  0
BLOCK
  2
*DIM_0020
 70
    65
 10
0.0
 20
0.0
  0
LINE
  8
寸法
  6
CONTINUOUS
 10
99.79942
 20
-55.446698
 11
67.266087
 21
-55.446698
  0
POINT
  8
寸法
 10
99.79942
 20
-55.446698
  0
POINT
  8
寸法
 10
67.266087
 20
-55.446698
  0
TEXT
  7
TextStyle03
  8
寸法
  6
CONTINUOUS
 10
81.0875
 20
-55.1
  1
976
 40
3.0
 72
     5
 11
85.9625
 21
-55.1
  0
ENDBLK
  0
BLOCK
  2
*DIM_0021
 70
    65
 10
0.0
 20
0.0
  0
LINE
  8
寸法
  6
BYBLOCK
 62
     0
 10
23.889688
 20
-69.076395
 11
23.889688
 21
-61.743062
  0
POINT
  8
寸法
 62
     0
 10
23.889688
 20
-61.743062
  0
TEXT
  7
TextStyle03
  8
寸法
  6
CONTINUOUS
 62
     0
 10
23.5
 20
-59.84375
  1
上昇187以上
 40
3.0
 50
90.0
 72
     5
 11
23.5
 21
-41.65625
  0
ENDBLK
  0
BLOCK
  2
*DIM_0022
 70
    65
 10
0.0
 20
0.0
  0
LINE
  8
寸法
  6
BYBLOCK
 62
     0
 10
93.62958
 20
51.815152
 11
86.296248
 21
51.815152
  0
POINT
  8
寸法
 62
     0
 10
86.296248
 20
51.815152
  0
TEXT
  7
TextStyle03
  8
寸法
  6
CONTINUOUS
 62
     0
 10
64.53125
 20
49.475
  1
上昇187以上
 40
3.0
 72
     5
 11
82.71875
 21
49.475
  0
ENDBLK
  0
BLOCK
  2
*DIM_0023
 70
    65
 10
0.0
 20
0.0
  0
LINE
  8
寸法
  6
CONTINUOUS
 10
104.79942
 20
-63.785395
 11
109.411322
 21
-63.785395
  0
LINE
  8
寸法
  6
CONTINUOUS
 10
104.79942
 20
-83.785395
 11
109.411322
 21
-83.785395
  0
LINE
  8
寸法
  6
CONTINUOUS
 10
109.411322
 20
-63.785395
 11
109.411322
 21
-83.785395
  0
POINT
  8
寸法
 10
109.411322
 20
-63.785395
  0
POINT
  8
寸法
 10
109.411322
 20
-83.785395
  0
TEXT
  7
TextStyle03
  8
寸法
  6
CONTINUOUS
 10
109.025
 20
-76.2375
  1
600
 40
3.0
 50
90.0
 72
     5
 11
109.025
 21
-71.3625
  0
ENDBLK
  0
BLOCK
  2
*DIM_0024
 70
    65
 10
0.0
 20
0.0
  0
LINE
  8
寸法
  6
CONTINUOUS
 10
11.388378
 20
-69.076395
 11
23.889688
 21
-69.076395
  0
LINE
  8
寸法
  6
CONTINUOUS
 10
12.476202
 20
-77.192947
 11
23.889688
 21
-77.192947
  0
LINE
  8
寸法
  6
CONTINUOUS
 10
23.889688
 20
-69.076395
 11
23.889688
 21
-77.192947
  0
POINT
  8
寸法
 10
23.889688
 20
-69.076395
  0
POINT
  8
寸法
 10
23.889688
 20
-77.192947
  0
TEXT
  7
TextStyle03
  8
寸法
  6
CONTINUOUS
 10
26.925
 20
-77.275
  1
243.5
 40
3.0
 50
90.0
 72
     5
 11
26.925
 21
-69.025
  0
ENDBLK
  0
BLOCK
  2
*DIM_0025
 70
    65
 10
0.0
 20
0.0
  0
LINE
  8
寸法
  6
CONTINUOUS
 10
93.62958
 20
49.457957
 11
93.62958
 21
51.815152
  0
LINE
  8
寸法
  6
CONTINUOUS
 10
101.746133
 20
48.403357
 11
101.746133
 21
51.815152
  0
LINE
  8
寸法
  6
CONTINUOUS
 10
93.62958
 20
51.815152
 11
101.746133
 21
51.815152
  0
POINT
  8
寸法
 10
93.62958
 20
51.815152
  0
POINT
  8
寸法
 10
101.746133
 20
51.815152
  0
TEXT
  7
TextStyle03
  8
寸法
  6
CONTINUOUS
 10
93.6
 20
52.175
  1
243.5
 40
3.0
 72
     5
 11
101.85
 21
52.175
  0
ENDBLK
  0
ENDSEC
  0
SECTION
  2
ENTITIES
  0
POLYLINE
  8
通り芯
  6
CONTINUOUS
 66
     1
 70
     1
  0
VERTEX
  8
通り芯
 10
-210.0
 20
-148.5
  0
VERTEX
  8
通り芯
 10
210.0
 20
-148.5
  0
VERTEX
  8
通り芯
 10
210.0
 20
148.5
  0
VERTEX
  8
通り芯
 10
-210.0
 20
148.5
  0
SEQEND
  0
INSERT
  2
*GRP_0001
  8
型材断面
  6
CONTINUOUS
 10
0.0
 20
0.0
  0
LINE
  8
型材断面
  6
DASHDOT
 10
4.712865
 20
-77.836442
 11
4.712865
 21
42.814033
  0
LINE
  8
型材断面
  6
DASHDOT
 10
-45.287135
 20
-77.836442
 11
-45.287135
 21
42.814033
  0
LINE
  8
型材断面
  6
DASHDOT
 10
-95.287135
 20
-77.836442
 11
-95.287135
 21
42.814033
  0
LINE
  8
型材断面
  6
DASHDOT
 10
102.389627
 20
42.814033
 11
-95.287135
 21
42.814033
  0
LINE
  8
型材断面
  6
DASHDOT
 10
102.389627
 20
32.814033
 11
-95.287135
 21
32.814033
  0
LINE
  8
型材断面
  6
DASHDOT
 10
102.389627
 20
22.814033
 11
-95.287135
 21
22.814033
  0
POLYLINE
  8
型材断面
  6
CONTINUOUS
 66
     1
 70
     1
  0
VERTEX
  8
型材断面
 10
-35.83933
 20
13.03811
  0
VERTEX
  8
型材断面
 10
-54.61126
 20
13.03811
  0
VERTEX
  8
型材断面
 10
-54.61126
 20
8.301267
  0
VERTEX
  8
型材断面
 10
-35.83933
 20
8.301267
  0
SEQEND
  0
POLYLINE
  8
型材断面
  6
CONTINUOUS
 66
     1
 70
     1
  0
VERTEX
  8
型材断面
 10
-35.83933
 20
52.589955
  0
VERTEX
  8
型材断面
 10
-54.61126
 20
52.589955
  0
VERTEX
  8
型材断面
 10
-54.61126
 20
57.326798
  0
VERTEX
  8
型材断面
 10
-35.83933
 20
57.326798
  0
SEQEND
  0
LINE
  8
型材断面
  6
CONTINUOUS
 10
-136.139343
 20
80.791505
 11
-135.543288
 21
78.200998
  0
LINE
  8
型材断面
  6
CONTINUOUS
 10
-136.139343
 20
80.791505
 11
-136.7354
 21
78.200998
  0
LINE
  8
型材断面
  6
CONTINUOUS
 10
-136.7354
 20
78.200998
 11
-135.543288
 21
78.200998
  0
LINE
  8
型材断面
  6
CONTINUOUS
 10
-142.16193
 20
74.922105
 11
-95.920153
 21
74.922105
  0
LINE
  8
型材断面
  6
CONTINUOUS
 10
-136.139343
 20
87.32138
 11
-137.634973
 21
84.730873
  0
LINE
  8
型材断面
  6
CONTINUOUS
 10
-136.139343
 20
87.32138
 11
-134.643713
 21
84.730873
  0
LINE
  8
型材断面
  6
CONTINUOUS
 10
-134.643713
 20
84.730873
 11
-137.634973
 21
84.730873
  0
LINE
  8
型材断面
  6
CONTINUOUS
 10
-142.16193
 20
83.792277
 11
-95.920153
 21
83.792277
  0
LINE
  8
型材断面
  6
CONTINUOUS
 10
-142.16193
 20
69.134073
 11
-95.920153
 21
69.134073
  0
LINE
  8
型材断面
  6
CONTINUOUS
 10
-142.16193
 20
63.34604
 11
-95.920153
 21
63.34604
  0
INSERT
  2
*GRP_0009
  8
型材断面
  6
DASHDOT
 10
0.0
 20
0.0
  0
INSERT
  2
*GRP_0013
  8
型材断面
  6
CONTINUOUS
 10
0.0
 20
0.0
  0
INSERT
  2
*GRP_0014
  8
型材断面
  6
CONTINUOUS
 10
0.0
 20
0.0
  0
INSERT
  2
*GRP_0015
  8
型材断面
  6
CONTINUOUS
 10
0.0
 20
0.0
  0
INSERT
  2
*GRP_0016
  8
型材断面
  6
CONTINUOUS
 10
0.0
 20
0.0
  0
LINE
  8
型材断面
  6
CONTINUOUS
 10
7.4762
 20
20.050848
 11
-98.05047
 21
20.050848
  0
LINE
  8
型材断面
  6
CONTINUOUS
 10
7.4762
 20
45.57722
 11
-98.05047
 21
45.57722
  0
LINE
  8
型材断面
  6
CONTINUOUS
 10
-98.05047
 20
32.814035
 11
-100.640978
 21
34.309665
  0
LINE
  8
型材断面
  6
CONTINUOUS
 10
-98.05047
 20
32.814035
 11
-100.640978
 21
31.318405
  0
LINE
  8
型材断面
  6
CONTINUOUS
 10
-100.640978
 20
31.318405
 11
-100.640978
 21
34.309665
  0
LINE
  8
型材断面
  6
CONTINUOUS
 10
-98.05047
 20
39.114038
 11
-100.64098
 21
38.517985
  0
LINE
  8
型材断面
  6
CONTINUOUS
 10
-98.05047
 20
39.114038
 11
-100.640978
 21
39.710097
  0
LINE
  8
型材断面
  6
CONTINUOUS
 10
-100.640978
 20
39.710097
 11
-100.64098
 21
38.517985
  0
LINE
  8
型材断面
  6
CONTINUOUS
 10
-98.05047
 20
26.514033
 11
-100.64098
 21
27.110085
  0
LINE
  8
型材断面
  6
CONTINUOUS
 10
-98.05047
 20
26.514033
 11
-100.640978
 21
25.917972
  0
LINE
  8
型材断面
  6
CONTINUOUS
 10
-100.640978
 20
25.917972
 11
-100.64098
 21
27.110085
  0
LINE
  8
型材断面
  6
CONTINUOUS
 10
-78.620467
 20
45.57722
 11
-80.116097
 21
48.167727
  0
LINE
  8
型材断面
  6
CONTINUOUS
 10
-78.620467
 20
45.57722
 11
-77.124838
 21
48.167727
  0
LINE
  8
型材断面
  6
CONTINUOUS
 10
-77.124838
 20
48.167727
 11
-80.116097
 21
48.167727
  0
LINE
  8
型材断面
  6
CONTINUOUS
 10
-11.953802
 20
45.57722
 11
-10.458173
 21
48.167727
  0
LINE
  8
型材断面
  6
CONTINUOUS
 10
-11.953802
 20
45.57722
 11
-13.449432
 21
48.167727
  0
LINE
  8
型材断面
  6
CONTINUOUS
 10
-13.449432
 20
48.167727
 11
-10.458173
 21
48.167727
  0
LINE
  8
型材断面
  6
CONTINUOUS
 10
7.4762
 20
32.814033
 11
10.066707
 21
34.309663
  0
LINE
  8
型材断面
  6
CONTINUOUS
 10
7.4762
 20
32.814033
 11
10.066707
 21
31.318403
  0
LINE
  8
型材断面
  6
CONTINUOUS
 10
10.066707
 20
31.318403
 11
10.066707
 21
34.309663
  0
LINE
  8
型材断面
  6
CONTINUOUS
 10
7.4762
 20
39.114035
 11
10.06671
 21
38.517982
  0
LINE
  8
型材断面
  6
CONTINUOUS
 10
7.4762
 20
39.114035
 11
10.066707
 21
39.710095
  0
LINE
  8
型材断面
  6
CONTINUOUS
 10
10.066707
 20
39.710095
 11
10.06671
 21
38.517982
  0
LINE
  8
型材断面
  6
CONTINUOUS
 10
7.4762
 20
26.51403
 11
10.06671
 21
27.110082
  0
LINE
  8
型材断面
  6
CONTINUOUS
 10
7.4762
 20
26.51403
 11
10.066707
 21
25.91797
  0
LINE
  8
型材断面
  6
CONTINUOUS
 10
10.066707
 20
25.91797
 11
10.06671
 21
27.110082
  0
LINE
  8
型材断面
  6
CONTINUOUS
 10
-78.620467
 20
20.050848
 11
-80.116097
 21
17.46034
  0
LINE
  8
型材断面
  6
CONTINUOUS
 10
-78.620467
 20
20.050848
 11
-77.124838
 21
17.46034
  0
LINE
  8
型材断面
  6
CONTINUOUS
 10
-77.124838
 20
17.46034
 11
-80.116097
 21
17.46034
  0
LINE
  8
型材断面
  6
CONTINUOUS
 10
-11.953802
 20
20.050848
 11
-10.458173
 21
17.46034
  0
LINE
  8
型材断面
  6
CONTINUOUS
 10
-11.953802
 20
20.050848
 11
-13.449432
 21
17.46034
  0
LINE
  8
型材断面
  6
CONTINUOUS
 10
-13.449432
 20
17.46034
 11
-10.458173
 21
17.46034
  0
LINE
  8
型材断面
  6
DASHDOT
 10
-28.427135
 20
22.814033
 11
-28.427135
 21
42.814033
  0
LINE
  8
型材断面
  6
CONTINUOUS
 10
-29.677135
 20
41.31403
 11
-27.177135
 21
41.314033
  0
LINE
  8
型材断面
  6
CONTINUOUS
 10
-29.677135
 20
24.314035
 11
-27.177135
 21
24.314033
  0
LINE
  8
型材断面
  6
CONTINUOUS
 10
-29.677135
 20
41.31403
 11
-29.677135
 21
24.314035
  0
LINE
  8
型材断面
  6
CONTINUOUS
 10
-27.177135
 20
41.314033
 11
-27.177135
 21
24.314033
  0
LINE
  8
型材断面
  6
CONTINUOUS
 10
-11.440467
 20
23.480688
 11
-11.440467
 21
20.98069
  0
LINE
  8
型材断面
  6
CONTINUOUS
 10
-12.273802
 20
23.48069
 11
-12.273802
 21
20.98069
  0
LINE
  8
型材断面
  6
CONTINUOUS
 10
-44.870467
 20
23.480688
 11
-44.870467
 21
20.98069
  0
LINE
  8
型材断面
  6
CONTINUOUS
 10
-45.703802
 20
23.48069
 11
-45.703802
 21
20.98069
  0
LINE
  8
型材断面
  6
CONTINUOUS
 10
-11.440467
 20
42.147378
 11
-11.440467
 21
44.647375
  0
LINE
  8
型材断面
  6
CONTINUOUS
 10
-12.273802
 20
42.147375
 11
-12.273802
 21
44.647375
  0
LINE
  8
型材断面
  6
CONTINUOUS
 10
-44.870467
 20
42.147378
 11
-44.870467
 21
44.647375
  0
LINE
  8
型材断面
  6
CONTINUOUS
 10
-45.703802
 20
42.147375
 11
-45.703802
 21
44.647375
  0
LINE
  8
型材断面
  6
CONTINUOUS
 10
-12.273802
 20
23.48069
 11
-44.870467
 21
23.480712
  0
LINE
  8
型材断面
  6
CONTINUOUS
 10
-12.273802
 20
42.147375
 11
-44.870467
 21
42.147352
  0
LINE
  8
型材断面
  6
CONTINUOUS
 10
7.476202
 20
20.050848
 11
7.476202
 21
45.57722
  0
LINE
  8
型材断面
  6
CONTINUOUS
 10
6.310522
 20
20.98068
 11
6.546222
 21
21.21638
  0
LINE
  8
型材断面
  6
CONTINUOUS
 10
3.81052
 20
23.48068
 11
4.04622
 21
23.71638
  0
LINE
  8
型材断面
  6
CONTINUOUS
 10
4.04622
 20
23.71638
 11
6.546222
 21
21.21638
  0
LINE
  8
型材断面
  6
CONTINUOUS
 10
3.81052
 20
23.48068
 11
6.310522
 21
20.98068
  0
LINE
  8
型材断面
  6
CONTINUOUS
 10
7.476055
 20
20.050848
 11
6.42837
 21
21.098527
  0
LINE
  8
型材断面
  6
CONTINUOUS
 10
6.546207
 20
32.814033
 11
6.546222
 21
21.21638
  0
LINE
  8
型材断面
  6
CONTINUOUS
 10
4.046207
 20
33.2307
 11
6.546207
 21
33.2307
  0
LINE
  8
型材断面
  6
CONTINUOUS
 10
4.046207
 20
32.397365
 11
6.546207
 21
32.397365
  0
LINE
  8
型材断面
  6
CONTINUOUS
 10
4.046207
 20
32.397365
 11
4.04622
 21
23.71638
  0
LINE
  8
型材断面
  6
CONTINUOUS
 10
6.310522
 20
44.647385
 11
6.546222
 21
44.411685
  0
LINE
  8
型材断面
  6
CONTINUOUS
 10
3.81052
 20
42.147385
 11
4.04622
 21
41.911685
  0
LINE
  8
型材断面
  6
CONTINUOUS
 10
4.04622
 20
41.911685
 11
6.546222
 21
44.411685
  0
LINE
  8
型材断面
  6
CONTINUOUS
 10
3.81052
 20
42.147385
 11
6.310522
 21
44.647385
  0
LINE
  8
型材断面
  6
CONTINUOUS
 10
7.476055
 20
45.577218
 11
6.42837
 21
44.529537
  0
LINE
  8
型材断面
  6
CONTINUOUS
 10
4.046207
 20
33.2307
 11
4.04622
 21
41.911685
  0
LINE
  8
型材断面
  6
CONTINUOUS
 10
6.546207
 20
32.814033
 11
6.546222
 21
44.411685
  0
LINE
  8
型材断面
  6
CONTINUOUS
 10
-45.287135
 20
44.647352
 11
6.310525
 21
44.647387
  0
LINE
  8
型材断面
  6
CONTINUOUS
 10
-11.440467
 20
42.147378
 11
3.810522
 21
42.147387
  0
LINE
  8
型材断面
  6
CONTINUOUS
 10
-11.440467
 20
23.480688
 11
3.810522
 21
23.480677
  0
LINE
  8
型材断面
  6
CONTINUOUS
 10
-45.287135
 20
20.980712
 11
6.310525
 21
20.980677
  0
LINE
  8
型材断面
  6
DASHDOT
 10
-62.147135
 20
22.814033
 11
-62.147135
 21
42.814033
  0
LINE
  8
型材断面
  6
CONTINUOUS
 10
-60.897135
 20
41.31403
 11
-63.397135
 21
41.314033
  0
LINE
  8
型材断面
  6
CONTINUOUS
 10
-60.897135
 20
24.314035
 11
-63.397135
 21
24.314033
  0
LINE
  8
型材断面
  6
CONTINUOUS
 10
-60.897135
 20
41.31403
 11
-60.897135
 21
24.314035
  0
LINE
  8
型材断面
  6
CONTINUOUS
 10
-63.397135
 20
41.314033
 11
-63.397135
 21
24.314033
  0
LINE
  8
型材断面
  6
CONTINUOUS
 10
-79.133803
 20
23.480688
 11
-79.133803
 21
20.98069
  0
LINE
  8
型材断面
  6
CONTINUOUS
 10
-78.300468
 20
23.48069
 11
-78.300468
 21
20.98069
  0
LINE
  8
型材断面
  6
CONTINUOUS
 10
-79.133803
 20
42.147378
 11
-79.133803
 21
44.647375
  0
LINE
  8
型材断面
  6
CONTINUOUS
 10
-78.300468
 20
42.147375
 11
-78.300468
 21
44.647375
  0
LINE
  8
型材断面
  6
CONTINUOUS
 10
-98.050472
 20
20.050848
 11
-98.050472
 21
45.57722
  0
LINE
  8
型材断面
  6
CONTINUOUS
 10
-96.884793
 20
20.98068
 11
-97.120492
 21
21.21638
  0
LINE
  8
型材断面
  6
CONTINUOUS
 10
-94.38479
 20
23.48068
 11
-94.62049
 21
23.71638
  0
LINE
  8
型材断面
  6
CONTINUOUS
 10
-94.62049
 20
23.71638
 11
-97.120492
 21
21.21638
  0
LINE
  8
型材断面
  6
CONTINUOUS
 10
-94.38479
 20
23.48068
 11
-96.884793
 21
20.98068
  0
LINE
  8
型材断面
  6
CONTINUOUS
 10
-98.050325
 20
20.050848
 11
-97.00264
 21
21.098527
  0
LINE
  8
型材断面
  6
CONTINUOUS
 10
-97.120478
 20
32.814033
 11
-97.120492
 21
21.21638
  0
LINE
  8
型材断面
  6
CONTINUOUS
 10
-94.620478
 20
33.2307
 11
-97.120478
 21
33.2307
  0
LINE
  8
型材断面
  6
CONTINUOUS
 10
-94.620478
 20
32.397365
 11
-97.120478
 21
32.397365
  0
LINE
  8
型材断面
  6
CONTINUOUS
 10
-94.620478
 20
32.397365
 11
-94.62049
 21
23.71638
  0
LINE
  8
型材断面
  6
CONTINUOUS
 10
-96.884793
 20
44.647385
 11
-97.120492
 21
44.411685
  0
LINE
  8
型材断面
  6
CONTINUOUS
 10
-94.38479
 20
42.147385
 11
-94.62049
 21
41.911685
  0
LINE
  8
型材断面
  6
CONTINUOUS
 10
-94.62049
 20
41.911685
 11
-97.120492
 21
44.411685
  0
LINE
  8
型材断面
  6
CONTINUOUS
 10
-94.38479
 20
42.147385
 11
-96.884793
 21
44.647385
  0
LINE
  8
型材断面
  6
CONTINUOUS
 10
-98.050325
 20
45.577218
 11
-97.00264
 21
44.529537
  0
LINE
  8
型材断面
  6
CONTINUOUS
 10
-94.620478
 20
33.2307
 11
-94.62049
 21
41.911685
  0
LINE
  8
型材断面
  6
CONTINUOUS
 10
-97.120478
 20
32.814033
 11
-97.120492
 21
44.411685
  0
LINE
  8
型材断面
  6
CONTINUOUS
 10
-79.133803
 20
42.147378
 11
-94.384793
 21
42.147387
  0
LINE
  8
型材断面
  6
CONTINUOUS
 10
-79.133803
 20
23.480688
 11
-94.384793
 21
23.480677
  0
LINE
  8
型材断面
  6
CONTINUOUS
 10
-45.703802
 20
23.480712
 11
-78.300468
 21
23.48069
  0
LINE
  8
型材断面
  6
CONTINUOUS
 10
-45.703802
 20
42.147352
 11
-78.300468
 21
42.147375
  0
LINE
  8
型材断面
  6
CONTINUOUS
 10
-45.287135
 20
44.647352
 11
-96.884795
 21
44.647387
  0
LINE
  8
型材断面
  6
CONTINUOUS
 10
-45.287135
 20
20.980712
 11
-96.884795
 21
20.980677
  0
LINE
  8
型材断面
  6
CONTINUOUS
 10
6.976202
 20
-77.192947
 11
6.976202
 21
-77.529612
  0
LINE
  8
型材断面
  6
CONTINUOUS
 10
7.279535
 20
-73.096397
 11
7.476202
 21
-73.293065
  0
LINE
  8
型材断面
  6
CONTINUOUS
 10
7.476202
 20
-73.293065
 11
7.476202
 21
-77.192947
  0
LINE
  8
型材断面
  6
CONTINUOUS
 10
101.746133
 20
45.077223
 11
102.082798
 21
45.077223
  0
LINE
  8
型材断面
  6
CONTINUOUS
 10
97.649582
 20
45.380555
 11
97.84625
 21
45.577223
  0
LINE
  8
型材断面
  6
CONTINUOUS
 10
97.84625
 20
45.577223
 11
101.746133
 21
45.577223
  0
LINE
  8
型材断面
  6
CONTINUOUS
 62
    47
 10
97.649627
 20
45.380597
 11
97.649627
 21
32.814033
  0
LINE
  8
型材断面
  6
CONTINUOUS
 10
97.84625
 20
45.577223
 11
97.84625
 21
32.814033
  0
LINE
  8
型材断面
  6
CONTINUOUS
 10
102.082798
 20
45.077223
 11
102.082798
 21
32.814033
  0
LINE
  8
型材断面
  6
CONTINUOUS
 10
101.746133
 20
45.577223
 11
101.746133
 21
32.814033
  0
LINE
  8
型材断面
  6
CONTINUOUS
 10
101.746133
 20
20.550842
 11
102.082798
 21
20.550842
  0
LINE
  8
型材断面
  6
CONTINUOUS
 10
97.649582
 20
20.24751
 11
97.84625
 21
20.050842
  0
LINE
  8
型材断面
  6
CONTINUOUS
 10
97.84625
 20
20.050842
 11
101.746133
 21
20.050842
  0
LINE
  8
型材断面
  6
CONTINUOUS
 62
    47
 10
97.649627
 20
20.247467
 11
97.649627
 21
32.814033
  0
LINE
  8
型材断面
  6
CONTINUOUS
 10
97.84625
 20
20.050842
 11
97.84625
 21
32.814033
  0
LINE
  8
型材断面
  6
CONTINUOUS
 10
102.082798
 20
20.550842
 11
102.082798
 21
32.814033
  0
LINE
  8
型材断面
  6
CONTINUOUS
 10
101.746133
 20
20.050842
 11
101.746133
 21
32.814033
  0
LINE
  8
型材断面
  6
CONTINUOUS
 10
7.476202
 20
-77.192947
 11
-45.287135
 21
-77.192947
  0
LINE
  8
型材断面
  6
CONTINUOUS
 10
6.976202
 20
-77.529612
 11
-45.287135
 21
-77.529612
  0
LINE
  8
型材断面
  6
CONTINUOUS
 62
    47
 10
7.279578
 20
-73.096443
 11
-45.287135
 21
-73.096443
  0
LINE
  8
型材断面
  6
CONTINUOUS
 10
7.476202
 20
-73.293065
 11
-45.287135
 21
-73.293065
  0
LINE
  8
型材断面
  6
CONTINUOUS
 10
-97.550472
 20
-77.192947
 11
-97.550472
 21
-77.529612
  0
LINE
  8
型材断面
  6
CONTINUOUS
 10
-97.853805
 20
-73.096397
 11
-98.050472
 21
-73.293065
  0
LINE
  8
型材断面
  6
CONTINUOUS
 10
-98.050472
 20
-73.293065
 11
-98.050472
 21
-77.192947
  0
LINE
  8
型材断面
  6
CONTINUOUS
 10
-98.050472
 20
-77.192947
 11
-45.287135
 21
-77.192947
  0
LINE
  8
型材断面
  6
CONTINUOUS
 10
-97.550472
 20
-77.529612
 11
-45.287135
 21
-77.529612
  0
LINE
  8
型材断面
  6
CONTINUOUS
 62
    47
 10
-97.853848
 20
-73.096443
 11
-45.287135
 21
-73.096443
  0
LINE
  8
型材断面
  6
CONTINUOUS
 10
-98.050472
 20
-73.293065
 11
-45.287135
 21
-73.293065
  0
TEXT
  7
TextStyle03
  8
文字
  6
CONTINUOUS
 10
-53.625
 20
9.325
  1
可動装置側
 40
3.0
 72
     5
 11
-37.125
 21
9.325
  0
TEXT
  7
TextStyle03
  8
文字
  6
CONTINUOUS
 10
-53.625
 20
53.3
  1
可動装置側
 40
3.0
 72
     5
 11
-37.125
 21
53.3
  0
TEXT
  7
TextStyle03
  8
文字
  6
CONTINUOUS
 10
-133.325
 20
79.425
  1
はケーシング位置を示す
 40
3.0
 72
     5
 11
-96.575
 21
79.425
  0
TEXT
  7
TextStyle03
  8
文字
  6
CONTINUOUS
 10
-133.325
 20
76.05
  1
４ヶ所中1ヶ所に設定
 40
3.0
 72
     5
 11
-101.6375
 21
76.05
  0
TEXT
  7
TextStyle03
  8
文字
  6
CONTINUOUS
 10
-133.325
 20
84.95
  1
は排水穴位置を示す
 40
3.0
 72
     5
 11
-103.325
 21
84.95
  0
TEXT
  7
TextStyle03
  8
文字
  6
CONTINUOUS
 10
-116.35
 20
11.275
  1
アンカーピッチ
 40
3.0
 50
90.0
 72
     5
 11
-116.35
 21
34.525
  0
TEXT
  7
TextStyle03
  8
文字
  6
CONTINUOUS
 10
-85.325
 20
80.2
  1
アンカーピッチ
 40
3.0
 72
     5
 11
-62.075
 21
80.2
  0
TEXT
  7
TextStyle03
  8
文字
  6
CONTINUOUS
 10
-137.05
 20
70.075
  1
アンカー数量　１２ヶ所
 40
3.0
 72
     5
 11
-100.3
 21
70.075
  0
TEXT
  7
TextStyle03
  8
文字
  6
CONTINUOUS
 10
-137.1
 20
64.3
  1
アームユニット数　４ヶ所
 40
3.0
 72
     5
 11
-96.975
 21
64.3
  0
LINE
  8
文字
  6
CONTINUOUS
 10
95.841893
 20
45.57722
 11
38.732515
 21
45.57722
  0
LINE
  8
文字
  6
CONTINUOUS
 10
95.841893
 20
20.050848
 11
38.732515
 21
20.050848
  0
LINE
  8
文字
  6
CONTINUOUS
 10
86.296248
 20
51.815152
 11
86.296248
 21
46.90238
  0
LINE
  8
文字
  6
CONTINUOUS
 10
-98.05047
 20
-70.743062
 11
-98.05047
 21
-12.609317
  0
LINE
  8
文字
  6
CONTINUOUS
 10
7.4762
 20
-70.743062
 11
7.4762
 21
-12.609317
  0
LINE
  8
文字
  6
CONTINUOUS
 10
23.889688
 20
-61.743062
 11
10.286008
 21
-61.743062
  0
LINE
  8
文字
  6
CONTINUOUS
 10
99.79942
 20
-55.446698
 11
99.79942
 21
-62.364977
  0
LINE
  8
文字
  6
CONTINUOUS
 10
67.266087
 20
-55.446698
 11
67.266087
 21
-62.364977
  0
TEXT
  7
TextStyle03
  8
文字
  6
CONTINUOUS
 10
81.275
 20
-77.35
  1
網入り6.8t
 40
3.0
 72
     5
 11
97.9625
 21
-77.35
  0
TEXT
  7
TextStyle03
  8
文字
  6
CONTINUOUS
 10
87.95
 20
-82.025
  1
×３枚
 40
3.0
 72
     5
 11
97.7
 21
-82.025
  0
TEXT
  7
TextStyle03
  8
文字
  6
CONTINUOUS
 10
63.55
 20
125.25
  1
シリーズ：ＴＦＦＬ
 40
5.0
 72
     5
 11
113.55
 21
125.25
  0
TEXT
  7
TextStyle03
  8
文字
  6
CONTINUOUS
 10
63.55
 20
119.625
  1
　　　　　（上下可動）600×3000タイプ
 40
5.0
 72
     5
 11
166.9875
 21
119.625
  0
TEXT
  7
TextStyle03
  8
文字
  6
CONTINUOUS
 10
63.55
 20
114.0
  1
図面名　：外観姿図
 40
5.0
 72
     5
 11
113.55
 21
114.0
  0
TEXT
  7
TextStyle03
  8
文字
  6
CONTINUOUS
 10
63.55
 20
108.375
  1
　　　　　　
 40
5.0
 72
     5
 11
96.675
 21
108.375
  0
TEXT
  7
TextStyle03
  8
文字
  6
CONTINUOUS
 10
63.7
 20
104.525
  1
ＮＳコード：ＮＳＦＬ
 40
5.0
 72
     5
 11
119.325
 21
104.525
  0
INSERT
  2
*DIM_0002
  8
寸法
  6
CONTINUOUS
 10
0.0
 20
0.0
  0
INSERT
  2
*DIM_0003
  8
寸法
  6
CONTINUOUS
 10
0.0
 20
0.0
  0
INSERT
  2
*DIM_0004
  8
寸法
  6
CONTINUOUS
 10
0.0
 20
0.0
  0
INSERT
  2
*DIM_0005
  8
寸法
  6
CONTINUOUS
 10
0.0
 20
0.0
  0
INSERT
  2
*DIM_0006
  8
寸法
  6
CONTINUOUS
 10
0.0
 20
0.0
  0
INSERT
  2
*DIM_0007
  8
寸法
  6
CONTINUOUS
 10
0.0
 20
0.0
  0
INSERT
  2
*DIM_0008
  8
寸法
  6
CONTINUOUS
 10
0.0
 20
0.0
  0
INSERT
  2
*DIM_0010
  8
寸法
  6
CONTINUOUS
 10
0.0
 20
0.0
  0
INSERT
  2
*DIM_0011
  8
寸法
  6
CONTINUOUS
 10
0.0
 20
0.0
  0
INSERT
  2
*DIM_0012
  8
寸法
  6
CONTINUOUS
 10
0.0
 20
0.0
  0
INSERT
  2
*DIM_0017
  8
寸法
  6
CONTINUOUS
 10
0.0
 20
0.0
  0
INSERT
  2
*DIM_0018
  8
寸法
  6
CONTINUOUS
 10
0.0
 20
0.0
  0
INSERT
  2
*DIM_0019
  8
寸法
  6
CONTINUOUS
 10
0.0
 20
0.0
  0
INSERT
  2
*DIM_0020
  8
寸法
  6
CONTINUOUS
 10
0.0
 20
0.0
  0
INSERT
  2
*DIM_0021
  8
寸法
  6
CONTINUOUS
 10
0.0
 20
0.0
  0
INSERT
  2
*DIM_0022
  8
寸法
  6
CONTINUOUS
 10
0.0
 20
0.0
  0
INSERT
  2
*DIM_0023
  8
寸法
  6
CONTINUOUS
 10
0.0
 20
0.0
  0
INSERT
  2
*DIM_0024
  8
寸法
  6
CONTINUOUS
 10
0.0
 20
0.0
  0
INSERT
  2
*DIM_0025
  8
寸法
  6
CONTINUOUS
 10
0.0
 20
0.0
  0
LINE
  8
別途部材
  6
CONTINUOUS
 62
    47
 10
93.72958
 20
20.980845
 11
93.796248
 21
20.980845
  0
ARC
  8
別途部材
  6
CONTINUOUS
 62
    47
 10
93.729585
 20
21.080846
 40
0.1
 50
180.0
 51
270.0
  0
LINE
  8
別途部材
  6
CONTINUOUS
 62
    47
 10
93.796248
 20
21.137368
 11
95.296248
 21
21.137368
  0
LINE
  8
別途部材
  6
CONTINUOUS
 62
    47
 10
97.612915
 20
20.050848
 11
97.612915
 21
32.814033
  0
LINE
  8
別途部材
  6
CONTINUOUS
 62
    47
 10
96.44625
 20
20.050848
 11
96.44625
 21
32.814033
  0
LINE
  8
別途部材
  6
CONTINUOUS
 62
    47
 10
95.296248
 20
21.137368
 11
95.296248
 21
32.814033
  0
LINE
  8
別途部材
  6
CONTINUOUS
 62
    47
 10
93.796248
 20
20.980845
 11
93.796248
 21
32.814033
  0
LINE
  8
別途部材
  6
CONTINUOUS
 62
    47
 10
93.62958
 20
21.080845
 11
93.62958
 21
32.814033
  0
LINE
  8
別途部材
  6
CONTINUOUS
 62
    47
 10
93.72958
 20
44.647222
 11
93.796248
 21
44.647222
  0
ARC
  8
別途部材
  6
CONTINUOUS
 62
    47
 10
93.729585
 20
44.547222
 40
0.1
 50
90.0
 51
180.0
  0
LINE
  8
別途部材
  6
CONTINUOUS
 62
    47
 10
93.796248
 20
44.4907
 11
95.296248
 21
44.4907
  0
LINE
  8
別途部材
  6
CONTINUOUS
 62
    47
 10
97.612915
 20
45.57722
 11
97.612915
 21
32.814033
  0
LINE
  8
別途部材
  6
CONTINUOUS
 62
    47
 10
96.44625
 20
45.57722
 11
96.44625
 21
32.814033
  0
LINE
  8
別途部材
  6
CONTINUOUS
 62
    47
 10
95.296248
 20
44.4907
 11
95.296248
 21
32.814033
  0
LINE
  8
別途部材
  6
CONTINUOUS
 62
    47
 10
93.796248
 20
44.647222
 11
93.796248
 21
32.814033
  0
LINE
  8
別途部材
  6
CONTINUOUS
 62
    47
 10
93.62958
 20
44.547222
 11
93.62958
 21
32.814033
  0
LINE
  8
別途部材
  6
CONTINUOUS
 62
    47
 10
-97.120472
 20
-69.176395
 11
-97.120472
 21
-69.243062
  0
ARC
  8
別途部材
  6
CONTINUOUS
 62
    47
 10
-97.02047
 20
-69.176398
 40
0.1
 50
90.0
 51
180.0
  0
LINE
  8
別途部材
  6
CONTINUOUS
 62
    47
 10
-96.96395
 20
-69.243062
 11
-96.96395
 21
-70.743062
  0
LINE
  8
別途部材
  6
DOT
 62
    47
 10
-97.120472
 20
-61.843062
 11
-97.120472
 21
-61.90973
  0
ARC
  8
別途部材
  6
DOT
 62
    47
 10
-97.02047
 20
-61.843064
 40
0.1
 50
90.0
 51
180.0
  0
LINE
  8
別途部材
  6
DOT
 62
    47
 10
-96.96395
 20
-61.90973
 11
-96.96395
 21
-63.40973
  0
LINE
  8
別途部材
  6
CONTINUOUS
 62
    47
 10
6.546203
 20
-69.176395
 11
6.546203
 21
-69.243062
  0
ARC
  8
別途部材
  6
CONTINUOUS
 62
    47
 10
6.446199
 20
-69.176398
 40
0.1
 50
0.0
 51
90.0
  0
LINE
  8
別途部材
  6
CONTINUOUS
 62
    47
 10
6.38968
 20
-69.243062
 11
6.38968
 21
-70.743062
  0
LINE
  8
別途部材
  6
DOT
 62
    47
 10
6.546203
 20
-61.843062
 11
6.546203
 21
-61.90973
  0
ARC
  8
別途部材
  6
DOT
 62
    47
 10
6.446199
 20
-61.843064
 40
0.1
 50
0.0
 51
90.0
  0
LINE
  8
別途部材
  6
DOT
 62
    47
 10
6.38968
 20
-61.90973
 11
6.38968
 21
-63.40973
  0
LINE
  8
別途部材
  6
CONTINUOUS
 62
    47
 10
-98.05047
 20
-73.05973
 11
-45.287135
 21
-73.05973
  0
LINE
  8
別途部材
  6
CONTINUOUS
 62
    47
 10
-98.05047
 20
-71.893065
 11
-45.287135
 21
-71.893065
  0
LINE
  8
別途部材
  6
CONTINUOUS
 62
    47
 10
-96.96395
 20
-70.743062
 11
-45.287135
 21
-70.743062
  0
LINE
  8
別途部材
  6
CONTINUOUS
 62
    47
 10
-97.020472
 20
-69.076395
 11
-45.287135
 21
-69.076395
  0
LINE
  8
別途部材
  6
CONTINUOUS
 62
    47
 10
-97.120472
 20
-69.243062
 11
-45.287135
 21
-69.243062
  0
LINE
  8
別途部材
  6
DOT
 62
    47
 10
-96.96395
 20
-63.40973
 11
-45.287135
 21
-63.40973
  0
LINE
  8
別途部材
  6
DOT
 62
    47
 10
-97.020472
 20
-61.743062
 11
-45.287135
 21
-61.743062
  0
LINE
  8
別途部材
  6
DOT
 62
    47
 10
-97.120472
 20
-61.90973
 11
-45.287135
 21
-61.90973
  0
LINE
  8
別途部材
  6
DOT
 62
    47
 10
-98.05047
 20
-64.559732
 11
-45.287135
 21
-64.559732
  0
LINE
  8
別途部材
  6
DOT
 62
    47
 10
-98.05047
 20
-65.726397
 11
-45.287135
 21
-65.726397
  0
LINE
  8
別途部材
  6
CONTINUOUS
 62
    47
 10
7.4762
 20
-73.05973
 11
-45.287135
 21
-73.05973
  0
LINE
  8
別途部材
  6
CONTINUOUS
 62
    47
 10
7.4762
 20
-71.893065
 11
-45.287135
 21
-71.893065
  0
LINE
  8
別途部材
  6
CONTINUOUS
 62
    47
 10
6.38968
 20
-70.743062
 11
-45.287135
 21
-70.743062
  0
LINE
  8
別途部材
  6
CONTINUOUS
 62
    47
 10
6.446203
 20
-69.076395
 11
-45.287135
 21
-69.076395
  0
LINE
  8
別途部材
  6
CONTINUOUS
 62
    47
 10
6.546203
 20
-69.243062
 11
-45.287135
 21
-69.243062
  0
LINE
  8
別途部材
  6
DOT
 62
    47
 10
7.4762
 20
-64.559732
 11
-45.287135
 21
-64.559732
  0
LINE
  8
別途部材
  6
DOT
 62
    47
 10
6.38968
 20
-63.40973
 11
-45.287135
 21
-63.40973
  0
LINE
  8
別途部材
  6
DOT
 62
    47
 10
6.446203
 20
-61.743062
 11
-45.287135
 21
-61.743062
  0
LINE
  8
別途部材
  6
DOT
 62
    47
 10
6.546203
 20
-61.90973
 11
-45.287135
 21
-61.90973
  0
LINE
  8
別途部材
  6
DOT
 62
    47
 10
7.4762
 20
-65.726397
 11
-45.287135
 21
-65.726397
  0
LINE
  8
別途部材
  6
CONTINUOUS
 10
67.266087
 20
-63.785395
 11
67.266087
 21
-83.785395
  0
LINE
  8
曲げ物
  6
CONTINUOUS
 10
-10.646095
 20
34.739582
 11
-14.341407
 21
31.04427
  0
LINE
  8
曲げ物
  6
CONTINUOUS
 10
-11.349565
 20
33.203472
 11
-12.805295
 21
31.747742
  0
LINE
  8
曲げ物
  6
CONTINUOUS
 10
-12.182205
 20
34.036112
 11
-13.637935
 21
32.580383
  0
LINE
  8
曲げ物
  6
CONTINUOUS
 10
-43.64297
 20
34.739582
 11
-47.338282
 21
31.04427
  0
LINE
  8
曲げ物
  6
CONTINUOUS
 10
-44.34644
 20
33.203472
 11
-45.80217
 21
31.747742
  0
LINE
  8
曲げ物
  6
CONTINUOUS
 10
-45.17908
 20
34.036112
 11
-46.63481
 21
32.580383
  0
LINE
  8
曲げ物
  6
CONTINUOUS
 10
-78.00547
 20
34.739582
 11
-81.700782
 21
31.04427
  0
LINE
  8
曲げ物
  6
CONTINUOUS
 10
-78.70894
 20
33.203472
 11
-80.16467
 21
31.747742
  0
LINE
  8
曲げ物
  6
CONTINUOUS
 10
-79.54158
 20
34.036112
 11
-80.99731
 21
32.580383
  0
LINE
  8
曲げ物
  6
CONTINUOUS
 10
99.79942
 20
-63.785395
 11
67.266087
 21
-63.785395
  0
LINE
  8
曲げ物
  6
CONTINUOUS
 10
99.79942
 20
-83.785395
 11
67.266087
 21
-83.785395
  0
LINE
  8
曲げ物
  6
CONTINUOUS
 10
99.79942
 20
-63.785395
 11
99.79942
 21
-83.785395
  0
LINE
  8
鉄骨等
  6
CONTINUOUS
 62
    47
 10
97.612915
 20
20.050848
 11
96.44625
 21
20.050848
  0
LINE
  8
鉄骨等
  6
CONTINUOUS
 62
    47
 10
96.44625
 20
20.050848
 11
95.29625
 21
21.454032
  0
LINE
  8
鉄骨等
  6
CONTINUOUS
 62
    47
 10
97.612915
 20
45.57722
 11
96.44625
 21
45.57722
  0
LINE
  8
鉄骨等
  6
CONTINUOUS
 62
    47
 10
96.44625
 20
45.57722
 11
95.29625
 21
44.174033
  0
LINE
  8
鉄骨等
  6
CONTINUOUS
 62
    47
 10
-98.05047
 20
-73.05973
 11
-98.05047
 21
-71.893065
  0
LINE
  8
鉄骨等
  6
CONTINUOUS
 62
    47
 10
-98.05047
 20
-71.893065
 11
-96.647285
 21
-70.743065
  0
LINE
  8
鉄骨等
  6
DOT
 62
    47
 10
-98.05047
 20
-65.726397
 11
-98.05047
 21
-64.559732
  0
LINE
  8
鉄骨等
  6
DOT
 62
    47
 10
-98.05047
 20
-64.559732
 11
-96.647285
 21
-63.409732
  0
LINE
  8
鉄骨等
  6
CONTINUOUS
 62
    47
 10
7.4762
 20
-73.05973
 11
7.4762
 21
-71.893065
  0
LINE
  8
鉄骨等
  6
CONTINUOUS
 62
    47
 10
7.4762
 20
-71.893065
 11
6.073015
 21
-70.743065
  0
LINE
  8
鉄骨等
  6
DOT
 62
    47
 10
7.4762
 20
-65.726397
 11
7.4762
 21
-64.559732
  0
LINE
  8
鉄骨等
  6
DOT
 62
    47
 10
7.4762
 20
-64.559732
 11
6.073015
 21
-63.409732
  0
ENDSEC
  0
EOF
