  0
SECTION
  2
HEADER
  9
$EXTMIN
 10
-210.0
 20
-148.5
  9
$EXTMAX
 10
210.0
 20
148.5
  9
$PDMODE
 70
    32
  9
$PDSIZE
 40
1.5
  9
$LTSCALE
 40
10.0
  0
ENDSEC
  0
SECTION
  2
TABLES
  0
TABLE
  2
LTYPE
 70
    15
  0
LTYPE
  2
CONTINUOUS
 70
    64
  3
実線
 72
    65
 73
     0
 40
0.0
  0
LTYPE
  2
DASHED
 70
    64
  3
破線A
 72
    65
 73
     2
 40
0.6
 49
0.4
 49
-0.2
  0
LTYPE
  2
DASHEDX2
 70
    64
  3
破線B
 72
    65
 73
     2
 40
1.3
 49
0.9
 49
-0.4
  0
LTYPE
  2
DASHDOT
 70
    64
  3
１点鎖線A
 72
    65
 73
     4
 40
0.5375
 49
0.375
 49
-0.05
 49
0.0625
 49
-0.05
  0
LTYPE
  2
DASHDOTX2
 70
    64
  3
１点鎖線B
 72
    65
 73
     4
 40
1.075
 49
0.75
 49
-0.1
 49
0.125
 49
-0.1
  0
LTYPE
  2
DIVIDE2
 70
    64
  3
２点鎖線A
 72
    65
 73
     6
 40
0.5125
 49
0.3
 49
-0.0375
 49
0.05
 49
-0.0375
 49
0.05
 49
-0.0375
  0
LTYPE
  2
DIVIDE
 70
    64
  3
２点鎖線B
 72
    65
 73
     6
 40
1.05
 49
0.55
 49
-0.1
 49
0.1
 49
-0.1
 49
0.1
 49
-0.1
  0
LTYPE
  2
DOT
 70
    64
  3
点線A
 72
    65
 73
     2
 40
0.1125
 49
0.0625
 49
-0.05
  0
LTYPE
  2
DOTX2
 70
    64
  3
点線B
 72
    65
 73
     2
 40
0.275
 49
0.15
 49
-0.125
  0
LTYPE
  2
CONTINUOUS
 70
    64
  3
実線
 72
    65
 73
     0
 40
0.0
  0
LTYPE
  2
CONTINUOUS
 70
    64
  3
実線
 72
    65
 73
     0
 40
0.0
  0
LTYPE
  2
CONTINUOUS
 70
    64
  3
実線
 72
    65
 73
     0
 40
0.0
  0
LTYPE
  2
CONTINUOUS
 70
    64
  3
実線
 72
    65
 73
     0
 40
0.0
  0
LTYPE
  2
CONTINUOUS
 70
    64
  3
実線
 72
    65
 73
     0
 40
0.0
  0
LTYPE
  2
CONTINUOUS
 70
    64
  3
実線
 72
    65
 73
     0
 40
0.0
  0
ENDTAB
  0
TABLE
  2
LAYER
 70
    34
  0
LAYER
  2
通り芯
 70
     0
 62
    15
  6
CONTINUOUS
  0
LAYER
  2
補助線
 70
     0
 62
    16
  6
DOT
  0
LAYER
  2
躯体
 70
     0
 62
    31
  6
CONTINUOUS
  0
LAYER
  2
型材
 70
     0
 62
    32
  6
CONTINUOUS
  0
LAYER
  2
型材断面
 70
     0
 62
    47
  6
CONTINUOUS
  0
LAYER
  2
ガラス
 70
     0
 62
    48
  6
CONTINUOUS
  0
LAYER
  2
ゴム等
 70
     0
 62
    63
  6
CONTINUOUS
  0
LAYER
  2
ボルト／ビス
 70
     0
 62
    64
  6
CONTINUOUS
  0
LAYER
  2
文字
 70
     0
 62
    79
  6
CONTINUOUS
  0
LAYER
  2
寸法
 70
     0
 62
    80
  6
CONTINUOUS
  0
LAYER
  2
ﾊｯﾁﾝｸﾞ
 70
     0
 62
    95
  6
CONTINUOUS
  0
LAYER
  2
別途部材
 70
     0
 62
    96
  6
CONTINUOUS
  0
LAYER
  2
曲げ物
 70
     0
 62
   111
  6
CONTINUOUS
  0
LAYER
  2
鉄骨等
 70
     0
 62
   112
  6
CONTINUOUS
  0
LAYER
  2
St
 70
     0
 62
   127
  6
CONTINUOUS
  0
LAYER
  2
その他部品等
 70
     0
 62
   128
  6
CONTINUOUS
  0
LAYER
  2
ｶﾞｽｹｯﾄ
 70
     0
 62
   143
  6
CONTINUOUS
  0
LAYER
  2
ｽｹｯﾁ
 70
     0
 62
    14
  6
CONTINUOUS
  0
LAYER
  2
0
 70
     0
 62
    17
  6
CONTINUOUS
  0
LAYER
  2
1
 70
     0
 62
    30
  6
CONTINUOUS
  0
LAYER
  2
4
 70
     0
 62
    33
  6
CONTINUOUS
  0
LAYER
  2
ﾚｲﾔ3
 70
     0
 62
    46
  6
CONTINUOUS
  0
LAYER
  2
外形線
 70
     0
 62
    49
  6
CONTINUOUS
  0
LAYER
  2
部品
 70
     0
 62
    14
  6
CONTINUOUS
  0
LAYER
  2
サッシ芯
 70
     0
 62
    17
  6
DASHDOTX2
  0
LAYER
  2
寸法線
 70
     0
 62
    62
  6
CONTINUOUS
  0
LAYER
  2
姿図外形線
 70
     0
 62
    65
  6
CONTINUOUS
  0
LAYER
  2
姿補助線
 70
     0
 62
    30
  6
CONTINUOUS
  0
LAYER
  2
透視線
 70
     0
 62
    78
  6
DOT
  0
LAYER
  2
用紙
 70
     0
 62
    81
  6
CONTINUOUS
  0
LAYER
  2
実線図枠
 70
     0
 62
    94
  6
CONTINUOUS
  0
LAYER
  2
補助図枠
 70
     0
 62
    97
  6
CONTINUOUS
  0
LAYER
  2
建具記号
 70
     0
 62
   110
  6
CONTINUOUS
  0
LAYER
  2
補助文字
 70
     0
 62
   113
  6
CONTINUOUS
  0
ENDTAB
  0
TABLE
  2
STYLE
 70
    10
  0
STYLE
  2
STANDARD
 70
     0
 40
1.0
 41
1.0
 42
1.0
 50
0.0
 71
     0
  3
TXT
  4
BIGFONT
  0
STYLE
  2
TATE
 70
     4
 40
1.0
 41
1.0
 42
1.0
 50
0.0
 71
     0
  3
TXT
  4
BIGFONT
  0
STYLE
  2
TextStyle03
 70
     0
 40
1.0
 41
1.0
 42
1.0
 50
0.0
 71
     0
  3
MONOTXT
  4
BIGFONT
  0
STYLE
  2
TextStyle04
 70
     0
 40
1.0
 41
1.0
 42
1.0
 50
0.0
 71
     0
  3
MONOTXT
  4
BIGFONT
  0
STYLE
  2
TextStyle05
 70
     0
 40
1.0
 41
1.0
 42
1.0
 50
0.0
 71
     0
  3
MONOTXT
  4
BIGFONT
  0
STYLE
  2
TextStyle06
 70
     0
 40
1.0
 41
1.0
 42
1.0
 50
0.0
 71
     0
  3
MONOTXT
  4
BIGFONT
  0
STYLE
  2
TextStyle07
 70
     0
 40
1.0
 41
1.0
 42
1.0
 50
0.0
 71
     0
  3
MONOTXT
  4
BIGFONT
  0
STYLE
  2
TextStyle08
 70
     0
 40
1.0
 41
1.0
 42
1.0
 50
0.0
 71
     0
  3
MONOTXT
  4
BIGFONT
  0
STYLE
  2
TextStyle09
 70
     0
 40
1.0
 41
1.0
 42
1.0
 50
0.0
 71
     0
  3
MONOTXT
  4
BIGFONT
  0
STYLE
  2
TextStyle10
 70
     0
 40
1.0
 41
1.0
 42
1.0
 50
0.0
 71
     0
  3
MONOTXT
  4
BIGFONT
  0
ENDTAB
  0
ENDSEC
  0
SECTION
  2
BLOCKS
  0
BLOCK
  2
*GRP_0001
 70
    65
 10
0.0
 20
0.0
  0
LINE
  8
型材断面
  6
CONTINUOUS
 10
195.0
 20
133.5
 11
195.0
 21
-133.5
  0
LINE
  8
型材断面
  6
CONTINUOUS
 10
195.0
 20
-133.5
 11
-185.0
 21
-133.5
  0
LINE
  8
型材断面
  6
CONTINUOUS
 10
-185.0
 20
-133.5
 11
-185.0
 21
133.5
  0
LINE
  8
型材断面
  6
CONTINUOUS
 10
195.0
 20
133.5
 11
-185.0
 21
133.5
  0
LINE
  8
型材断面
  6
CONTINUOUS
 10
145.0
 20
-133.5
 11
145.0
 21
-118.5
  0
LINE
  8
型材断面
  6
CONTINUOUS
 10
195.0
 20
-118.5
 11
145.0
 21
-118.5
  0
ENDBLK
  0
BLOCK
  2
*DIM_0002
 70
    65
 10
0.0
 20
0.0
  0
LINE
  8
寸法
  6
BYBLOCK
 62
     0
 10
-61.9538
 20
19.183902
 11
-61.9538
 21
14.01842
  0
LINE
  8
寸法
  6
BYBLOCK
 62
     0
 10
-11.953805
 20
19.183902
 11
-11.953805
 21
14.01842
  0
LINE
  8
寸法
  6
BYBLOCK
 62
     0
 10
-61.9538
 20
14.01842
 11
-11.953805
 21
14.01842
  0
POINT
  8
寸法
 62
     0
 10
-61.9538
 20
14.01842
  0
POINT
  8
寸法
 62
     0
 10
-11.953805
 20
14.01842
  0
TEXT
  7
TextStyle03
  8
寸法
  6
CONTINUOUS
 62
     0
 10
-40.23125
 20
14.375
  1
1500
 40
3.0
 72
     5
 11
-33.66875
 21
14.375
  0
ENDBLK
  0
BLOCK
  2
*DIM_0003
 70
    65
 10
0.0
 20
0.0
  0
LINE
  8
寸法
  6
BYBLOCK
 62
     0
 10
5.712865
 20
42.814035
 11
15.437147
 21
42.814035
  0
LINE
  8
寸法
  6
BYBLOCK
 62
     0
 10
8.342995
 20
39.114035
 11
15.437147
 21
39.114035
  0
LINE
  8
寸法
  6
BYBLOCK
 62
     0
 10
15.437147
 20
42.814035
 11
15.437147
 21
39.114035
  0
POINT
  8
寸法
 62
     0
 10
15.437147
 20
42.814035
  0
POINT
  8
寸法
 62
     0
 10
15.437147
 20
39.114035
  0
TEXT
  7
TextStyle03
  8
寸法
  6
CONTINUOUS
 62
     0
 10
15.125
 20
43.8125
  1
111
 40
3.0
 50
90.0
 72
     5
 11
15.125
 21
48.6875
  0
ENDBLK
  0
BLOCK
  2
*DIM_0004
 70
    65
 10
0.0
 20
0.0
  0
LINE
  8
寸法
  6
BYBLOCK
 62
     0
 10
5.712865
 20
22.81403
 11
15.437147
 21
22.814027
  0
LINE
  8
寸法
  6
BYBLOCK
 62
     0
 10
8.342995
 20
26.51403
 11
15.437147
 21
26.514027
  0
LINE
  8
寸法
  6
BYBLOCK
 62
     0
 10
15.437147
 20
22.814027
 11
15.437147
 21
26.514027
  0
POINT
  8
寸法
 62
     0
 10
15.437147
 20
22.814027
  0
POINT
  8
寸法
 62
     0
 10
15.437147
 20
26.514027
  0
TEXT
  7
TextStyle03
  8
寸法
  6
CONTINUOUS
 62
     0
 10
15.45
 20
16.5625
  1
111
 40
3.0
 50
90.0
 72
     5
 11
15.45
 21
21.4375
  0
ENDBLK
  0
BLOCK
  2
*DIM_0005
 70
    65
 10
0.0
 20
0.0
  0
LINE
  8
寸法
  6
BYBLOCK
 62
     0
 10
-81.620467
 20
39.4807
 11
-94.913305
 21
39.4807
  0
LINE
  8
寸法
  6
BYBLOCK
 62
     0
 10
-81.620467
 20
26.147365
 11
-94.913305
 21
26.147365
  0
LINE
  8
寸法
  6
BYBLOCK
 62
     0
 10
-94.913305
 20
39.4807
 11
-94.913305
 21
26.147365
  0
POINT
  8
寸法
 62
     0
 10
-94.913305
 20
39.4807
  0
POINT
  8
寸法
 62
     0
 10
-94.913305
 20
26.147365
  0
TEXT
  7
TextStyle03
  8
寸法
  6
CONTINUOUS
 62
     0
 10
-95.35
 20
30.3625
  1
400
 40
3.0
 50
90.0
 72
     5
 11
-95.35
 21
35.2375
  0
ENDBLK
  0
BLOCK
  2
*DIM_0006
 70
    65
 10
0.0
 20
0.0
  0
LINE
  8
寸法
  6
BYBLOCK
 62
     0
 10
-71.953802
 20
45.814033
 11
-71.953802
 21
75.561652
  0
LINE
  8
寸法
  6
BYBLOCK
 62
     0
 10
-48.62047
 20
45.814033
 11
-48.62047
 21
75.561652
  0
LINE
  8
寸法
  6
BYBLOCK
 62
     0
 10
-71.953802
 20
75.561652
 11
-48.62047
 21
75.561652
  0
POINT
  8
寸法
 62
     0
 10
-71.953802
 20
75.561652
  0
POINT
  8
寸法
 62
     0
 10
-48.62047
 20
75.561652
  0
TEXT
  7
TextStyle03
  8
寸法
  6
CONTINUOUS
 62
     0
 10
-62.7375
 20
75.925
  1
700
 40
3.0
 72
     5
 11
-57.8625
 21
75.925
  0
ENDBLK
  0
BLOCK
  2
*DIM_0007
 70
    65
 10
0.0
 20
0.0
  0
LINE
  8
寸法
  6
BYBLOCK
 62
     0
 10
-25.287135
 20
45.814033
 11
-25.287135
 21
75.561652
  0
LINE
  8
寸法
  6
BYBLOCK
 62
     0
 10
-48.62047
 20
75.561652
 11
-25.287135
 21
75.561652
  0
POINT
  8
寸法
 62
     0
 10
-25.287135
 20
75.561652
  0
TEXT
  7
TextStyle03
  8
寸法
  6
CONTINUOUS
 62
     0
 10
-39.4125
 20
75.925
  1
700
 40
3.0
 72
     5
 11
-34.5375
 21
75.925
  0
ENDBLK
  0
BLOCK
  2
*DIM_0008
 70
    65
 10
0.0
 20
0.0
  0
LINE
  8
寸法
  6
BYBLOCK
 62
     0
 10
-1.953802
 20
45.814033
 11
-1.953802
 21
75.561652
  0
LINE
  8
寸法
  6
BYBLOCK
 62
     0
 10
-25.287135
 20
75.561652
 11
-1.953802
 21
75.561652
  0
POINT
  8
寸法
 62
     0
 10
-1.953802
 20
75.561652
  0
TEXT
  7
TextStyle03
  8
寸法
  6
CONTINUOUS
 62
     0
 10
-16.0625
 20
75.925
  1
700
 40
3.0
 72
     5
 11
-11.1875
 21
75.925
  0
ENDBLK
  0
BLOCK
  2
*GRP_0009
 70
    65
 10
0.0
 20
0.0
  0
LINE
  8
別途部材
  6
DOT
 62
    47
 10
86.396248
 20
20.980845
 11
86.462915
 21
20.980845
  0
ARC
  8
別途部材
  6
DOT
 62
    47
 10
86.396249
 20
21.080846
 40
0.1
 50
180.0
 51
270.0
  0
LINE
  8
別途部材
  6
DOT
 62
    47
 10
86.462915
 20
21.137368
 11
87.962915
 21
21.137368
  0
LINE
  8
別途部材
  6
DOT
 62
    47
 10
90.279582
 20
20.050848
 11
90.279582
 21
32.814033
  0
LINE
  8
別途部材
  6
DOT
 62
    47
 10
89.112918
 20
20.050848
 11
89.112918
 21
32.814033
  0
LINE
  8
別途部材
  6
DOT
 62
    47
 10
87.962915
 20
21.137368
 11
87.962915
 21
32.814033
  0
LINE
  8
別途部材
  6
DOT
 62
    47
 10
86.462915
 20
20.980845
 11
86.462915
 21
32.814033
  0
LINE
  8
別途部材
  6
DOT
 62
    47
 10
86.296248
 20
21.080845
 11
86.296248
 21
32.814033
  0
LINE
  8
別途部材
  6
DOT
 62
    47
 10
86.396248
 20
44.647222
 11
86.462915
 21
44.647222
  0
ARC
  8
別途部材
  6
DOT
 62
    47
 10
86.396249
 20
44.547222
 40
0.1
 50
90.0
 51
180.0
  0
LINE
  8
別途部材
  6
DOT
 62
    47
 10
86.462915
 20
44.4907
 11
87.962915
 21
44.4907
  0
LINE
  8
別途部材
  6
DOT
 62
    47
 10
90.279582
 20
45.57722
 11
90.279582
 21
32.814033
  0
LINE
  8
別途部材
  6
DOT
 62
    47
 10
89.112918
 20
45.57722
 11
89.112918
 21
32.814033
  0
LINE
  8
別途部材
  6
DOT
 62
    47
 10
87.962915
 20
44.4907
 11
87.962915
 21
32.814033
  0
LINE
  8
別途部材
  6
DOT
 62
    47
 10
86.462915
 20
44.647222
 11
86.462915
 21
32.814033
  0
LINE
  8
別途部材
  6
DOT
 62
    47
 10
86.296248
 20
44.547222
 11
86.296248
 21
32.814033
  0
LINE
  8
鉄骨等
  6
DOT
 62
    47
 10
90.279582
 20
20.050848
 11
89.112918
 21
20.050848
  0
LINE
  8
鉄骨等
  6
DOT
 62
    47
 10
89.112918
 20
20.050848
 11
87.962918
 21
21.454032
  0
LINE
  8
鉄骨等
  6
DOT
 62
    47
 10
90.279582
 20
45.57722
 11
89.112918
 21
45.57722
  0
LINE
  8
鉄骨等
  6
DOT
 62
    47
 10
89.112918
 20
45.57722
 11
87.962918
 21
44.174033
  0
ENDBLK
  0
BLOCK
  2
*DIM_0010
 70
    65
 10
0.0
 20
0.0
  0
LINE
  8
寸法
  6
BYBLOCK
 62
     0
 10
38.732515
 20
22.814035
 11
38.732515
 21
42.814035
  0
POINT
  8
寸法
 62
     0
 10
38.732515
 20
22.814035
  0
POINT
  8
寸法
 62
     0
 10
38.732515
 20
42.814035
  0
TEXT
  7
TextStyle03
  8
寸法
  6
CONTINUOUS
 62
     0
 10
38.375
 20
21.925
  1
呼称寸法　600
 40
3.0
 50
90.0
 72
     5
 11
38.375
 21
43.675
  0
ENDBLK
  0
BLOCK
  2
*DIM_0011
 70
    65
 10
0.0
 20
0.0
  0
LINE
  8
寸法
  6
CONTINUOUS
 10
38.732515
 20
45.57722
 11
38.732515
 21
42.814035
  0
POINT
  8
寸法
 10
38.732515
 20
45.57722
  0
POINT
  8
寸法
 10
38.732515
 20
42.814035
  0
TEXT
  7
TextStyle03
  8
寸法
  6
CONTINUOUS
 10
40.15
 20
46.64375
  1
82.9
 40
3.0
 50
90.0
 72
     5
 11
40.15
 21
53.20625
  0
ENDBLK
  0
BLOCK
  2
*DIM_0012
 70
    65
 10
0.0
 20
0.0
  0
LINE
  8
寸法
  6
CONTINUOUS
 10
38.732515
 20
22.814035
 11
38.732515
 21
20.050848
  0
POINT
  8
寸法
 10
38.732515
 20
22.814035
  0
POINT
  8
寸法
 10
38.732515
 20
20.050848
  0
TEXT
  7
TextStyle03
  8
寸法
  6
CONTINUOUS
 10
40.15
 20
12.41875
  1
82.9
 40
3.0
 50
90.0
 72
     5
 11
40.15
 21
18.98125
  0
ENDBLK
  0
BLOCK
  2
*DIM_0013
 70
    65
 10
0.0
 20
0.0
  0
LINE
  8
寸法
  6
CONTINUOUS
 10
-78.620472
 20
-12.609317
 11
-81.383805
 21
-12.609317
  0
POINT
  8
寸法
 10
-78.620472
 20
-12.609317
  0
POINT
  8
寸法
 10
-81.383805
 20
-12.609317
  0
TEXT
  7
TextStyle03
  8
寸法
  6
CONTINUOUS
 10
-85.95625
 20
-11.7
  1
82.9
 40
3.0
 72
     5
 11
-79.39375
 21
-11.7
  0
ENDBLK
  0
BLOCK
  2
*DIM_0014
 70
    65
 10
0.0
 20
0.0
  0
LINE
  8
寸法
  6
CONTINUOUS
 10
7.476197
 20
-12.609317
 11
4.712862
 21
-12.609317
  0
POINT
  8
寸法
 10
7.476197
 20
-12.609317
  0
POINT
  8
寸法
 10
4.712862
 20
-12.609317
  0
TEXT
  7
TextStyle03
  8
寸法
  6
CONTINUOUS
 10
5.81875
 20
-11.75
  1
82.9
 40
3.0
 72
     5
 11
12.38125
 21
-11.75
  0
ENDBLK
  0
BLOCK
  2
*DIM_0015
 70
    65
 10
0.0
 20
0.0
  0
LINE
  8
寸法
  6
CONTINUOUS
 10
-78.62047
 20
-12.609317
 11
4.712862
 21
-12.609317
  0
POINT
  8
寸法
 10
-78.62047
 20
-12.609317
  0
POINT
  8
寸法
 10
4.712862
 20
-12.609317
  0
TEXT
  7
TextStyle03
  8
寸法
  6
CONTINUOUS
 10
-48.69375
 20
-12.25
  1
呼称寸法　2500
 40
3.0
 72
     5
 11
-25.25625
 21
-12.25
  0
ENDBLK
  0
BLOCK
  2
*GRP_0016
 70
    65
 10
0.0
 20
0.0
  0
LINE
  8
補助線
  6
BYBLOCK
 62
    64
 10
-75.212675
 20
-74.615697
 11
-75.3616
 21
-74.690523
  0
LINE
  8
補助線
  6
BYBLOCK
 62
    64
 10
-75.32455
 20
-74.578645
 11
-75.249725
 21
-74.727573
  0
LINE
  8
補助線
  6
BYBLOCK
 62
    64
 10
-65.294195
 20
-69.63234
 11
-65.443123
 21
-69.707165
  0
LINE
  8
補助線
  6
BYBLOCK
 62
    64
 10
-65.406073
 20
-69.595287
 11
-65.331247
 21
-69.744215
  0
LINE
  8
補助線
  6
BYBLOCK
 62
    64
 10
-55.524645
 20
-64.723808
 11
-55.375717
 21
-64.648982
  0
LINE
  8
補助線
  6
BYBLOCK
 62
    64
 10
-55.487595
 20
-64.61193
 11
-55.41277
 21
-64.760858
  0
LINE
  8
型材断面
  6
CONTINUOUS
 10
-75.959115
 20
-74.058133
 11
-76.181418
 21
-74.729385
  0
LINE
  8
型材断面
  6
CONTINUOUS
 10
-76.181418
 20
-74.729385
 11
-75.882115
 21
-75.32509
  0
LINE
  8
型材断面
  6
CONTINUOUS
 10
-75.882115
 20
-75.32509
 11
-75.210862
 21
-75.547393
  0
LINE
  8
型材断面
  6
CONTINUOUS
 10
-55.526458
 20
-63.792115
 11
-54.855202
 21
-64.014418
  0
LINE
  8
型材断面
  6
CONTINUOUS
 10
-54.855202
 20
-64.014418
 11
-54.5559
 21
-64.610123
  0
LINE
  8
型材断面
  6
CONTINUOUS
 10
-54.5559
 20
-64.610123
 11
-54.778205
 21
-65.281375
  0
LINE
  8
型材断面
  6
CONTINUOUS
 10
-75.959115
 20
-74.058133
 11
-55.526458
 21
-63.792115
  0
LINE
  8
型材断面
  6
CONTINUOUS
 10
-75.210862
 20
-75.547393
 11
-54.778205
 21
-65.281375
  0
CIRCLE
  8
ボルト／ビス
  6
CONTINUOUS
 10
-75.287137
 20
-74.65311
 40
0.250185
  0
CIRCLE
  8
ボルト／ビス
  6
CONTINUOUS
 10
-75.287137
 20
-74.65311
 40
0.301025
  0
LINE
  8
ボルト／ビス
  6
CONTINUOUS
 62
    64
 10
-75.536902
 20
-74.638608
 11
-75.399457
 21
-74.429558
  0
LINE
  8
ボルト／ビス
  6
CONTINUOUS
 62
    64
 10
-75.149693
 20
-74.44406
 11
-75.399457
 21
-74.429558
  0
LINE
  8
ボルト／ビス
  6
CONTINUOUS
 62
    64
 10
-75.424583
 20
-74.86216
 11
-75.174817
 21
-74.876663
  0
LINE
  8
ボルト／ビス
  6
CONTINUOUS
 62
    64
 10
-75.037373
 20
-74.667612
 11
-75.174817
 21
-74.876663
  0
LINE
  8
ボルト／ビス
  6
CONTINUOUS
 62
    64
 10
-75.536902
 20
-74.638608
 11
-75.424583
 21
-74.86216
  0
LINE
  8
ボルト／ビス
  6
CONTINUOUS
 62
    64
 10
-75.149693
 20
-74.44406
 11
-75.037373
 21
-74.667612
  0
CIRCLE
  8
ボルト／ビス
  6
CONTINUOUS
 62
    64
 10
-75.287137
 20
-74.65311
 40
0.216668
  0
CIRCLE
  8
ボルト／ビス
  6
CONTINUOUS
 10
-65.36866
 20
-69.669752
 40
0.250185
  0
CIRCLE
  8
ボルト／ビス
  6
CONTINUOUS
 10
-65.36866
 20
-69.669752
 40
0.301025
  0
LINE
  8
ボルト／ビス
  6
CONTINUOUS
 62
    64
 10
-65.618425
 20
-69.655248
 11
-65.48098
 21
-69.446198
  0
LINE
  8
ボルト／ビス
  6
CONTINUOUS
 62
    64
 10
-65.231215
 20
-69.4607
 11
-65.48098
 21
-69.446198
  0
LINE
  8
ボルト／ビス
  6
CONTINUOUS
 62
    64
 10
-65.506105
 20
-69.878802
 11
-65.256337
 21
-69.893307
  0
LINE
  8
ボルト／ビス
  6
CONTINUOUS
 62
    64
 10
-65.118895
 20
-69.684257
 11
-65.256337
 21
-69.893307
  0
LINE
  8
ボルト／ビス
  6
CONTINUOUS
 62
    64
 10
-65.618425
 20
-69.655248
 11
-65.506105
 21
-69.878802
  0
LINE
  8
ボルト／ビス
  6
CONTINUOUS
 62
    64
 10
-65.231215
 20
-69.4607
 11
-65.118895
 21
-69.684257
  0
CIRCLE
  8
ボルト／ビス
  6
CONTINUOUS
 62
    64
 10
-65.36866
 20
-69.669752
 40
0.216668
  0
CIRCLE
  8
ボルト／ビス
  6
CONTINUOUS
 10
-55.450183
 20
-64.686395
 40
0.250185
  0
CIRCLE
  8
ボルト／ビス
  6
CONTINUOUS
 10
-55.450183
 20
-64.686395
 40
0.301025
  0
LINE
  8
ボルト／ビス
  6
CONTINUOUS
 62
    64
 10
-55.312738
 20
-64.477345
 11
-55.562503
 21
-64.462842
  0
LINE
  8
ボルト／ビス
  6
CONTINUOUS
 62
    64
 10
-55.699947
 20
-64.671893
 11
-55.562503
 21
-64.462842
  0
LINE
  8
ボルト／ビス
  6
CONTINUOUS
 62
    64
 10
-55.200418
 20
-64.7009
 11
-55.33786
 21
-64.909948
  0
LINE
  8
ボルト／ビス
  6
CONTINUOUS
 62
    64
 10
-55.587627
 20
-64.895445
 11
-55.33786
 21
-64.909948
  0
LINE
  8
ボルト／ビス
  6
CONTINUOUS
 62
    64
 10
-55.312738
 20
-64.477345
 11
-55.200418
 21
-64.7009
  0
LINE
  8
ボルト／ビス
  6
CONTINUOUS
 62
    64
 10
-55.699947
 20
-64.671893
 11
-55.587627
 21
-64.895445
  0
CIRCLE
  8
ボルト／ビス
  6
CONTINUOUS
 62
    64
 10
-55.450183
 20
-64.686395
 40
0.216668
  0
ENDBLK
  0
BLOCK
  2
*GRP_0017
 70
    65
 10
0.0
 20
0.0
  0
LINE
  8
補助線
  6
BYBLOCK
 62
    64
 10
-55.524645
 20
-74.615697
 11
-55.37572
 21
-74.690523
  0
LINE
  8
補助線
  6
BYBLOCK
 62
    64
 10
-55.41277
 20
-74.578645
 11
-55.487595
 21
-74.727573
  0
LINE
  8
補助線
  6
BYBLOCK
 62
    64
 10
-65.443125
 20
-69.63234
 11
-65.294197
 21
-69.707165
  0
LINE
  8
補助線
  6
BYBLOCK
 62
    64
 10
-65.331247
 20
-69.595287
 11
-65.406073
 21
-69.744215
  0
LINE
  8
補助線
  6
BYBLOCK
 62
    64
 10
-75.212675
 20
-64.723808
 11
-75.361603
 21
-64.648982
  0
LINE
  8
補助線
  6
BYBLOCK
 62
    64
 10
-75.249725
 20
-64.61193
 11
-75.32455
 21
-64.760858
  0
LINE
  8
型材断面
  6
CONTINUOUS
 10
-54.778205
 20
-74.058133
 11
-54.555902
 21
-74.729385
  0
LINE
  8
型材断面
  6
CONTINUOUS
 10
-54.555902
 20
-74.729385
 11
-54.855205
 21
-75.32509
  0
LINE
  8
型材断面
  6
CONTINUOUS
 10
-54.855205
 20
-75.32509
 11
-55.526458
 21
-75.547393
  0
LINE
  8
型材断面
  6
CONTINUOUS
 10
-75.210862
 20
-63.792115
 11
-75.882118
 21
-64.014418
  0
LINE
  8
型材断面
  6
CONTINUOUS
 10
-75.882118
 20
-64.014418
 11
-76.18142
 21
-64.610123
  0
LINE
  8
型材断面
  6
CONTINUOUS
 10
-76.18142
 20
-64.610123
 11
-75.959115
 21
-65.281375
  0
LINE
  8
型材断面
  6
CONTINUOUS
 10
-54.778205
 20
-74.058133
 11
-75.210862
 21
-63.792115
  0
LINE
  8
型材断面
  6
CONTINUOUS
 10
-55.526458
 20
-75.547393
 11
-75.959115
 21
-65.281375
  0
CIRCLE
  8
ボルト／ビス
  6
CONTINUOUS
 10
-55.450183
 20
-74.65311
 40
0.250185
  0
CIRCLE
  8
ボルト／ビス
  6
CONTINUOUS
 10
-55.450183
 20
-74.65311
 40
0.301025
  0
LINE
  8
ボルト／ビス
  6
CONTINUOUS
 62
    64
 10
-55.200418
 20
-74.638608
 11
-55.337863
 21
-74.429558
  0
LINE
  8
ボルト／ビス
  6
CONTINUOUS
 62
    64
 10
-55.587627
 20
-74.44406
 11
-55.337863
 21
-74.429558
  0
LINE
  8
ボルト／ビス
  6
CONTINUOUS
 62
    64
 10
-55.312738
 20
-74.86216
 11
-55.562503
 21
-74.876663
  0
LINE
  8
ボルト／ビス
  6
CONTINUOUS
 62
    64
 10
-55.699947
 20
-74.667612
 11
-55.562503
 21
-74.876663
  0
LINE
  8
ボルト／ビス
  6
CONTINUOUS
 62
    64
 10
-55.200418
 20
-74.638608
 11
-55.312738
 21
-74.86216
  0
LINE
  8
ボルト／ビス
  6
CONTINUOUS
 62
    64
 10
-55.587627
 20
-74.44406
 11
-55.699947
 21
-74.667612
  0
CIRCLE
  8
ボルト／ビス
  6
CONTINUOUS
 62
    64
 10
-55.450183
 20
-74.65311
 40
0.216668
  0
CIRCLE
  8
ボルト／ビス
  6
CONTINUOUS
 10
-65.36866
 20
-69.669752
 40
0.250185
  0
CIRCLE
  8
ボルト／ビス
  6
CONTINUOUS
 10
-65.36866
 20
-69.669752
 40
0.301025
  0
LINE
  8
ボルト／ビス
  6
CONTINUOUS
 62
    64
 10
-65.118895
 20
-69.655248
 11
-65.25634
 21
-69.446198
  0
LINE
  8
ボルト／ビス
  6
CONTINUOUS
 62
    64
 10
-65.506105
 20
-69.4607
 11
-65.25634
 21
-69.446198
  0
LINE
  8
ボルト／ビス
  6
CONTINUOUS
 62
    64
 10
-65.231215
 20
-69.878802
 11
-65.480983
 21
-69.893307
  0
LINE
  8
ボルト／ビス
  6
CONTINUOUS
 62
    64
 10
-65.618425
 20
-69.684257
 11
-65.480983
 21
-69.893307
  0
LINE
  8
ボルト／ビス
  6
CONTINUOUS
 62
    64
 10
-65.118895
 20
-69.655248
 11
-65.231215
 21
-69.878802
  0
LINE
  8
ボルト／ビス
  6
CONTINUOUS
 62
    64
 10
-65.506105
 20
-69.4607
 11
-65.618425
 21
-69.684257
  0
CIRCLE
  8
ボルト／ビス
  6
CONTINUOUS
 62
    64
 10
-65.36866
 20
-69.669752
 40
0.216668
  0
CIRCLE
  8
ボルト／ビス
  6
CONTINUOUS
 10
-75.287137
 20
-64.686395
 40
0.250185
  0
CIRCLE
  8
ボルト／ビス
  6
CONTINUOUS
 10
-75.287137
 20
-64.686395
 40
0.301025
  0
LINE
  8
ボルト／ビス
  6
CONTINUOUS
 62
    64
 10
-75.424583
 20
-64.477345
 11
-75.174817
 21
-64.462842
  0
LINE
  8
ボルト／ビス
  6
CONTINUOUS
 62
    64
 10
-75.037373
 20
-64.671893
 11
-75.174817
 21
-64.462842
  0
LINE
  8
ボルト／ビス
  6
CONTINUOUS
 62
    64
 10
-75.536902
 20
-64.7009
 11
-75.39946
 21
-64.909948
  0
LINE
  8
ボルト／ビス
  6
CONTINUOUS
 62
    64
 10
-75.149693
 20
-64.895445
 11
-75.39946
 21
-64.909948
  0
LINE
  8
ボルト／ビス
  6
CONTINUOUS
 62
    64
 10
-75.424583
 20
-64.477345
 11
-75.536902
 21
-64.7009
  0
LINE
  8
ボルト／ビス
  6
CONTINUOUS
 62
    64
 10
-75.037373
 20
-64.671893
 11
-75.149693
 21
-64.895445
  0
CIRCLE
  8
ボルト／ビス
  6
CONTINUOUS
 62
    64
 10
-75.287137
 20
-64.686395
 40
0.216668
  0
ENDBLK
  0
BLOCK
  2
*GRP_0018
 70
    65
 10
0.0
 20
0.0
  0
LINE
  8
補助線
  6
BYBLOCK
 62
    64
 10
1.30507
 20
-74.615697
 11
1.453995
 21
-74.690523
  0
LINE
  8
補助線
  6
BYBLOCK
 62
    64
 10
1.416945
 20
-74.578645
 11
1.34212
 21
-74.727573
  0
LINE
  8
補助線
  6
BYBLOCK
 62
    64
 10
-8.61341
 20
-69.63234
 11
-8.464483
 21
-69.707165
  0
LINE
  8
補助線
  6
BYBLOCK
 62
    64
 10
-8.501533
 20
-69.595287
 11
-8.576357
 21
-69.744215
  0
LINE
  8
補助線
  6
BYBLOCK
 62
    64
 10
-18.38296
 20
-64.723808
 11
-18.531887
 21
-64.648982
  0
LINE
  8
補助線
  6
BYBLOCK
 62
    64
 10
-18.42001
 20
-64.61193
 11
-18.494835
 21
-64.760858
  0
LINE
  8
型材断面
  6
CONTINUOUS
 10
2.05151
 20
-74.058133
 11
2.273812
 21
-74.729385
  0
LINE
  8
型材断面
  6
CONTINUOUS
 10
2.273812
 20
-74.729385
 11
1.97451
 21
-75.32509
  0
LINE
  8
型材断面
  6
CONTINUOUS
 10
1.97451
 20
-75.32509
 11
1.303257
 21
-75.547393
  0
LINE
  8
型材断面
  6
CONTINUOUS
 10
-18.381148
 20
-63.792115
 11
-19.052402
 21
-64.014418
  0
LINE
  8
型材断面
  6
CONTINUOUS
 10
-19.052402
 20
-64.014418
 11
-19.351705
 21
-64.610123
  0
LINE
  8
型材断面
  6
CONTINUOUS
 10
-19.351705
 20
-64.610123
 11
-19.1294
 21
-65.281375
  0
LINE
  8
型材断面
  6
CONTINUOUS
 10
2.05151
 20
-74.058133
 11
-18.381148
 21
-63.792115
  0
LINE
  8
型材断面
  6
CONTINUOUS
 10
1.303257
 20
-75.547393
 11
-19.1294
 21
-65.281375
  0
CIRCLE
  8
ボルト／ビス
  6
CONTINUOUS
 10
1.379532
 20
-74.65311
 40
0.250185
  0
CIRCLE
  8
ボルト／ビス
  6
CONTINUOUS
 10
1.379532
 20
-74.65311
 40
0.301025
  0
LINE
  8
ボルト／ビス
  6
CONTINUOUS
 62
    64
 10
1.629298
 20
-74.638608
 11
1.491852
 21
-74.429558
  0
LINE
  8
ボルト／ビス
  6
CONTINUOUS
 62
    64
 10
1.242087
 20
-74.44406
 11
1.491852
 21
-74.429558
  0
LINE
  8
ボルト／ビス
  6
CONTINUOUS
 62
    64
 10
1.516978
 20
-74.86216
 11
1.267212
 21
-74.876663
  0
LINE
  8
ボルト／ビス
  6
CONTINUOUS
 62
    64
 10
1.129767
 20
-74.667612
 11
1.267212
 21
-74.876663
  0
LINE
  8
ボルト／ビス
  6
CONTINUOUS
 62
    64
 10
1.629298
 20
-74.638608
 11
1.516978
 21
-74.86216
  0
LINE
  8
ボルト／ビス
  6
CONTINUOUS
 62
    64
 10
1.242087
 20
-74.44406
 11
1.129767
 21
-74.667612
  0
CIRCLE
  8
ボルト／ビス
  6
CONTINUOUS
 62
    64
 10
1.379532
 20
-74.65311
 40
0.216668
  0
CIRCLE
  8
ボルト／ビス
  6
CONTINUOUS
 10
-8.538945
 20
-69.669752
 40
0.250185
  0
CIRCLE
  8
ボルト／ビス
  6
CONTINUOUS
 10
-8.538945
 20
-69.669752
 40
0.301025
  0
LINE
  8
ボルト／ビス
  6
CONTINUOUS
 62
    64
 10
-8.28918
 20
-69.655248
 11
-8.426625
 21
-69.446198
  0
LINE
  8
ボルト／ビス
  6
CONTINUOUS
 62
    64
 10
-8.67639
 20
-69.4607
 11
-8.426625
 21
-69.446198
  0
LINE
  8
ボルト／ビス
  6
CONTINUOUS
 62
    64
 10
-8.4015
 20
-69.878802
 11
-8.651267
 21
-69.893307
  0
LINE
  8
ボルト／ビス
  6
CONTINUOUS
 62
    64
 10
-8.78871
 20
-69.684257
 11
-8.651267
 21
-69.893307
  0
LINE
  8
ボルト／ビス
  6
CONTINUOUS
 62
    64
 10
-8.28918
 20
-69.655248
 11
-8.4015
 21
-69.878802
  0
LINE
  8
ボルト／ビス
  6
CONTINUOUS
 62
    64
 10
-8.67639
 20
-69.4607
 11
-8.78871
 21
-69.684257
  0
CIRCLE
  8
ボルト／ビス
  6
CONTINUOUS
 62
    64
 10
-8.538945
 20
-69.669752
 40
0.216668
  0
CIRCLE
  8
ボルト／ビス
  6
CONTINUOUS
 10
-18.457423
 20
-64.686395
 40
0.250185
  0
CIRCLE
  8
ボルト／ビス
  6
CONTINUOUS
 10
-18.457423
 20
-64.686395
 40
0.301025
  0
LINE
  8
ボルト／ビス
  6
CONTINUOUS
 62
    64
 10
-18.594867
 20
-64.477345
 11
-18.345103
 21
-64.462842
  0
LINE
  8
ボルト／ビス
  6
CONTINUOUS
 62
    64
 10
-18.207658
 20
-64.671893
 11
-18.345103
 21
-64.462842
  0
LINE
  8
ボルト／ビス
  6
CONTINUOUS
 62
    64
 10
-18.707187
 20
-64.7009
 11
-18.569745
 21
-64.909948
  0
LINE
  8
ボルト／ビス
  6
CONTINUOUS
 62
    64
 10
-18.319978
 20
-64.895445
 11
-18.569745
 21
-64.909948
  0
LINE
  8
ボルト／ビス
  6
CONTINUOUS
 62
    64
 10
-18.594867
 20
-64.477345
 11
-18.707187
 21
-64.7009
  0
LINE
  8
ボルト／ビス
  6
CONTINUOUS
 62
    64
 10
-18.207658
 20
-64.671893
 11
-18.319978
 21
-64.895445
  0
CIRCLE
  8
ボルト／ビス
  6
CONTINUOUS
 62
    64
 10
-18.457423
 20
-64.686395
 40
0.216668
  0
ENDBLK
  0
BLOCK
  2
*GRP_0019
 70
    65
 10
0.0
 20
0.0
  0
LINE
  8
補助線
  6
BYBLOCK
 62
    64
 10
-18.38296
 20
-74.615697
 11
-18.531885
 21
-74.690523
  0
LINE
  8
補助線
  6
BYBLOCK
 62
    64
 10
-18.494835
 20
-74.578645
 11
-18.42001
 21
-74.727573
  0
LINE
  8
補助線
  6
BYBLOCK
 62
    64
 10
-8.46448
 20
-69.63234
 11
-8.613407
 21
-69.707165
  0
LINE
  8
補助線
  6
BYBLOCK
 62
    64
 10
-8.576357
 20
-69.595287
 11
-8.501533
 21
-69.744215
  0
LINE
  8
補助線
  6
BYBLOCK
 62
    64
 10
1.30507
 20
-64.723808
 11
1.453997
 21
-64.648982
  0
LINE
  8
補助線
  6
BYBLOCK
 62
    64
 10
1.34212
 20
-64.61193
 11
1.416945
 21
-64.760858
  0
LINE
  8
型材断面
  6
CONTINUOUS
 10
-19.1294
 20
-74.058133
 11
-19.351703
 21
-74.729385
  0
LINE
  8
型材断面
  6
CONTINUOUS
 10
-19.351703
 20
-74.729385
 11
-19.0524
 21
-75.32509
  0
LINE
  8
型材断面
  6
CONTINUOUS
 10
-19.0524
 20
-75.32509
 11
-18.381148
 21
-75.547393
  0
LINE
  8
型材断面
  6
CONTINUOUS
 10
1.303257
 20
-63.792115
 11
1.974512
 21
-64.014418
  0
LINE
  8
型材断面
  6
CONTINUOUS
 10
1.974512
 20
-64.014418
 11
2.273815
 21
-64.610123
  0
LINE
  8
型材断面
  6
CONTINUOUS
 10
2.273815
 20
-64.610123
 11
2.05151
 21
-65.281375
  0
LINE
  8
型材断面
  6
CONTINUOUS
 10
-19.1294
 20
-74.058133
 11
1.303257
 21
-63.792115
  0
LINE
  8
型材断面
  6
CONTINUOUS
 10
-18.381148
 20
-75.547393
 11
2.05151
 21
-65.281375
  0
CIRCLE
  8
ボルト／ビス
  6
CONTINUOUS
 10
-18.457423
 20
-74.65311
 40
0.250185
  0
CIRCLE
  8
ボルト／ビス
  6
CONTINUOUS
 10
-18.457423
 20
-74.65311
 40
0.301025
  0
LINE
  8
ボルト／ビス
  6
CONTINUOUS
 62
    64
 10
-18.707187
 20
-74.638608
 11
-18.569743
 21
-74.429558
  0
LINE
  8
ボルト／ビス
  6
CONTINUOUS
 62
    64
 10
-18.319978
 20
-74.44406
 11
-18.569743
 21
-74.429558
  0
LINE
  8
ボルト／ビス
  6
CONTINUOUS
 62
    64
 10
-18.594867
 20
-74.86216
 11
-18.345103
 21
-74.876663
  0
LINE
  8
ボルト／ビス
  6
CONTINUOUS
 62
    64
 10
-18.207658
 20
-74.667612
 11
-18.345103
 21
-74.876663
  0
LINE
  8
ボルト／ビス
  6
CONTINUOUS
 62
    64
 10
-18.707187
 20
-74.638608
 11
-18.594867
 21
-74.86216
  0
LINE
  8
ボルト／ビス
  6
CONTINUOUS
 62
    64
 10
-18.319978
 20
-74.44406
 11
-18.207658
 21
-74.667612
  0
CIRCLE
  8
ボルト／ビス
  6
CONTINUOUS
 62
    64
 10
-18.457423
 20
-74.65311
 40
0.216668
  0
CIRCLE
  8
ボルト／ビス
  6
CONTINUOUS
 10
-8.538945
 20
-69.669752
 40
0.250185
  0
CIRCLE
  8
ボルト／ビス
  6
CONTINUOUS
 10
-8.538945
 20
-69.669752
 40
0.301025
  0
LINE
  8
ボルト／ビス
  6
CONTINUOUS
 62
    64
 10
-8.78871
 20
-69.655248
 11
-8.651265
 21
-69.446198
  0
LINE
  8
ボルト／ビス
  6
CONTINUOUS
 62
    64
 10
-8.4015
 20
-69.4607
 11
-8.651265
 21
-69.446198
  0
LINE
  8
ボルト／ビス
  6
CONTINUOUS
 62
    64
 10
-8.67639
 20
-69.878802
 11
-8.426623
 21
-69.893307
  0
LINE
  8
ボルト／ビス
  6
CONTINUOUS
 62
    64
 10
-8.28918
 20
-69.684257
 11
-8.426623
 21
-69.893307
  0
LINE
  8
ボルト／ビス
  6
CONTINUOUS
 62
    64
 10
-8.78871
 20
-69.655248
 11
-8.67639
 21
-69.878802
  0
LINE
  8
ボルト／ビス
  6
CONTINUOUS
 62
    64
 10
-8.4015
 20
-69.4607
 11
-8.28918
 21
-69.684257
  0
CIRCLE
  8
ボルト／ビス
  6
CONTINUOUS
 62
    64
 10
-8.538945
 20
-69.669752
 40
0.216668
  0
CIRCLE
  8
ボルト／ビス
  6
CONTINUOUS
 10
1.379532
 20
-64.686395
 40
0.250185
  0
CIRCLE
  8
ボルト／ビス
  6
CONTINUOUS
 10
1.379532
 20
-64.686395
 40
0.301025
  0
LINE
  8
ボルト／ビス
  6
CONTINUOUS
 62
    64
 10
1.516978
 20
-64.477345
 11
1.267212
 21
-64.462842
  0
LINE
  8
ボルト／ビス
  6
CONTINUOUS
 62
    64
 10
1.129767
 20
-64.671893
 11
1.267212
 21
-64.462842
  0
LINE
  8
ボルト／ビス
  6
CONTINUOUS
 62
    64
 10
1.629298
 20
-64.7009
 11
1.491855
 21
-64.909948
  0
LINE
  8
ボルト／ビス
  6
CONTINUOUS
 62
    64
 10
1.242087
 20
-64.895445
 11
1.491855
 21
-64.909948
  0
LINE
  8
ボルト／ビス
  6
CONTINUOUS
 62
    64
 10
1.516978
 20
-64.477345
 11
1.629298
 21
-64.7009
  0
LINE
  8
ボルト／ビス
  6
CONTINUOUS
 62
    64
 10
1.129767
 20
-64.671893
 11
1.242087
 21
-64.895445
  0
CIRCLE
  8
ボルト／ビス
  6
CONTINUOUS
 62
    64
 10
1.379532
 20
-64.686395
 40
0.216668
  0
ENDBLK
  0
BLOCK
  2
*DIM_0020
 70
    65
 10
0.0
 20
0.0
  0
LINE
  8
寸法
  6
CONTINUOUS
 10
99.79942
 20
-55.652167
 11
58.732753
 21
-55.652167
  0
POINT
  8
寸法
 10
99.79942
 20
-55.652167
  0
POINT
  8
寸法
 10
58.732753
 20
-55.652167
  0
TEXT
  7
TextStyle03
  8
寸法
  6
CONTINUOUS
 10
75.96875
 20
-55.3
  1
1232
 40
3.0
 72
     5
 11
82.53125
 21
-55.3
  0
ENDBLK
  0
BLOCK
  2
*DIM_0021
 70
    65
 10
0.0
 20
0.0
  0
LINE
  8
寸法
  6
BYBLOCK
 62
     0
 10
23.889685
 20
-69.076395
 11
23.889685
 21
-61.743062
  0
POINT
  8
寸法
 62
     0
 10
23.889685
 20
-61.743062
  0
TEXT
  7
TextStyle03
  8
寸法
  6
CONTINUOUS
 62
     0
 10
23.225
 20
-60.31875
  1
上昇179以上
 40
3.0
 50
90.0
 72
     5
 11
23.225
 21
-42.13125
  0
ENDBLK
  0
BLOCK
  2
*DIM_0022
 70
    65
 10
0.0
 20
0.0
  0
LINE
  8
寸法
  6
BYBLOCK
 62
     0
 10
93.62958
 20
51.815152
 11
86.296248
 21
51.815152
  0
POINT
  8
寸法
 62
     0
 10
86.296248
 20
51.815152
  0
TEXT
  7
TextStyle03
  8
寸法
  6
CONTINUOUS
 62
     0
 10
63.88125
 20
50.0
  1
上昇179以上
 40
3.0
 72
     5
 11
82.06875
 21
50.0
  0
ENDBLK
  0
BLOCK
  2
*DIM_0023
 70
    65
 10
0.0
 20
0.0
  0
LINE
  8
寸法
  6
CONTINUOUS
 10
104.79942
 20
-63.785395
 11
109.843663
 21
-63.785395
  0
LINE
  8
寸法
  6
CONTINUOUS
 10
104.79942
 20
-83.785395
 11
109.843663
 21
-83.785395
  0
LINE
  8
寸法
  6
CONTINUOUS
 10
109.843663
 20
-63.785395
 11
109.843663
 21
-83.785395
  0
POINT
  8
寸法
 10
109.843663
 20
-63.785395
  0
POINT
  8
寸法
 10
109.843663
 20
-83.785395
  0
TEXT
  7
TextStyle03
  8
寸法
  6
CONTINUOUS
 10
109.45
 20
-76.2375
  1
600
 40
3.0
 50
90.0
 72
     5
 11
109.45
 21
-71.3625
  0
ENDBLK
  0
BLOCK
  2
*DIM_0024
 70
    65
 10
0.0
 20
0.0
  0
LINE
  8
寸法
  6
CONTINUOUS
 10
11.388375
 20
-69.076395
 11
23.889685
 21
-69.076395
  0
LINE
  8
寸法
  6
CONTINUOUS
 10
12.4762
 20
-77.192947
 11
23.889685
 21
-77.192947
  0
LINE
  8
寸法
  6
CONTINUOUS
 10
23.889685
 20
-69.076395
 11
23.889685
 21
-77.192947
  0
POINT
  8
寸法
 10
23.889685
 20
-69.076395
  0
POINT
  8
寸法
 10
23.889685
 20
-77.192947
  0
TEXT
  7
TextStyle03
  8
寸法
  6
CONTINUOUS
 10
26.925
 20
-77.275
  1
243.5
 40
3.0
 50
90.0
 72
     5
 11
26.925
 21
-69.025
  0
ENDBLK
  0
BLOCK
  2
*DIM_0025
 70
    65
 10
0.0
 20
0.0
  0
LINE
  8
寸法
  6
CONTINUOUS
 10
93.62958
 20
49.457957
 11
93.62958
 21
51.815152
  0
LINE
  8
寸法
  6
CONTINUOUS
 10
101.746133
 20
48.403357
 11
101.746133
 21
51.815152
  0
LINE
  8
寸法
  6
CONTINUOUS
 10
93.62958
 20
51.815152
 11
101.746133
 21
51.815152
  0
POINT
  8
寸法
 10
93.62958
 20
51.815152
  0
POINT
  8
寸法
 10
101.746133
 20
51.815152
  0
TEXT
  7
TextStyle03
  8
寸法
  6
CONTINUOUS
 10
93.6
 20
52.175
  1
243.5
 40
3.0
 72
     5
 11
101.85
 21
52.175
  0
ENDBLK
  0
ENDSEC
  0
SECTION
  2
ENTITIES
  0
POLYLINE
  8
通り芯
  6
CONTINUOUS
 66
     1
 70
     1
  0
VERTEX
  8
通り芯
 10
-210.0
 20
-148.5
  0
VERTEX
  8
通り芯
 10
210.0
 20
-148.5
  0
VERTEX
  8
通り芯
 10
210.0
 20
148.5
  0
VERTEX
  8
通り芯
 10
-210.0
 20
148.5
  0
SEQEND
  0
INSERT
  2
*GRP_0001
  8
型材断面
  6
CONTINUOUS
 10
0.0
 20
0.0
  0
LINE
  8
型材断面
  6
DASHDOT
 10
4.712865
 20
-77.836442
 11
4.712865
 21
42.814033
  0
LINE
  8
型材断面
  6
DASHDOT
 10
-36.953802
 20
-77.836442
 11
-36.953802
 21
42.814033
  0
LINE
  8
型材断面
  6
DASHDOT
 10
-78.620467
 20
-77.836442
 11
-78.620467
 21
42.814033
  0
LINE
  8
型材断面
  6
DASHDOT
 10
102.389627
 20
42.814033
 11
-78.620467
 21
42.814033
  0
LINE
  8
型材断面
  6
DASHDOT
 10
102.389627
 20
32.814033
 11
-78.620467
 21
32.814033
  0
LINE
  8
型材断面
  6
DASHDOT
 10
102.389627
 20
22.814033
 11
-78.620467
 21
22.814033
  0
LINE
  8
型材断面
  6
DASHDOT
 10
-36.953802
 20
22.814033
 11
-36.953802
 21
42.814033
  0
POLYLINE
  8
型材断面
  6
CONTINUOUS
 66
     1
 70
     1
  0
VERTEX
  8
型材断面
 10
-27.384055
 20
13.03811
  0
VERTEX
  8
型材断面
 10
-46.155985
 20
13.03811
  0
VERTEX
  8
型材断面
 10
-46.155985
 20
8.301267
  0
VERTEX
  8
型材断面
 10
-27.384055
 20
8.301267
  0
SEQEND
  0
POLYLINE
  8
型材断面
  6
CONTINUOUS
 66
     1
 70
     1
  0
VERTEX
  8
型材断面
 10
-27.384055
 20
52.589955
  0
VERTEX
  8
型材断面
 10
-46.155985
 20
52.589955
  0
VERTEX
  8
型材断面
 10
-46.155985
 20
57.326798
  0
VERTEX
  8
型材断面
 10
-27.384055
 20
57.326798
  0
SEQEND
  0
LINE
  8
型材断面
  6
CONTINUOUS
 10
-119.472675
 20
80.791505
 11
-118.87662
 21
78.200998
  0
LINE
  8
型材断面
  6
CONTINUOUS
 10
-119.472675
 20
80.791505
 11
-120.068732
 21
78.200998
  0
LINE
  8
型材断面
  6
CONTINUOUS
 10
-120.068732
 20
78.200998
 11
-118.87662
 21
78.200998
  0
LINE
  8
型材断面
  6
CONTINUOUS
 10
-125.495263
 20
74.922105
 11
-79.253485
 21
74.922105
  0
LINE
  8
型材断面
  6
CONTINUOUS
 10
-119.472675
 20
87.32138
 11
-120.968305
 21
84.730873
  0
LINE
  8
型材断面
  6
CONTINUOUS
 10
-119.472675
 20
87.32138
 11
-117.977045
 21
84.730873
  0
LINE
  8
型材断面
  6
CONTINUOUS
 10
-117.977045
 20
84.730873
 11
-120.968305
 21
84.730873
  0
LINE
  8
型材断面
  6
CONTINUOUS
 10
-125.495263
 20
83.792277
 11
-79.253485
 21
83.792277
  0
LINE
  8
型材断面
  6
CONTINUOUS
 10
-125.495263
 20
69.134073
 11
-79.253485
 21
69.134073
  0
LINE
  8
型材断面
  6
CONTINUOUS
 10
-125.495263
 20
63.34604
 11
-79.253485
 21
63.34604
  0
INSERT
  2
*GRP_0009
  8
型材断面
  6
DASHDOT
 10
0.0
 20
0.0
  0
INSERT
  2
*GRP_0016
  8
型材断面
  6
CONTINUOUS
 10
0.0
 20
0.0
  0
INSERT
  2
*GRP_0017
  8
型材断面
  6
CONTINUOUS
 10
0.0
 20
0.0
  0
INSERT
  2
*GRP_0018
  8
型材断面
  6
CONTINUOUS
 10
0.0
 20
0.0
  0
INSERT
  2
*GRP_0019
  8
型材断面
  6
CONTINUOUS
 10
0.0
 20
0.0
  0
LINE
  8
型材断面
  6
CONTINUOUS
 10
7.476197
 20
45.57722
 11
-81.383805
 21
45.57722
  0
LINE
  8
型材断面
  6
CONTINUOUS
 10
7.476197
 20
20.050848
 11
-81.383805
 21
20.050848
  0
LINE
  8
型材断面
  6
CONTINUOUS
 10
-81.383805
 20
32.814035
 11
-83.974312
 21
34.309665
  0
LINE
  8
型材断面
  6
CONTINUOUS
 10
-81.383805
 20
32.814035
 11
-83.974312
 21
31.318405
  0
LINE
  8
型材断面
  6
CONTINUOUS
 10
-83.974312
 20
31.318405
 11
-83.974312
 21
34.309665
  0
LINE
  8
型材断面
  6
CONTINUOUS
 10
-81.383807
 20
39.114038
 11
-83.974317
 21
38.517985
  0
LINE
  8
型材断面
  6
CONTINUOUS
 10
-81.383807
 20
39.114038
 11
-83.974315
 21
39.710097
  0
LINE
  8
型材断面
  6
CONTINUOUS
 10
-83.974315
 20
39.710097
 11
-83.974317
 21
38.517985
  0
LINE
  8
型材断面
  6
CONTINUOUS
 10
-81.383807
 20
26.514033
 11
-83.974317
 21
27.110085
  0
LINE
  8
型材断面
  6
CONTINUOUS
 10
-81.383807
 20
26.514033
 11
-83.974315
 21
25.917972
  0
LINE
  8
型材断面
  6
CONTINUOUS
 10
-83.974315
 20
25.917972
 11
-83.974317
 21
27.110085
  0
LINE
  8
型材断面
  6
CONTINUOUS
 10
-61.9538
 20
45.57722
 11
-63.44943
 21
48.167727
  0
LINE
  8
型材断面
  6
CONTINUOUS
 10
-61.9538
 20
45.57722
 11
-60.45817
 21
48.167727
  0
LINE
  8
型材断面
  6
CONTINUOUS
 10
-60.45817
 20
48.167727
 11
-63.44943
 21
48.167727
  0
LINE
  8
型材断面
  6
CONTINUOUS
 10
-11.953805
 20
45.57722
 11
-10.458175
 21
48.167727
  0
LINE
  8
型材断面
  6
CONTINUOUS
 10
-11.953805
 20
45.57722
 11
-13.449435
 21
48.167727
  0
LINE
  8
型材断面
  6
CONTINUOUS
 10
-13.449435
 20
48.167727
 11
-10.458175
 21
48.167727
  0
LINE
  8
型材断面
  6
CONTINUOUS
 10
7.476197
 20
32.814033
 11
10.066705
 21
34.309663
  0
LINE
  8
型材断面
  6
CONTINUOUS
 10
7.476197
 20
32.814033
 11
10.066705
 21
31.318403
  0
LINE
  8
型材断面
  6
CONTINUOUS
 10
10.066705
 20
31.318403
 11
10.066705
 21
34.309663
  0
LINE
  8
型材断面
  6
CONTINUOUS
 10
7.4762
 20
39.114035
 11
10.06671
 21
38.517982
  0
LINE
  8
型材断面
  6
CONTINUOUS
 10
7.4762
 20
39.114035
 11
10.066707
 21
39.710095
  0
LINE
  8
型材断面
  6
CONTINUOUS
 10
10.066707
 20
39.710095
 11
10.06671
 21
38.517982
  0
LINE
  8
型材断面
  6
CONTINUOUS
 10
7.4762
 20
26.51403
 11
10.06671
 21
27.110082
  0
LINE
  8
型材断面
  6
CONTINUOUS
 10
7.4762
 20
26.51403
 11
10.066707
 21
25.91797
  0
LINE
  8
型材断面
  6
CONTINUOUS
 10
10.066707
 20
25.91797
 11
10.06671
 21
27.110082
  0
LINE
  8
型材断面
  6
CONTINUOUS
 10
-61.9538
 20
20.050848
 11
-63.44943
 21
17.46034
  0
LINE
  8
型材断面
  6
CONTINUOUS
 10
-61.9538
 20
20.050848
 11
-60.45817
 21
17.46034
  0
LINE
  8
型材断面
  6
CONTINUOUS
 10
-60.45817
 20
17.46034
 11
-63.44943
 21
17.46034
  0
LINE
  8
型材断面
  6
CONTINUOUS
 10
-11.953805
 20
20.050848
 11
-10.458175
 21
17.46034
  0
LINE
  8
型材断面
  6
CONTINUOUS
 10
-11.953805
 20
20.050848
 11
-13.449435
 21
17.46034
  0
LINE
  8
型材断面
  6
CONTINUOUS
 10
-13.449435
 20
17.46034
 11
-10.458175
 21
17.46034
  0
LINE
  8
型材断面
  6
CONTINUOUS
 10
-35.703802
 20
24.31404
 11
-38.203802
 21
24.31404
  0
LINE
  8
型材断面
  6
CONTINUOUS
 10
-35.703802
 20
41.314025
 11
-38.203802
 21
41.314025
  0
LINE
  8
型材断面
  6
CONTINUOUS
 10
-35.703802
 20
24.31404
 11
-35.703802
 21
41.314025
  0
LINE
  8
型材断面
  6
CONTINUOUS
 10
-38.203802
 20
24.31404
 11
-38.203802
 21
41.314025
  0
LINE
  8
型材断面
  6
CONTINUOUS
 10
7.476202
 20
20.050848
 11
7.476202
 21
45.57722
  0
LINE
  8
型材断面
  6
CONTINUOUS
 10
6.310522
 20
20.98068
 11
6.546222
 21
21.21638
  0
LINE
  8
型材断面
  6
CONTINUOUS
 10
3.81052
 20
23.48068
 11
4.04622
 21
23.71638
  0
LINE
  8
型材断面
  6
CONTINUOUS
 10
4.04622
 20
23.71638
 11
6.546222
 21
21.21638
  0
LINE
  8
型材断面
  6
CONTINUOUS
 10
3.81052
 20
23.48068
 11
6.310522
 21
20.98068
  0
LINE
  8
型材断面
  6
CONTINUOUS
 10
7.476055
 20
20.050848
 11
6.42837
 21
21.098527
  0
LINE
  8
型材断面
  6
CONTINUOUS
 10
6.546207
 20
32.814033
 11
6.546222
 21
21.21638
  0
LINE
  8
型材断面
  6
CONTINUOUS
 10
4.046207
 20
33.2307
 11
6.546207
 21
33.2307
  0
LINE
  8
型材断面
  6
CONTINUOUS
 10
4.046207
 20
32.397365
 11
6.546207
 21
32.397365
  0
LINE
  8
型材断面
  6
CONTINUOUS
 10
4.046207
 20
32.397365
 11
4.04622
 21
23.71638
  0
LINE
  8
型材断面
  6
CONTINUOUS
 10
6.310522
 20
44.647385
 11
6.546222
 21
44.411685
  0
LINE
  8
型材断面
  6
CONTINUOUS
 10
3.81052
 20
42.147385
 11
4.04622
 21
41.911685
  0
LINE
  8
型材断面
  6
CONTINUOUS
 10
4.04622
 20
41.911685
 11
6.546222
 21
44.411685
  0
LINE
  8
型材断面
  6
CONTINUOUS
 10
3.81052
 20
42.147385
 11
6.310522
 21
44.647385
  0
LINE
  8
型材断面
  6
CONTINUOUS
 10
7.476055
 20
45.577218
 11
6.42837
 21
44.529537
  0
LINE
  8
型材断面
  6
CONTINUOUS
 10
4.046207
 20
33.2307
 11
4.04622
 21
41.911685
  0
LINE
  8
型材断面
  6
CONTINUOUS
 10
6.546207
 20
32.814033
 11
6.546222
 21
44.411685
  0
LINE
  8
型材断面
  6
CONTINUOUS
 10
-15.7038
 20
23.480693
 11
-15.7038
 21
20.980693
  0
LINE
  8
型材断面
  6
CONTINUOUS
 10
-16.537135
 20
23.480693
 11
-16.537135
 21
20.980693
  0
LINE
  8
型材断面
  6
CONTINUOUS
 10
-15.7038
 20
42.147372
 11
-15.7038
 21
44.647372
  0
LINE
  8
型材断面
  6
CONTINUOUS
 10
-16.537135
 20
42.147372
 11
-16.537135
 21
44.647372
  0
LINE
  8
型材断面
  6
CONTINUOUS
 10
-16.537135
 20
42.147372
 11
-36.953802
 21
42.147357
  0
LINE
  8
型材断面
  6
CONTINUOUS
 10
-16.537135
 20
23.480693
 11
-36.953802
 21
23.480708
  0
LINE
  8
型材断面
  6
CONTINUOUS
 10
-36.953802
 20
44.647357
 11
6.310525
 21
44.647387
  0
LINE
  8
型材断面
  6
CONTINUOUS
 10
-15.7038
 20
42.147372
 11
3.810522
 21
42.147387
  0
LINE
  8
型材断面
  6
CONTINUOUS
 10
-15.7038
 20
23.480693
 11
3.810522
 21
23.480677
  0
LINE
  8
型材断面
  6
CONTINUOUS
 10
-36.953802
 20
20.980708
 11
6.310525
 21
20.980677
  0
LINE
  8
型材断面
  6
CONTINUOUS
 10
-81.383807
 20
20.050848
 11
-81.383807
 21
45.57722
  0
LINE
  8
型材断面
  6
CONTINUOUS
 10
-80.218127
 20
20.98068
 11
-80.453827
 21
21.21638
  0
LINE
  8
型材断面
  6
CONTINUOUS
 10
-77.718125
 20
23.48068
 11
-77.953825
 21
23.71638
  0
LINE
  8
型材断面
  6
CONTINUOUS
 10
-77.953825
 20
23.71638
 11
-80.453827
 21
21.21638
  0
LINE
  8
型材断面
  6
CONTINUOUS
 10
-77.718125
 20
23.48068
 11
-80.218127
 21
20.98068
  0
LINE
  8
型材断面
  6
CONTINUOUS
 10
-81.38366
 20
20.050848
 11
-80.335975
 21
21.098527
  0
LINE
  8
型材断面
  6
CONTINUOUS
 10
-80.453812
 20
32.814033
 11
-80.453827
 21
21.21638
  0
LINE
  8
型材断面
  6
CONTINUOUS
 10
-77.953812
 20
33.2307
 11
-80.453812
 21
33.2307
  0
LINE
  8
型材断面
  6
CONTINUOUS
 10
-77.953812
 20
32.397365
 11
-80.453812
 21
32.397365
  0
LINE
  8
型材断面
  6
CONTINUOUS
 10
-77.953812
 20
32.397365
 11
-77.953825
 21
23.71638
  0
LINE
  8
型材断面
  6
CONTINUOUS
 10
-80.218127
 20
44.647385
 11
-80.453827
 21
44.411685
  0
LINE
  8
型材断面
  6
CONTINUOUS
 10
-77.718125
 20
42.147385
 11
-77.953825
 21
41.911685
  0
LINE
  8
型材断面
  6
CONTINUOUS
 10
-77.953825
 20
41.911685
 11
-80.453827
 21
44.411685
  0
LINE
  8
型材断面
  6
CONTINUOUS
 10
-77.718125
 20
42.147385
 11
-80.218127
 21
44.647385
  0
LINE
  8
型材断面
  6
CONTINUOUS
 10
-81.38366
 20
45.577218
 11
-80.335975
 21
44.529537
  0
LINE
  8
型材断面
  6
CONTINUOUS
 10
-77.953812
 20
33.2307
 11
-77.953825
 21
41.911685
  0
LINE
  8
型材断面
  6
CONTINUOUS
 10
-80.453812
 20
32.814033
 11
-80.453827
 21
44.411685
  0
LINE
  8
型材断面
  6
CONTINUOUS
 10
-58.203805
 20
23.480693
 11
-58.203805
 21
20.980693
  0
LINE
  8
型材断面
  6
CONTINUOUS
 10
-57.37047
 20
23.480693
 11
-57.37047
 21
20.980693
  0
LINE
  8
型材断面
  6
CONTINUOUS
 10
-58.203805
 20
42.147372
 11
-58.203805
 21
44.647372
  0
LINE
  8
型材断面
  6
CONTINUOUS
 10
-57.37047
 20
42.147372
 11
-57.37047
 21
44.647372
  0
LINE
  8
型材断面
  6
CONTINUOUS
 10
-58.203805
 20
23.480693
 11
-77.718127
 21
23.480677
  0
LINE
  8
型材断面
  6
CONTINUOUS
 10
-36.953802
 20
23.480708
 11
-57.37047
 21
23.480693
  0
LINE
  8
型材断面
  6
CONTINUOUS
 10
-36.953802
 20
42.147357
 11
-57.37047
 21
42.147372
  0
LINE
  8
型材断面
  6
CONTINUOUS
 10
-36.953802
 20
44.647357
 11
-80.21813
 21
44.647387
  0
LINE
  8
型材断面
  6
CONTINUOUS
 10
-58.203805
 20
42.147372
 11
-77.718127
 21
42.147387
  0
LINE
  8
型材断面
  6
CONTINUOUS
 10
-36.953802
 20
20.980708
 11
-80.21813
 21
20.980677
  0
LINE
  8
型材断面
  6
CONTINUOUS
 10
6.9762
 20
-77.192947
 11
6.9762
 21
-77.529612
  0
LINE
  8
型材断面
  6
CONTINUOUS
 10
7.279532
 20
-73.096397
 11
7.4762
 21
-73.293065
  0
LINE
  8
型材断面
  6
CONTINUOUS
 10
7.4762
 20
-73.293065
 11
7.4762
 21
-77.192947
  0
LINE
  8
型材断面
  6
CONTINUOUS
 10
101.746133
 20
45.077223
 11
102.082798
 21
45.077223
  0
LINE
  8
型材断面
  6
CONTINUOUS
 10
97.649582
 20
45.380555
 11
97.84625
 21
45.577223
  0
LINE
  8
型材断面
  6
CONTINUOUS
 10
97.84625
 20
45.577223
 11
101.746133
 21
45.577223
  0
LINE
  8
型材断面
  6
CONTINUOUS
 62
    47
 10
97.649627
 20
45.380597
 11
97.649627
 21
32.814033
  0
LINE
  8
型材断面
  6
CONTINUOUS
 10
97.84625
 20
45.577223
 11
97.84625
 21
32.814033
  0
LINE
  8
型材断面
  6
CONTINUOUS
 10
102.082798
 20
45.077223
 11
102.082798
 21
32.814033
  0
LINE
  8
型材断面
  6
CONTINUOUS
 10
101.746133
 20
45.577223
 11
101.746133
 21
32.814033
  0
LINE
  8
型材断面
  6
CONTINUOUS
 10
101.746133
 20
20.550842
 11
102.082798
 21
20.550842
  0
LINE
  8
型材断面
  6
CONTINUOUS
 10
97.649582
 20
20.24751
 11
97.84625
 21
20.050842
  0
LINE
  8
型材断面
  6
CONTINUOUS
 10
97.84625
 20
20.050842
 11
101.746133
 21
20.050842
  0
LINE
  8
型材断面
  6
CONTINUOUS
 62
    47
 10
97.649627
 20
20.247467
 11
97.649627
 21
32.814033
  0
LINE
  8
型材断面
  6
CONTINUOUS
 10
97.84625
 20
20.050842
 11
97.84625
 21
32.814033
  0
LINE
  8
型材断面
  6
CONTINUOUS
 10
102.082798
 20
20.550842
 11
102.082798
 21
32.814033
  0
LINE
  8
型材断面
  6
CONTINUOUS
 10
101.746133
 20
20.050842
 11
101.746133
 21
32.814033
  0
LINE
  8
型材断面
  6
CONTINUOUS
 10
7.4762
 20
-77.192947
 11
-36.953802
 21
-77.192947
  0
LINE
  8
型材断面
  6
CONTINUOUS
 10
6.9762
 20
-77.529612
 11
-36.953802
 21
-77.529612
  0
LINE
  8
型材断面
  6
CONTINUOUS
 62
    47
 10
7.279575
 20
-73.096443
 11
-36.953802
 21
-73.096443
  0
LINE
  8
型材断面
  6
CONTINUOUS
 10
7.4762
 20
-73.293065
 11
-36.953802
 21
-73.293065
  0
LINE
  8
型材断面
  6
CONTINUOUS
 10
-80.883805
 20
-77.192947
 11
-80.883805
 21
-77.529612
  0
LINE
  8
型材断面
  6
CONTINUOUS
 10
-81.187137
 20
-73.096397
 11
-81.383805
 21
-73.293065
  0
LINE
  8
型材断面
  6
CONTINUOUS
 10
-81.383805
 20
-73.293065
 11
-81.383805
 21
-77.192947
  0
LINE
  8
型材断面
  6
CONTINUOUS
 10
-81.383805
 20
-77.192947
 11
-36.953802
 21
-77.192947
  0
LINE
  8
型材断面
  6
CONTINUOUS
 10
-80.883805
 20
-77.529612
 11
-36.953802
 21
-77.529612
  0
LINE
  8
型材断面
  6
CONTINUOUS
 62
    47
 10
-81.18718
 20
-73.096443
 11
-36.953802
 21
-73.096443
  0
LINE
  8
型材断面
  6
CONTINUOUS
 10
-81.383805
 20
-73.293065
 11
-36.953802
 21
-73.293065
  0
TEXT
  7
TextStyle03
  8
文字
  6
CONTINUOUS
 10
-45.175
 20
9.325
  1
可動装置側
 40
3.0
 72
     5
 11
-28.675
 21
9.325
  0
TEXT
  7
TextStyle03
  8
文字
  6
CONTINUOUS
 10
-45.175
 20
53.3
  1
可動装置側
 40
3.0
 72
     5
 11
-28.675
 21
53.3
  0
TEXT
  7
TextStyle03
  8
文字
  6
CONTINUOUS
 10
-116.675
 20
79.425
  1
はケーシング位置を示す
 40
3.0
 72
     5
 11
-79.925
 21
79.425
  0
TEXT
  7
TextStyle03
  8
文字
  6
CONTINUOUS
 10
-116.675
 20
76.05
  1
４ヶ所中1ヶ所に設定
 40
3.0
 72
     5
 11
-84.9875
 21
76.05
  0
TEXT
  7
TextStyle03
  8
文字
  6
CONTINUOUS
 10
-116.675
 20
84.95
  1
は排水穴位置を示す
 40
3.0
 72
     5
 11
-86.675
 21
84.95
  0
TEXT
  7
TextStyle03
  8
文字
  6
CONTINUOUS
 10
-99.7
 20
11.275
  1
アンカーピッチ
 40
3.0
 50
90.0
 72
     5
 11
-99.7
 21
34.525
  0
TEXT
  7
TextStyle03
  8
文字
  6
CONTINUOUS
 10
-72.0
 20
80.825
  1
アンカーピッチ
 40
3.0
 72
     5
 11
-48.75
 21
80.825
  0
TEXT
  7
TextStyle03
  8
文字
  6
CONTINUOUS
 10
-120.4
 20
70.075
  1
アンカー数量　１２ヶ所
 40
3.0
 72
     5
 11
-83.65
 21
70.075
  0
TEXT
  7
TextStyle03
  8
文字
  6
CONTINUOUS
 10
-125.4
 20
59.35
  1
※重量に依るのでご相談ください
 40
3.0
 72
     5
 11
-75.15
 21
59.35
  0
TEXT
  7
TextStyle03
  8
文字
  6
CONTINUOUS
 10
-125.4
 20
64.3
  1
アームユニット数　※２～４ヶ所
 40
3.0
 72
     5
 11
-75.15
 21
64.3
  0
LINE
  8
文字
  6
CONTINUOUS
 10
95.841893
 20
45.57722
 11
38.732515
 21
45.57722
  0
LINE
  8
文字
  6
CONTINUOUS
 10
95.841893
 20
20.050848
 11
38.732515
 21
20.050848
  0
LINE
  8
文字
  6
CONTINUOUS
 10
86.296248
 20
51.815152
 11
86.296248
 21
46.90238
  0
LINE
  8
文字
  6
CONTINUOUS
 10
-81.383805
 20
-70.743062
 11
-81.383805
 21
-12.609317
  0
LINE
  8
文字
  6
CONTINUOUS
 10
7.476197
 20
-70.743062
 11
7.476197
 21
-12.609317
  0
LINE
  8
文字
  6
CONTINUOUS
 10
23.889685
 20
-61.743062
 11
10.286005
 21
-61.743062
  0
LINE
  8
文字
  6
CONTINUOUS
 10
99.79942
 20
-55.652167
 11
99.79942
 21
-62.800895
  0
LINE
  8
文字
  6
CONTINUOUS
 10
58.732753
 20
-55.652167
 11
58.732753
 21
-62.800895
  0
TEXT
  7
TextStyle03
  8
文字
  6
CONTINUOUS
 10
81.275
 20
-77.35
  1
網入り6.8t
 40
3.0
 72
     5
 11
97.9625
 21
-77.35
  0
TEXT
  7
TextStyle03
  8
文字
  6
CONTINUOUS
 10
87.95
 20
-82.025
  1
×２枚
 40
3.0
 72
     5
 11
97.7
 21
-82.025
  0
TEXT
  7
TextStyle03
  8
文字
  6
CONTINUOUS
 10
61.275
 20
125.25
  1
シリーズ：ＴＦＦＬ
 40
5.0
 72
     5
 11
111.275
 21
125.25
  0
TEXT
  7
TextStyle03
  8
文字
  6
CONTINUOUS
 10
61.275
 20
119.625
  1
　　　　　（上下可動）600×2500タイプ
 40
5.0
 72
     5
 11
164.7125
 21
119.625
  0
TEXT
  7
TextStyle03
  8
文字
  6
CONTINUOUS
 10
61.275
 20
114.0
  1
図面名　：外観姿図
 40
5.0
 72
     5
 11
111.275
 21
114.0
  0
TEXT
  7
TextStyle03
  8
文字
  6
CONTINUOUS
 10
61.275
 20
108.375
  1
　　　　　　
 40
5.0
 72
     5
 11
94.4
 21
108.375
  0
TEXT
  7
TextStyle03
  8
文字
  6
CONTINUOUS
 10
61.425
 20
104.525
  1
ＮＳコード：ＮＳＦＬ
 40
5.0
 72
     5
 11
117.05
 21
104.525
  0
INSERT
  2
*DIM_0002
  8
寸法
  6
CONTINUOUS
 10
0.0
 20
0.0
  0
INSERT
  2
*DIM_0003
  8
寸法
  6
CONTINUOUS
 10
0.0
 20
0.0
  0
INSERT
  2
*DIM_0004
  8
寸法
  6
CONTINUOUS
 10
0.0
 20
0.0
  0
INSERT
  2
*DIM_0005
  8
寸法
  6
CONTINUOUS
 10
0.0
 20
0.0
  0
INSERT
  2
*DIM_0006
  8
寸法
  6
CONTINUOUS
 10
0.0
 20
0.0
  0
INSERT
  2
*DIM_0007
  8
寸法
  6
CONTINUOUS
 10
0.0
 20
0.0
  0
INSERT
  2
*DIM_0008
  8
寸法
  6
CONTINUOUS
 10
0.0
 20
0.0
  0
INSERT
  2
*DIM_0010
  8
寸法
  6
CONTINUOUS
 10
0.0
 20
0.0
  0
INSERT
  2
*DIM_0011
  8
寸法
  6
CONTINUOUS
 10
0.0
 20
0.0
  0
INSERT
  2
*DIM_0012
  8
寸法
  6
CONTINUOUS
 10
0.0
 20
0.0
  0
INSERT
  2
*DIM_0013
  8
寸法
  6
CONTINUOUS
 10
0.0
 20
0.0
  0
INSERT
  2
*DIM_0014
  8
寸法
  6
CONTINUOUS
 10
0.0
 20
0.0
  0
INSERT
  2
*DIM_0015
  8
寸法
  6
CONTINUOUS
 10
0.0
 20
0.0
  0
INSERT
  2
*DIM_0020
  8
寸法
  6
CONTINUOUS
 10
0.0
 20
0.0
  0
INSERT
  2
*DIM_0021
  8
寸法
  6
CONTINUOUS
 10
0.0
 20
0.0
  0
INSERT
  2
*DIM_0022
  8
寸法
  6
CONTINUOUS
 10
0.0
 20
0.0
  0
INSERT
  2
*DIM_0023
  8
寸法
  6
CONTINUOUS
 10
0.0
 20
0.0
  0
INSERT
  2
*DIM_0024
  8
寸法
  6
CONTINUOUS
 10
0.0
 20
0.0
  0
INSERT
  2
*DIM_0025
  8
寸法
  6
CONTINUOUS
 10
0.0
 20
0.0
  0
LINE
  8
別途部材
  6
CONTINUOUS
 62
    47
 10
93.72958
 20
20.980845
 11
93.796248
 21
20.980845
  0
ARC
  8
別途部材
  6
CONTINUOUS
 62
    47
 10
93.729582
 20
21.080846
 40
0.1
 50
180.0
 51
270.0
  0
LINE
  8
別途部材
  6
CONTINUOUS
 62
    47
 10
93.796248
 20
21.137368
 11
95.296248
 21
21.137368
  0
LINE
  8
別途部材
  6
CONTINUOUS
 62
    47
 10
97.612915
 20
20.050848
 11
97.612915
 21
32.814033
  0
LINE
  8
別途部材
  6
CONTINUOUS
 62
    47
 10
96.44625
 20
20.050848
 11
96.44625
 21
32.814033
  0
LINE
  8
別途部材
  6
CONTINUOUS
 62
    47
 10
95.296248
 20
21.137368
 11
95.296248
 21
32.814033
  0
LINE
  8
別途部材
  6
CONTINUOUS
 62
    47
 10
93.796248
 20
20.980845
 11
93.796248
 21
32.814033
  0
LINE
  8
別途部材
  6
CONTINUOUS
 62
    47
 10
93.62958
 20
21.080845
 11
93.62958
 21
32.814033
  0
LINE
  8
別途部材
  6
CONTINUOUS
 62
    47
 10
93.72958
 20
44.647222
 11
93.796248
 21
44.647222
  0
ARC
  8
別途部材
  6
CONTINUOUS
 62
    47
 10
93.729582
 20
44.547222
 40
0.1
 50
90.0
 51
180.0
  0
LINE
  8
別途部材
  6
CONTINUOUS
 62
    47
 10
93.796248
 20
44.4907
 11
95.296248
 21
44.4907
  0
LINE
  8
別途部材
  6
CONTINUOUS
 62
    47
 10
97.612915
 20
45.57722
 11
97.612915
 21
32.814033
  0
LINE
  8
別途部材
  6
CONTINUOUS
 62
    47
 10
96.44625
 20
45.57722
 11
96.44625
 21
32.814033
  0
LINE
  8
別途部材
  6
CONTINUOUS
 62
    47
 10
95.296248
 20
44.4907
 11
95.296248
 21
32.814033
  0
LINE
  8
別途部材
  6
CONTINUOUS
 62
    47
 10
93.796248
 20
44.647222
 11
93.796248
 21
32.814033
  0
LINE
  8
別途部材
  6
CONTINUOUS
 62
    47
 10
93.62958
 20
44.547222
 11
93.62958
 21
32.814033
  0
LINE
  8
別途部材
  6
CONTINUOUS
 62
    47
 10
-80.453808
 20
-69.176395
 11
-80.453808
 21
-69.243062
  0
ARC
  8
別途部材
  6
CONTINUOUS
 62
    47
 10
-80.353805
 20
-69.1764
 40
0.1
 50
90.0
 51
180.0
  0
LINE
  8
別途部材
  6
CONTINUOUS
 62
    47
 10
-80.297285
 20
-69.243062
 11
-80.297285
 21
-70.743062
  0
LINE
  8
別途部材
  6
DOT
 62
    47
 10
-80.453808
 20
-61.843062
 11
-80.453808
 21
-61.90973
  0
ARC
  8
別途部材
  6
DOT
 62
    47
 10
-80.353805
 20
-61.843066
 40
0.1
 50
90.0
 51
180.0
  0
LINE
  8
別途部材
  6
DOT
 62
    47
 10
-80.297285
 20
-61.90973
 11
-80.297285
 21
-63.40973
  0
LINE
  8
別途部材
  6
CONTINUOUS
 62
    47
 10
6.5462
 20
-69.176395
 11
6.5462
 21
-69.243062
  0
ARC
  8
別途部材
  6
CONTINUOUS
 62
    47
 10
6.446198
 20
-69.1764
 40
0.1
 50
0.0
 51
90.0
  0
LINE
  8
別途部材
  6
CONTINUOUS
 62
    47
 10
6.389677
 20
-69.243062
 11
6.389677
 21
-70.743062
  0
LINE
  8
別途部材
  6
DOT
 62
    47
 10
6.5462
 20
-61.843062
 11
6.5462
 21
-61.90973
  0
ARC
  8
別途部材
  6
DOT
 62
    47
 10
6.446198
 20
-61.843066
 40
0.1
 50
0.0
 51
90.0
  0
LINE
  8
別途部材
  6
DOT
 62
    47
 10
6.389677
 20
-61.90973
 11
6.389677
 21
-63.40973
  0
LINE
  8
別途部材
  6
DOT
 62
    47
 10
-80.353808
 20
-61.743062
 11
-36.953802
 21
-61.743062
  0
LINE
  8
別途部材
  6
DOT
 62
    47
 10
-80.453808
 20
-61.90973
 11
-36.953802
 21
-61.90973
  0
LINE
  8
別途部材
  6
DOT
 62
    47
 10
-81.383805
 20
-64.559732
 11
-36.953802
 21
-64.559732
  0
LINE
  8
別途部材
  6
DOT
 62
    47
 10
-80.297285
 20
-63.40973
 11
-36.953802
 21
-63.40973
  0
LINE
  8
別途部材
  6
DOT
 62
    47
 10
-81.383805
 20
-65.726397
 11
-36.953802
 21
-65.726397
  0
LINE
  8
別途部材
  6
CONTINUOUS
 62
    47
 10
-80.353808
 20
-69.076395
 11
-36.953802
 21
-69.076395
  0
LINE
  8
別途部材
  6
CONTINUOUS
 62
    47
 10
-80.453808
 20
-69.243062
 11
-36.953802
 21
-69.243062
  0
LINE
  8
別途部材
  6
CONTINUOUS
 62
    47
 10
-81.383805
 20
-71.893065
 11
-36.953802
 21
-71.893065
  0
LINE
  8
別途部材
  6
CONTINUOUS
 62
    47
 10
-80.297285
 20
-70.743062
 11
-36.953802
 21
-70.743062
  0
LINE
  8
別途部材
  6
CONTINUOUS
 62
    47
 10
-81.383805
 20
-73.05973
 11
-36.953802
 21
-73.05973
  0
LINE
  8
別途部材
  6
CONTINUOUS
 62
    47
 10
7.476197
 20
-73.05973
 11
-36.953802
 21
-73.05973
  0
LINE
  8
別途部材
  6
CONTINUOUS
 62
    47
 10
7.476197
 20
-71.893065
 11
-36.953802
 21
-71.893065
  0
LINE
  8
別途部材
  6
CONTINUOUS
 62
    47
 10
6.389677
 20
-70.743062
 11
-36.953802
 21
-70.743062
  0
LINE
  8
別途部材
  6
CONTINUOUS
 62
    47
 10
6.4462
 20
-69.076395
 11
-36.953802
 21
-69.076395
  0
LINE
  8
別途部材
  6
CONTINUOUS
 62
    47
 10
6.5462
 20
-69.243062
 11
-36.953802
 21
-69.243062
  0
LINE
  8
別途部材
  6
DOT
 62
    47
 10
7.476197
 20
-65.726397
 11
-36.953802
 21
-65.726397
  0
LINE
  8
別途部材
  6
DOT
 62
    47
 10
7.476197
 20
-64.559732
 11
-36.953802
 21
-64.559732
  0
LINE
  8
別途部材
  6
DOT
 62
    47
 10
6.389677
 20
-63.40973
 11
-36.953802
 21
-63.40973
  0
LINE
  8
別途部材
  6
DOT
 62
    47
 10
6.4462
 20
-61.743062
 11
-36.953802
 21
-61.743062
  0
LINE
  8
別途部材
  6
DOT
 62
    47
 10
6.5462
 20
-61.90973
 11
-36.953802
 21
-61.90973
  0
LINE
  8
別途部材
  6
CONTINUOUS
 10
58.732753
 20
-63.785395
 11
58.732753
 21
-83.785395
  0
LINE
  8
曲げ物
  6
CONTINUOUS
 10
-13.80436
 20
34.739582
 11
-17.499672
 21
31.04427
  0
LINE
  8
曲げ物
  6
CONTINUOUS
 10
-14.50783
 20
33.203472
 11
-15.96356
 21
31.747742
  0
LINE
  8
曲げ物
  6
CONTINUOUS
 10
-15.34047
 20
34.036112
 11
-16.7962
 21
32.580383
  0
LINE
  8
曲げ物
  6
CONTINUOUS
 10
-55.89622
 20
34.739582
 11
-59.591532
 21
31.04427
  0
LINE
  8
曲げ物
  6
CONTINUOUS
 10
-56.59969
 20
33.203472
 11
-58.05542
 21
31.747742
  0
LINE
  8
曲げ物
  6
CONTINUOUS
 10
-57.43233
 20
34.036112
 11
-58.88806
 21
32.580383
  0
LINE
  8
曲げ物
  6
CONTINUOUS
 10
99.79942
 20
-63.785395
 11
58.732753
 21
-63.785395
  0
LINE
  8
曲げ物
  6
CONTINUOUS
 10
99.79942
 20
-83.785395
 11
58.732753
 21
-83.785395
  0
LINE
  8
曲げ物
  6
CONTINUOUS
 10
99.79942
 20
-63.785395
 11
99.79942
 21
-83.785395
  0
LINE
  8
鉄骨等
  6
CONTINUOUS
 62
    47
 10
97.612915
 20
20.050848
 11
96.44625
 21
20.050848
  0
LINE
  8
鉄骨等
  6
CONTINUOUS
 62
    47
 10
96.44625
 20
20.050848
 11
95.29625
 21
21.454032
  0
LINE
  8
鉄骨等
  6
CONTINUOUS
 62
    47
 10
97.612915
 20
45.57722
 11
96.44625
 21
45.57722
  0
LINE
  8
鉄骨等
  6
CONTINUOUS
 62
    47
 10
96.44625
 20
45.57722
 11
95.29625
 21
44.174033
  0
LINE
  8
鉄骨等
  6
CONTINUOUS
 62
    47
 10
-81.383805
 20
-73.05973
 11
-81.383805
 21
-71.893065
  0
LINE
  8
鉄骨等
  6
CONTINUOUS
 62
    47
 10
-81.383805
 20
-71.893065
 11
-79.98062
 21
-70.743065
  0
LINE
  8
鉄骨等
  6
DOT
 62
    47
 10
-81.383805
 20
-65.726397
 11
-81.383805
 21
-64.559732
  0
LINE
  8
鉄骨等
  6
DOT
 62
    47
 10
-81.383805
 20
-64.559732
 11
-79.98062
 21
-63.409732
  0
LINE
  8
鉄骨等
  6
CONTINUOUS
 62
    47
 10
7.476197
 20
-73.05973
 11
7.476197
 21
-71.893065
  0
LINE
  8
鉄骨等
  6
CONTINUOUS
 62
    47
 10
7.476197
 20
-71.893065
 11
6.073013
 21
-70.743065
  0
LINE
  8
鉄骨等
  6
DOT
 62
    47
 10
7.476197
 20
-65.726397
 11
7.476197
 21
-64.559732
  0
LINE
  8
鉄骨等
  6
DOT
 62
    47
 10
7.476197
 20
-64.559732
 11
6.073013
 21
-63.409732
  0
ENDSEC
  0
EOF
