  0
SECTION
  2
HEADER
  9
$EXTMIN
 10
-210.0
 20
-148.5
  9
$EXTMAX
 10
210.0
 20
148.5
  9
$PDMODE
 70
    32
  9
$PDSIZE
 40
1.5
  9
$LTSCALE
 40
10.0
  0
ENDSEC
  0
SECTION
  2
TABLES
  0
TABLE
  2
LTYPE
 70
    15
  0
LTYPE
  2
CONTINUOUS
 70
    64
  3
実線
 72
    65
 73
     0
 40
0.0
  0
LTYPE
  2
DASHED
 70
    64
  3
破線A
 72
    65
 73
     2
 40
0.6
 49
0.4
 49
-0.2
  0
LTYPE
  2
DASHEDX2
 70
    64
  3
破線B
 72
    65
 73
     2
 40
1.3
 49
0.9
 49
-0.4
  0
LTYPE
  2
DASHDOT
 70
    64
  3
１点鎖線A
 72
    65
 73
     4
 40
0.5375
 49
0.375
 49
-0.05
 49
0.0625
 49
-0.05
  0
LTYPE
  2
DASHDOTX2
 70
    64
  3
１点鎖線B
 72
    65
 73
     4
 40
1.075
 49
0.75
 49
-0.1
 49
0.125
 49
-0.1
  0
LTYPE
  2
DIVIDE2
 70
    64
  3
２点鎖線A
 72
    65
 73
     6
 40
0.5125
 49
0.3
 49
-0.0375
 49
0.05
 49
-0.0375
 49
0.05
 49
-0.0375
  0
LTYPE
  2
DIVIDE
 70
    64
  3
２点鎖線B
 72
    65
 73
     6
 40
1.05
 49
0.55
 49
-0.1
 49
0.1
 49
-0.1
 49
0.1
 49
-0.1
  0
LTYPE
  2
DOT
 70
    64
  3
点線A
 72
    65
 73
     2
 40
0.1125
 49
0.0625
 49
-0.05
  0
LTYPE
  2
DOTX2
 70
    64
  3
点線B
 72
    65
 73
     2
 40
0.275
 49
0.15
 49
-0.125
  0
LTYPE
  2
CONTINUOUS
 70
    64
  3
実線
 72
    65
 73
     0
 40
0.0
  0
LTYPE
  2
CONTINUOUS
 70
    64
  3
実線
 72
    65
 73
     0
 40
0.0
  0
LTYPE
  2
CONTINUOUS
 70
    64
  3
実線
 72
    65
 73
     0
 40
0.0
  0
LTYPE
  2
CONTINUOUS
 70
    64
  3
実線
 72
    65
 73
     0
 40
0.0
  0
LTYPE
  2
CONTINUOUS
 70
    64
  3
実線
 72
    65
 73
     0
 40
0.0
  0
LTYPE
  2
CONTINUOUS
 70
    64
  3
実線
 72
    65
 73
     0
 40
0.0
  0
ENDTAB
  0
TABLE
  2
LAYER
 70
    34
  0
LAYER
  2
通り芯
 70
     0
 62
    15
  6
CONTINUOUS
  0
LAYER
  2
補助線
 70
     0
 62
    16
  6
DOT
  0
LAYER
  2
躯体
 70
     0
 62
    31
  6
CONTINUOUS
  0
LAYER
  2
型材
 70
     0
 62
    32
  6
CONTINUOUS
  0
LAYER
  2
型材断面
 70
     0
 62
    47
  6
CONTINUOUS
  0
LAYER
  2
ガラス
 70
     0
 62
    48
  6
CONTINUOUS
  0
LAYER
  2
ゴム等
 70
     0
 62
    63
  6
CONTINUOUS
  0
LAYER
  2
ボルト／ビス
 70
     0
 62
    64
  6
CONTINUOUS
  0
LAYER
  2
文字
 70
     0
 62
    79
  6
CONTINUOUS
  0
LAYER
  2
寸法
 70
     0
 62
    80
  6
CONTINUOUS
  0
LAYER
  2
ﾊｯﾁﾝｸﾞ
 70
     0
 62
    95
  6
CONTINUOUS
  0
LAYER
  2
別途部材
 70
     0
 62
    96
  6
CONTINUOUS
  0
LAYER
  2
曲げ物
 70
     0
 62
   111
  6
CONTINUOUS
  0
LAYER
  2
鉄骨等
 70
     0
 62
   112
  6
CONTINUOUS
  0
LAYER
  2
St
 70
     0
 62
   127
  6
CONTINUOUS
  0
LAYER
  2
その他部品等
 70
     0
 62
   128
  6
CONTINUOUS
  0
LAYER
  2
ｶﾞｽｹｯﾄ
 70
     0
 62
   143
  6
CONTINUOUS
  0
LAYER
  2
ｽｹｯﾁ
 70
     0
 62
    14
  6
CONTINUOUS
  0
LAYER
  2
0
 70
     0
 62
    17
  6
CONTINUOUS
  0
LAYER
  2
1
 70
     0
 62
    30
  6
CONTINUOUS
  0
LAYER
  2
4
 70
     0
 62
    33
  6
CONTINUOUS
  0
LAYER
  2
ﾚｲﾔ3
 70
     0
 62
    46
  6
CONTINUOUS
  0
LAYER
  2
外形線
 70
     0
 62
    49
  6
CONTINUOUS
  0
LAYER
  2
部品
 70
     0
 62
    14
  6
CONTINUOUS
  0
LAYER
  2
サッシ芯
 70
     0
 62
    17
  6
DASHDOTX2
  0
LAYER
  2
寸法線
 70
     0
 62
    62
  6
CONTINUOUS
  0
LAYER
  2
姿図外形線
 70
     0
 62
    65
  6
CONTINUOUS
  0
LAYER
  2
姿補助線
 70
     0
 62
    30
  6
CONTINUOUS
  0
LAYER
  2
透視線
 70
     0
 62
    78
  6
DOT
  0
LAYER
  2
用紙
 70
     0
 62
    81
  6
CONTINUOUS
  0
LAYER
  2
実線図枠
 70
     0
 62
    94
  6
CONTINUOUS
  0
LAYER
  2
補助図枠
 70
     0
 62
    97
  6
CONTINUOUS
  0
LAYER
  2
建具記号
 70
     0
 62
   110
  6
CONTINUOUS
  0
LAYER
  2
補助文字
 70
     0
 62
   113
  6
CONTINUOUS
  0
ENDTAB
  0
TABLE
  2
STYLE
 70
    10
  0
STYLE
  2
STANDARD
 70
     0
 40
1.0
 41
1.0
 42
1.0
 50
0.0
 71
     0
  3
TXT
  4
BIGFONT
  0
STYLE
  2
TATE
 70
     4
 40
1.0
 41
1.0
 42
1.0
 50
0.0
 71
     0
  3
TXT
  4
BIGFONT
  0
STYLE
  2
TextStyle03
 70
     0
 40
1.0
 41
1.0
 42
1.0
 50
0.0
 71
     0
  3
MONOTXT
  4
BIGFONT
  0
STYLE
  2
TextStyle04
 70
     0
 40
1.0
 41
1.0
 42
1.0
 50
0.0
 71
     0
  3
MONOTXT
  4
BIGFONT
  0
STYLE
  2
TextStyle05
 70
     0
 40
1.0
 41
1.0
 42
1.0
 50
0.0
 71
     0
  3
MONOTXT
  4
BIGFONT
  0
STYLE
  2
TextStyle06
 70
     0
 40
1.0
 41
1.0
 42
1.0
 50
0.0
 71
     0
  3
MONOTXT
  4
BIGFONT
  0
STYLE
  2
TextStyle07
 70
     0
 40
1.0
 41
1.0
 42
1.0
 50
0.0
 71
     0
  3
MONOTXT
  4
BIGFONT
  0
STYLE
  2
TextStyle08
 70
     0
 40
1.0
 41
1.0
 42
1.0
 50
0.0
 71
     0
  3
MONOTXT
  4
BIGFONT
  0
STYLE
  2
TextStyle09
 70
     0
 40
1.0
 41
1.0
 42
1.0
 50
0.0
 71
     0
  3
MONOTXT
  4
BIGFONT
  0
STYLE
  2
TextStyle10
 70
     0
 40
1.0
 41
1.0
 42
1.0
 50
0.0
 71
     0
  3
MONOTXT
  4
BIGFONT
  0
ENDTAB
  0
ENDSEC
  0
SECTION
  2
BLOCKS
  0
BLOCK
  2
*GRP_0001
 70
    65
 10
0.0
 20
0.0
  0
LINE
  8
型材断面
  6
CONTINUOUS
 10
195.0
 20
133.5
 11
195.0
 21
-133.5
  0
LINE
  8
型材断面
  6
CONTINUOUS
 10
195.0
 20
-133.5
 11
-185.0
 21
-133.5
  0
LINE
  8
型材断面
  6
CONTINUOUS
 10
-185.0
 20
-133.5
 11
-185.0
 21
133.5
  0
LINE
  8
型材断面
  6
CONTINUOUS
 10
195.0
 20
133.5
 11
-185.0
 21
133.5
  0
LINE
  8
型材断面
  6
CONTINUOUS
 10
145.0
 20
-133.5
 11
145.0
 21
-118.5
  0
LINE
  8
型材断面
  6
CONTINUOUS
 10
195.0
 20
-118.5
 11
145.0
 21
-118.5
  0
ENDBLK
  0
BLOCK
  2
*DIM_0002
 70
    65
 10
0.0
 20
0.0
  0
LINE
  8
寸法
  6
BYBLOCK
 62
     0
 10
-95.409657
 20
9.76892
 11
-95.409657
 21
4.438815
  0
LINE
  8
寸法
  6
BYBLOCK
 62
     0
 10
-20.40966
 20
9.76892
 11
-20.40966
 21
4.438815
  0
LINE
  8
寸法
  6
BYBLOCK
 62
     0
 10
-95.409657
 20
4.438815
 11
-20.40966
 21
4.438815
  0
POINT
  8
寸法
 62
     0
 10
-95.409657
 20
4.438815
  0
POINT
  8
寸法
 62
     0
 10
-20.40966
 20
4.438815
  0
TEXT
  7
TextStyle03
  8
寸法
  6
CONTINUOUS
 62
     0
 10
-61.20625
 20
4.8
  1
2250
 40
3.0
 72
     5
 11
-54.64375
 21
4.8
  0
ENDBLK
  0
BLOCK
  2
*DIM_0003
 70
    65
 10
0.0
 20
0.0
  0
LINE
  8
寸法
  6
BYBLOCK
 62
     0
 10
54.590337
 20
9.76892
 11
54.590337
 21
4.438815
  0
LINE
  8
寸法
  6
BYBLOCK
 62
     0
 10
-20.40966
 20
4.438815
 11
54.590337
 21
4.438815
  0
POINT
  8
寸法
 62
     0
 10
54.590337
 20
4.438815
  0
TEXT
  7
TextStyle03
  8
寸法
  6
CONTINUOUS
 62
     0
 10
13.79375
 20
4.8
  1
2250
 40
3.0
 72
     5
 11
20.35625
 21
4.8
  0
ENDBLK
  0
BLOCK
  2
*DIM_0004
 70
    65
 10
0.0
 20
0.0
  0
LINE
  8
寸法
  6
BYBLOCK
 62
     0
 10
72.257007
 20
56.732382
 11
81.98129
 21
56.732382
  0
LINE
  8
寸法
  6
BYBLOCK
 62
     0
 10
74.887138
 20
53.032382
 11
81.98129
 21
53.032382
  0
LINE
  8
寸法
  6
BYBLOCK
 62
     0
 10
81.98129
 20
56.732382
 11
81.98129
 21
53.032382
  0
POINT
  8
寸法
 62
     0
 10
81.98129
 20
56.732382
  0
POINT
  8
寸法
 62
     0
 10
81.98129
 20
53.032382
  0
TEXT
  7
TextStyle03
  8
寸法
  6
CONTINUOUS
 62
     0
 10
81.65
 20
57.7125
  1
111
 40
3.0
 50
90.0
 72
     5
 11
81.65
 21
62.5875
  0
ENDBLK
  0
BLOCK
  2
*DIM_0005
 70
    65
 10
0.0
 20
0.0
  0
LINE
  8
寸法
  6
BYBLOCK
 62
     0
 10
72.257007
 20
13.399048
 11
81.98129
 21
13.399045
  0
LINE
  8
寸法
  6
BYBLOCK
 62
     0
 10
74.887138
 20
17.099048
 11
81.98129
 21
17.099045
  0
LINE
  8
寸法
  6
BYBLOCK
 62
     0
 10
81.98129
 20
13.399045
 11
81.98129
 21
17.099045
  0
POINT
  8
寸法
 62
     0
 10
81.98129
 20
13.399045
  0
POINT
  8
寸法
 62
     0
 10
81.98129
 20
17.099045
  0
TEXT
  7
TextStyle03
  8
寸法
  6
CONTINUOUS
 62
     0
 10
81.625
 20
7.5375
  1
111
 40
3.0
 50
90.0
 72
     5
 11
81.625
 21
12.4125
  0
ENDBLK
  0
BLOCK
  2
*DIM_0006
 70
    65
 10
0.0
 20
0.0
  0
LINE
  8
寸法
  6
BYBLOCK
 62
     0
 10
-115.076325
 20
23.399048
 11
-144.02149
 21
23.399048
  0
LINE
  8
寸法
  6
BYBLOCK
 62
     0
 10
-115.076325
 20
46.732382
 11
-144.02149
 21
46.732382
  0
LINE
  8
寸法
  6
BYBLOCK
 62
     0
 10
-144.02149
 20
23.399048
 11
-144.02149
 21
46.732382
  0
POINT
  8
寸法
 62
     0
 10
-144.02149
 20
23.399048
  0
POINT
  8
寸法
 62
     0
 10
-144.02149
 20
46.732382
  0
TEXT
  7
TextStyle03
  8
寸法
  6
CONTINUOUS
 62
     0
 10
-144.425
 20
32.6125
  1
700
 40
3.0
 50
90.0
 72
     5
 11
-144.425
 21
37.4875
  0
ENDBLK
  0
BLOCK
  2
*DIM_0007
 70
    65
 10
0.0
 20
0.0
  0
LINE
  8
寸法
  6
BYBLOCK
 62
     0
 10
-100.40966
 20
59.73238
 11
-100.40966
 21
88.840452
  0
LINE
  8
寸法
  6
BYBLOCK
 62
     0
 10
-73.742993
 20
59.73238
 11
-73.742993
 21
88.840452
  0
LINE
  8
寸法
  6
BYBLOCK
 62
     0
 10
-100.40966
 20
88.840452
 11
-73.742993
 21
88.840452
  0
POINT
  8
寸法
 62
     0
 10
-100.40966
 20
88.840452
  0
POINT
  8
寸法
 62
     0
 10
-73.742993
 20
88.840452
  0
TEXT
  7
TextStyle03
  8
寸法
  6
CONTINUOUS
 62
     0
 10
-89.5375
 20
89.2
  1
800
 40
3.0
 72
     5
 11
-84.6625
 21
89.2
  0
ENDBLK
  0
BLOCK
  2
*DIM_0008
 70
    65
 10
0.0
 20
0.0
  0
LINE
  8
寸法
  6
BYBLOCK
 62
     0
 10
-47.076328
 20
59.73238
 11
-47.076328
 21
88.840452
  0
LINE
  8
寸法
  6
BYBLOCK
 62
     0
 10
-73.742993
 20
88.840452
 11
-47.076328
 21
88.840452
  0
POINT
  8
寸法
 62
     0
 10
-47.076328
 20
88.840452
  0
TEXT
  7
TextStyle03
  8
寸法
  6
CONTINUOUS
 62
     0
 10
-62.8625
 20
89.2
  1
800
 40
3.0
 72
     5
 11
-57.9875
 21
89.2
  0
ENDBLK
  0
BLOCK
  2
*DIM_0009
 70
    65
 10
0.0
 20
0.0
  0
LINE
  8
寸法
  6
BYBLOCK
 62
     0
 10
-20.40966
 20
59.73238
 11
-20.40966
 21
88.840452
  0
LINE
  8
寸法
  6
BYBLOCK
 62
     0
 10
-47.076328
 20
88.840452
 11
-20.40966
 21
88.840452
  0
POINT
  8
寸法
 62
     0
 10
-20.40966
 20
88.840452
  0
TEXT
  7
TextStyle03
  8
寸法
  6
CONTINUOUS
 62
     0
 10
-36.1875
 20
89.2
  1
800
 40
3.0
 72
     5
 11
-31.3125
 21
89.2
  0
ENDBLK
  0
BLOCK
  2
*DIM_0010
 70
    65
 10
0.0
 20
0.0
  0
LINE
  8
寸法
  6
BYBLOCK
 62
     0
 10
6.257007
 20
59.73238
 11
6.257007
 21
88.840452
  0
LINE
  8
寸法
  6
BYBLOCK
 62
     0
 10
-20.40966
 20
88.840452
 11
6.257007
 21
88.840452
  0
POINT
  8
寸法
 62
     0
 10
6.257007
 20
88.840452
  0
TEXT
  7
TextStyle03
  8
寸法
  6
CONTINUOUS
 62
     0
 10
-9.5375
 20
89.2
  1
800
 40
3.0
 72
     5
 11
-4.6625
 21
89.2
  0
ENDBLK
  0
BLOCK
  2
*DIM_0011
 70
    65
 10
0.0
 20
0.0
  0
LINE
  8
寸法
  6
BYBLOCK
 62
     0
 10
32.923673
 20
59.73238
 11
32.923673
 21
88.840452
  0
LINE
  8
寸法
  6
BYBLOCK
 62
     0
 10
6.257007
 20
88.840452
 11
32.923673
 21
88.840452
  0
POINT
  8
寸法
 62
     0
 10
32.923673
 20
88.840452
  0
TEXT
  7
TextStyle03
  8
寸法
  6
CONTINUOUS
 62
     0
 10
17.1375
 20
89.2
  1
800
 40
3.0
 72
     5
 11
22.0125
 21
89.2
  0
ENDBLK
  0
BLOCK
  2
*DIM_0012
 70
    65
 10
0.0
 20
0.0
  0
LINE
  8
寸法
  6
BYBLOCK
 62
     0
 10
59.59034
 20
59.73238
 11
59.59034
 21
88.840452
  0
LINE
  8
寸法
  6
BYBLOCK
 62
     0
 10
32.923673
 20
88.840452
 11
59.59034
 21
88.840452
  0
POINT
  8
寸法
 62
     0
 10
59.59034
 20
88.840452
  0
TEXT
  7
TextStyle03
  8
寸法
  6
CONTINUOUS
 62
     0
 10
43.8125
 20
89.2
  1
800
 40
3.0
 72
     5
 11
48.6875
 21
89.2
  0
ENDBLK
  0
BLOCK
  2
*DIM_0013
 70
    65
 10
0.0
 20
0.0
  0
LINE
  8
寸法
  6
CONTINUOUS
 10
105.276657
 20
59.495565
 11
105.276657
 21
56.73238
  0
POINT
  8
寸法
 10
105.276657
 20
59.495565
  0
POINT
  8
寸法
 10
105.276657
 20
56.73238
  0
TEXT
  7
TextStyle03
  8
寸法
  6
CONTINUOUS
 10
106.675
 20
60.54375
  1
82.9
 40
3.0
 50
90.0
 72
     5
 11
106.675
 21
67.10625
  0
ENDBLK
  0
BLOCK
  2
*DIM_0014
 70
    65
 10
0.0
 20
0.0
  0
LINE
  8
寸法
  6
CONTINUOUS
 10
105.276657
 20
13.399048
 11
105.276657
 21
10.63586
  0
POINT
  8
寸法
 10
105.276657
 20
13.399048
  0
POINT
  8
寸法
 10
105.276657
 20
10.63586
  0
TEXT
  7
TextStyle03
  8
寸法
  6
CONTINUOUS
 10
106.675
 20
2.99375
  1
82.9
 40
3.0
 50
90.0
 72
     5
 11
106.675
 21
9.55625
  0
ENDBLK
  0
BLOCK
  2
*DIM_0015
 70
    65
 10
0.0
 20
0.0
  0
LINE
  8
寸法
  6
CONTINUOUS
 10
105.276657
 20
56.73238
 11
105.276657
 21
13.399048
  0
POINT
  8
寸法
 10
105.276657
 20
56.73238
  0
POINT
  8
寸法
 10
105.276657
 20
13.399048
  0
TEXT
  7
TextStyle03
  8
寸法
  6
CONTINUOUS
 10
104.9
 20
24.175
  1
呼称寸法=1300
 40
3.0
 50
90.0
 72
     5
 11
104.9
 21
45.925
  0
ENDBLK
  0
BLOCK
  2
*DIM_0016
 70
    65
 10
0.0
 20
0.0
  0
LINE
  8
寸法
  6
CONTINUOUS
 10
-112.076332
 20
-22.024302
 11
-114.839665
 21
-22.024302
  0
POINT
  8
寸法
 10
-112.076332
 20
-22.024302
  0
POINT
  8
寸法
 10
-114.839665
 20
-22.024302
  0
TEXT
  7
TextStyle03
  8
寸法
  6
CONTINUOUS
 10
-119.43125
 20
-21.075
  1
82.9
 40
3.0
 72
     5
 11
-112.86875
 21
-21.075
  0
ENDBLK
  0
BLOCK
  2
*DIM_0017
 70
    65
 10
0.0
 20
0.0
  0
LINE
  8
寸法
  6
CONTINUOUS
 10
74.020342
 20
-22.024302
 11
71.257007
 21
-22.024302
  0
POINT
  8
寸法
 10
74.020342
 20
-22.024302
  0
POINT
  8
寸法
 10
71.257007
 20
-22.024302
  0
TEXT
  7
TextStyle03
  8
寸法
  6
CONTINUOUS
 10
72.24375
 20
-21.125
  1
82.9
 40
3.0
 72
     5
 11
78.80625
 21
-21.125
  0
ENDBLK
  0
BLOCK
  2
*GRP_0018
 70
    65
 10
0.0
 20
0.0
  0
LINE
  8
補助線
  6
BYBLOCK
 62
    64
 10
-108.68107
 20
-84.012327
 11
-108.804915
 21
-84.123863
  0
LINE
  8
補助線
  6
BYBLOCK
 62
    64
 10
-108.798762
 20
-84.00617
 11
-108.687225
 21
-84.130018
  0
LINE
  8
補助線
  6
BYBLOCK
 62
    64
 10
-97.965967
 20
-74.362302
 11
-98.089812
 21
-74.473837
  0
LINE
  8
補助線
  6
BYBLOCK
 62
    64
 10
-98.083658
 20
-74.356145
 11
-97.972123
 21
-74.479993
  0
LINE
  8
補助線
  6
BYBLOCK
 62
    64
 10
-87.37471
 20
-64.823812
 11
-87.250867
 21
-64.712277
  0
LINE
  8
補助線
  6
BYBLOCK
 62
    64
 10
-87.368558
 20
-64.70612
 11
-87.25702
 21
-64.829968
  0
LINE
  8
型材断面
  6
CONTINUOUS
 10
-109.54836
 20
-83.67194
 11
-109.585287
 21
-84.37808
  0
LINE
  8
型材断面
  6
CONTINUOUS
 10
-109.585287
 20
-84.37808
 11
-109.139148
 21
-84.873463
  0
LINE
  8
型材断面
  6
CONTINUOUS
 10
-109.139148
 20
-84.873463
 11
-108.433005
 21
-84.910393
  0
LINE
  8
型材断面
  6
CONTINUOUS
 10
-87.622772
 20
-63.92575
 11
-86.916633
 21
-63.96268
  0
LINE
  8
型材断面
  6
CONTINUOUS
 10
-86.916633
 20
-63.96268
 11
-86.47049
 21
-64.45806
  0
LINE
  8
型材断面
  6
CONTINUOUS
 10
-86.47049
 20
-64.45806
 11
-86.50742
 21
-65.164205
  0
LINE
  8
型材断面
  6
CONTINUOUS
 10
-108.433005
 20
-84.910393
 11
-86.50742
 21
-65.164205
  0
LINE
  8
型材断面
  6
CONTINUOUS
 10
-109.54836
 20
-83.67194
 11
-87.622772
 21
-63.92575
  0
CIRCLE
  8
ボルト／ビス
  6
CONTINUOUS
 10
-108.742993
 20
-84.068095
 40
0.250185
  0
CIRCLE
  8
ボルト／ビス
  6
CONTINUOUS
 10
-108.742993
 20
-84.068095
 40
0.301025
  0
LINE
  8
ボルト／ビス
  6
CONTINUOUS
 62
    64
 10
-108.987705
 20
-84.12014
 11
-108.91042
 21
-83.88219
  0
LINE
  8
ボルト／ビス
  6
CONTINUOUS
 62
    64
 10
-108.665708
 20
-83.830145
 11
-108.91042
 21
-83.88219
  0
LINE
  8
ボルト／ビス
  6
CONTINUOUS
 62
    64
 10
-108.820277
 20
-84.306045
 11
-108.575565
 21
-84.254
  0
LINE
  8
ボルト／ビス
  6
CONTINUOUS
 62
    64
 10
-108.49828
 20
-84.01605
 11
-108.575565
 21
-84.254
  0
LINE
  8
ボルト／ビス
  6
CONTINUOUS
 62
    64
 10
-108.987705
 20
-84.12014
 11
-108.820277
 21
-84.306045
  0
LINE
  8
ボルト／ビス
  6
CONTINUOUS
 62
    64
 10
-108.665708
 20
-83.830145
 11
-108.49828
 21
-84.01605
  0
CIRCLE
  8
ボルト／ビス
  6
CONTINUOUS
 62
    64
 10
-108.742993
 20
-84.068095
 40
0.216668
  0
CIRCLE
  8
ボルト／ビス
  6
CONTINUOUS
 10
-98.02789
 20
-74.418073
 40
0.250185
  0
CIRCLE
  8
ボルト／ビス
  6
CONTINUOUS
 10
-98.02789
 20
-74.418073
 40
0.301025
  0
LINE
  8
ボルト／ビス
  6
CONTINUOUS
 62
    64
 10
-98.272605
 20
-74.470115
 11
-98.195317
 21
-74.232165
  0
LINE
  8
ボルト／ビス
  6
CONTINUOUS
 62
    64
 10
-97.950605
 20
-74.180123
 11
-98.195317
 21
-74.232165
  0
LINE
  8
ボルト／ビス
  6
CONTINUOUS
 62
    64
 10
-98.105177
 20
-74.65602
 11
-97.860465
 21
-74.603975
  0
LINE
  8
ボルト／ビス
  6
CONTINUOUS
 62
    64
 10
-97.783177
 20
-74.366028
 11
-97.860465
 21
-74.603975
  0
LINE
  8
ボルト／ビス
  6
CONTINUOUS
 62
    64
 10
-98.272605
 20
-74.470115
 11
-98.105177
 21
-74.65602
  0
LINE
  8
ボルト／ビス
  6
CONTINUOUS
 62
    64
 10
-97.950605
 20
-74.180123
 11
-97.783177
 21
-74.366028
  0
CIRCLE
  8
ボルト／ビス
  6
CONTINUOUS
 62
    64
 10
-98.02789
 20
-74.418073
 40
0.216668
  0
CIRCLE
  8
ボルト／ビス
  6
CONTINUOUS
 10
-87.31279
 20
-64.768045
 40
0.250185
  0
CIRCLE
  8
ボルト／ビス
  6
CONTINUOUS
 10
-87.31279
 20
-64.768045
 40
0.301025
  0
LINE
  8
ボルト／ビス
  6
CONTINUOUS
 62
    64
 10
-87.235502
 20
-64.530095
 11
-87.480215
 21
-64.58214
  0
LINE
  8
ボルト／ビス
  6
CONTINUOUS
 62
    64
 10
-87.5575
 20
-64.82009
 11
-87.480215
 21
-64.58214
  0
LINE
  8
ボルト／ビス
  6
CONTINUOUS
 62
    64
 10
-87.068075
 20
-64.716
 11
-87.145363
 21
-64.95395
  0
LINE
  8
ボルト／ビス
  6
CONTINUOUS
 62
    64
 10
-87.390075
 20
-65.005995
 11
-87.145363
 21
-64.95395
  0
LINE
  8
ボルト／ビス
  6
CONTINUOUS
 62
    64
 10
-87.235502
 20
-64.530095
 11
-87.068075
 21
-64.716
  0
LINE
  8
ボルト／ビス
  6
CONTINUOUS
 62
    64
 10
-87.5575
 20
-64.82009
 11
-87.390075
 21
-65.005995
  0
CIRCLE
  8
ボルト／ビス
  6
CONTINUOUS
 62
    64
 10
-87.31279
 20
-64.768045
 40
0.216668
  0
ENDBLK
  0
BLOCK
  2
*GRP_0019
 70
    65
 10
0.0
 20
0.0
  0
LINE
  8
補助線
  6
BYBLOCK
 62
    64
 10
-87.37471
 20
-84.012327
 11
-87.250865
 21
-84.123863
  0
LINE
  8
補助線
  6
BYBLOCK
 62
    64
 10
-87.257017
 20
-84.00617
 11
-87.368555
 21
-84.130018
  0
LINE
  8
補助線
  6
BYBLOCK
 62
    64
 10
-98.089812
 20
-74.362302
 11
-97.965967
 21
-74.473837
  0
LINE
  8
補助線
  6
BYBLOCK
 62
    64
 10
-97.972123
 20
-74.356145
 11
-98.083658
 21
-74.479993
  0
LINE
  8
補助線
  6
BYBLOCK
 62
    64
 10
-108.68107
 20
-64.823812
 11
-108.804912
 21
-64.712277
  0
LINE
  8
補助線
  6
BYBLOCK
 62
    64
 10
-108.687223
 20
-64.70612
 11
-108.79876
 21
-64.829968
  0
LINE
  8
型材断面
  6
CONTINUOUS
 10
-86.50742
 20
-83.67194
 11
-86.470493
 21
-84.37808
  0
LINE
  8
型材断面
  6
CONTINUOUS
 10
-86.470493
 20
-84.37808
 11
-86.916633
 21
-84.873463
  0
LINE
  8
型材断面
  6
CONTINUOUS
 10
-86.916633
 20
-84.873463
 11
-87.622775
 21
-84.910393
  0
LINE
  8
型材断面
  6
CONTINUOUS
 10
-108.433007
 20
-63.92575
 11
-109.139148
 21
-63.96268
  0
LINE
  8
型材断面
  6
CONTINUOUS
 10
-109.139148
 20
-63.96268
 11
-109.58529
 21
-64.45806
  0
LINE
  8
型材断面
  6
CONTINUOUS
 10
-109.58529
 20
-64.45806
 11
-109.54836
 21
-65.164205
  0
LINE
  8
型材断面
  6
CONTINUOUS
 10
-87.622775
 20
-84.910393
 11
-109.54836
 21
-65.164205
  0
LINE
  8
型材断面
  6
CONTINUOUS
 10
-86.50742
 20
-83.67194
 11
-108.433007
 21
-63.92575
  0
CIRCLE
  8
ボルト／ビス
  6
CONTINUOUS
 10
-87.312788
 20
-84.068095
 40
0.250185
  0
CIRCLE
  8
ボルト／ビス
  6
CONTINUOUS
 10
-87.312788
 20
-84.068095
 40
0.301025
  0
LINE
  8
ボルト／ビス
  6
CONTINUOUS
 62
    64
 10
-87.068075
 20
-84.12014
 11
-87.14536
 21
-83.88219
  0
LINE
  8
ボルト／ビス
  6
CONTINUOUS
 62
    64
 10
-87.390073
 20
-83.830145
 11
-87.14536
 21
-83.88219
  0
LINE
  8
ボルト／ビス
  6
CONTINUOUS
 62
    64
 10
-87.235502
 20
-84.306045
 11
-87.480215
 21
-84.254
  0
LINE
  8
ボルト／ビス
  6
CONTINUOUS
 62
    64
 10
-87.5575
 20
-84.01605
 11
-87.480215
 21
-84.254
  0
LINE
  8
ボルト／ビス
  6
CONTINUOUS
 62
    64
 10
-87.068075
 20
-84.12014
 11
-87.235502
 21
-84.306045
  0
LINE
  8
ボルト／ビス
  6
CONTINUOUS
 62
    64
 10
-87.390073
 20
-83.830145
 11
-87.5575
 21
-84.01605
  0
CIRCLE
  8
ボルト／ビス
  6
CONTINUOUS
 62
    64
 10
-87.312788
 20
-84.068095
 40
0.216668
  0
CIRCLE
  8
ボルト／ビス
  6
CONTINUOUS
 10
-98.02789
 20
-74.418073
 40
0.250185
  0
CIRCLE
  8
ボルト／ビス
  6
CONTINUOUS
 10
-98.02789
 20
-74.418073
 40
0.301025
  0
LINE
  8
ボルト／ビス
  6
CONTINUOUS
 62
    64
 10
-97.783175
 20
-74.470115
 11
-97.860462
 21
-74.232165
  0
LINE
  8
ボルト／ビス
  6
CONTINUOUS
 62
    64
 10
-98.105175
 20
-74.180123
 11
-97.860462
 21
-74.232165
  0
LINE
  8
ボルト／ビス
  6
CONTINUOUS
 62
    64
 10
-97.950602
 20
-74.65602
 11
-98.195315
 21
-74.603975
  0
LINE
  8
ボルト／ビス
  6
CONTINUOUS
 62
    64
 10
-98.272602
 20
-74.366028
 11
-98.195315
 21
-74.603975
  0
LINE
  8
ボルト／ビス
  6
CONTINUOUS
 62
    64
 10
-97.783175
 20
-74.470115
 11
-97.950602
 21
-74.65602
  0
LINE
  8
ボルト／ビス
  6
CONTINUOUS
 62
    64
 10
-98.105175
 20
-74.180123
 11
-98.272602
 21
-74.366028
  0
CIRCLE
  8
ボルト／ビス
  6
CONTINUOUS
 62
    64
 10
-98.02789
 20
-74.418073
 40
0.216668
  0
CIRCLE
  8
ボルト／ビス
  6
CONTINUOUS
 10
-108.74299
 20
-64.768045
 40
0.250185
  0
CIRCLE
  8
ボルト／ビス
  6
CONTINUOUS
 10
-108.74299
 20
-64.768045
 40
0.301025
  0
LINE
  8
ボルト／ビス
  6
CONTINUOUS
 62
    64
 10
-108.820277
 20
-64.530095
 11
-108.575565
 21
-64.58214
  0
LINE
  8
ボルト／ビス
  6
CONTINUOUS
 62
    64
 10
-108.49828
 20
-64.82009
 11
-108.575565
 21
-64.58214
  0
LINE
  8
ボルト／ビス
  6
CONTINUOUS
 62
    64
 10
-108.987705
 20
-64.716
 11
-108.910418
 21
-64.95395
  0
LINE
  8
ボルト／ビス
  6
CONTINUOUS
 62
    64
 10
-108.665705
 20
-65.005995
 11
-108.910418
 21
-64.95395
  0
LINE
  8
ボルト／ビス
  6
CONTINUOUS
 62
    64
 10
-108.820277
 20
-64.530095
 11
-108.987705
 21
-64.716
  0
LINE
  8
ボルト／ビス
  6
CONTINUOUS
 62
    64
 10
-108.49828
 20
-64.82009
 11
-108.665705
 21
-65.005995
  0
CIRCLE
  8
ボルト／ビス
  6
CONTINUOUS
 62
    64
 10
-108.74299
 20
-64.768045
 40
0.216668
  0
ENDBLK
  0
BLOCK
  2
*GRP_0020
 70
    65
 10
0.0
 20
0.0
  0
LINE
  8
補助線
  6
BYBLOCK
 62
    64
 10
67.861755
 20
-84.012327
 11
67.9856
 21
-84.123863
  0
LINE
  8
補助線
  6
BYBLOCK
 62
    64
 10
67.979448
 20
-84.00617
 11
67.86791
 21
-84.130018
  0
LINE
  8
補助線
  6
BYBLOCK
 62
    64
 10
57.146652
 20
-74.362302
 11
57.270498
 21
-74.473837
  0
LINE
  8
補助線
  6
BYBLOCK
 62
    64
 10
57.264343
 20
-74.356145
 11
57.152808
 21
-74.479993
  0
LINE
  8
補助線
  6
BYBLOCK
 62
    64
 10
46.555395
 20
-64.823812
 11
46.431552
 21
-64.712277
  0
LINE
  8
補助線
  6
BYBLOCK
 62
    64
 10
46.549243
 20
-64.70612
 11
46.437705
 21
-64.829968
  0
LINE
  8
型材断面
  6
CONTINUOUS
 10
68.729045
 20
-83.67194
 11
68.765972
 21
-84.37808
  0
LINE
  8
型材断面
  6
CONTINUOUS
 10
68.765972
 20
-84.37808
 11
68.319832
 21
-84.873463
  0
LINE
  8
型材断面
  6
CONTINUOUS
 10
68.319832
 20
-84.873463
 11
67.61369
 21
-84.910393
  0
LINE
  8
型材断面
  6
CONTINUOUS
 10
46.803457
 20
-63.92575
 11
46.097317
 21
-63.96268
  0
LINE
  8
型材断面
  6
CONTINUOUS
 10
46.097317
 20
-63.96268
 11
45.651175
 21
-64.45806
  0
LINE
  8
型材断面
  6
CONTINUOUS
 10
45.651175
 20
-64.45806
 11
45.688105
 21
-65.164205
  0
LINE
  8
型材断面
  6
CONTINUOUS
 10
67.61369
 20
-84.910393
 11
45.688105
 21
-65.164205
  0
LINE
  8
型材断面
  6
CONTINUOUS
 10
68.729045
 20
-83.67194
 11
46.803457
 21
-63.92575
  0
CIRCLE
  8
ボルト／ビス
  6
CONTINUOUS
 10
67.923677
 20
-84.068095
 40
0.250185
  0
CIRCLE
  8
ボルト／ビス
  6
CONTINUOUS
 10
67.923677
 20
-84.068095
 40
0.301025
  0
LINE
  8
ボルト／ビス
  6
CONTINUOUS
 62
    64
 10
68.16839
 20
-84.12014
 11
68.091105
 21
-83.88219
  0
LINE
  8
ボルト／ビス
  6
CONTINUOUS
 62
    64
 10
67.846393
 20
-83.830145
 11
68.091105
 21
-83.88219
  0
LINE
  8
ボルト／ビス
  6
CONTINUOUS
 62
    64
 10
68.000963
 20
-84.306045
 11
67.75625
 21
-84.254
  0
LINE
  8
ボルト／ビス
  6
CONTINUOUS
 62
    64
 10
67.678965
 20
-84.01605
 11
67.75625
 21
-84.254
  0
LINE
  8
ボルト／ビス
  6
CONTINUOUS
 62
    64
 10
68.16839
 20
-84.12014
 11
68.000963
 21
-84.306045
  0
LINE
  8
ボルト／ビス
  6
CONTINUOUS
 62
    64
 10
67.846393
 20
-83.830145
 11
67.678965
 21
-84.01605
  0
CIRCLE
  8
ボルト／ビス
  6
CONTINUOUS
 62
    64
 10
67.923677
 20
-84.068095
 40
0.216668
  0
CIRCLE
  8
ボルト／ビス
  6
CONTINUOUS
 10
57.208575
 20
-74.418073
 40
0.250185
  0
CIRCLE
  8
ボルト／ビス
  6
CONTINUOUS
 10
57.208575
 20
-74.418073
 40
0.301025
  0
LINE
  8
ボルト／ビス
  6
CONTINUOUS
 62
    64
 10
57.45329
 20
-74.470115
 11
57.376002
 21
-74.232165
  0
LINE
  8
ボルト／ビス
  6
CONTINUOUS
 62
    64
 10
57.13129
 20
-74.180123
 11
57.376002
 21
-74.232165
  0
LINE
  8
ボルト／ビス
  6
CONTINUOUS
 62
    64
 10
57.285863
 20
-74.65602
 11
57.04115
 21
-74.603975
  0
LINE
  8
ボルト／ビス
  6
CONTINUOUS
 62
    64
 10
56.963862
 20
-74.366028
 11
57.04115
 21
-74.603975
  0
LINE
  8
ボルト／ビス
  6
CONTINUOUS
 62
    64
 10
57.45329
 20
-74.470115
 11
57.285863
 21
-74.65602
  0
LINE
  8
ボルト／ビス
  6
CONTINUOUS
 62
    64
 10
57.13129
 20
-74.180123
 11
56.963862
 21
-74.366028
  0
CIRCLE
  8
ボルト／ビス
  6
CONTINUOUS
 62
    64
 10
57.208575
 20
-74.418073
 40
0.216668
  0
CIRCLE
  8
ボルト／ビス
  6
CONTINUOUS
 10
46.493475
 20
-64.768045
 40
0.250185
  0
CIRCLE
  8
ボルト／ビス
  6
CONTINUOUS
 10
46.493475
 20
-64.768045
 40
0.301025
  0
LINE
  8
ボルト／ビス
  6
CONTINUOUS
 62
    64
 10
46.416187
 20
-64.530095
 11
46.6609
 21
-64.58214
  0
LINE
  8
ボルト／ビス
  6
CONTINUOUS
 62
    64
 10
46.738185
 20
-64.82009
 11
46.6609
 21
-64.58214
  0
LINE
  8
ボルト／ビス
  6
CONTINUOUS
 62
    64
 10
46.24876
 20
-64.716
 11
46.326047
 21
-64.95395
  0
LINE
  8
ボルト／ビス
  6
CONTINUOUS
 62
    64
 10
46.57076
 20
-65.005995
 11
46.326047
 21
-64.95395
  0
LINE
  8
ボルト／ビス
  6
CONTINUOUS
 62
    64
 10
46.416187
 20
-64.530095
 11
46.24876
 21
-64.716
  0
LINE
  8
ボルト／ビス
  6
CONTINUOUS
 62
    64
 10
46.738185
 20
-64.82009
 11
46.57076
 21
-65.005995
  0
CIRCLE
  8
ボルト／ビス
  6
CONTINUOUS
 62
    64
 10
46.493475
 20
-64.768045
 40
0.216668
  0
ENDBLK
  0
BLOCK
  2
*GRP_0021
 70
    65
 10
0.0
 20
0.0
  0
LINE
  8
補助線
  6
BYBLOCK
 62
    64
 10
46.555395
 20
-84.012327
 11
46.43155
 21
-84.123863
  0
LINE
  8
補助線
  6
BYBLOCK
 62
    64
 10
46.437702
 20
-84.00617
 11
46.54924
 21
-84.130018
  0
LINE
  8
補助線
  6
BYBLOCK
 62
    64
 10
57.270498
 20
-74.362302
 11
57.146652
 21
-74.473837
  0
LINE
  8
補助線
  6
BYBLOCK
 62
    64
 10
57.152808
 20
-74.356145
 11
57.264343
 21
-74.479993
  0
LINE
  8
補助線
  6
BYBLOCK
 62
    64
 10
67.861755
 20
-64.823812
 11
67.985598
 21
-64.712277
  0
LINE
  8
補助線
  6
BYBLOCK
 62
    64
 10
67.867908
 20
-64.70612
 11
67.979445
 21
-64.829968
  0
LINE
  8
型材断面
  6
CONTINUOUS
 10
45.688105
 20
-83.67194
 11
45.651178
 21
-84.37808
  0
LINE
  8
型材断面
  6
CONTINUOUS
 10
45.651178
 20
-84.37808
 11
46.097317
 21
-84.873463
  0
LINE
  8
型材断面
  6
CONTINUOUS
 10
46.097317
 20
-84.873463
 11
46.80346
 21
-84.910393
  0
LINE
  8
型材断面
  6
CONTINUOUS
 10
67.613693
 20
-63.92575
 11
68.319832
 21
-63.96268
  0
LINE
  8
型材断面
  6
CONTINUOUS
 10
68.319832
 20
-63.96268
 11
68.765975
 21
-64.45806
  0
LINE
  8
型材断面
  6
CONTINUOUS
 10
68.765975
 20
-64.45806
 11
68.729045
 21
-65.164205
  0
LINE
  8
型材断面
  6
CONTINUOUS
 10
46.80346
 20
-84.910393
 11
68.729045
 21
-65.164205
  0
LINE
  8
型材断面
  6
CONTINUOUS
 10
45.688105
 20
-83.67194
 11
67.613693
 21
-63.92575
  0
CIRCLE
  8
ボルト／ビス
  6
CONTINUOUS
 10
46.493472
 20
-84.068095
 40
0.250185
  0
CIRCLE
  8
ボルト／ビス
  6
CONTINUOUS
 10
46.493472
 20
-84.068095
 40
0.301025
  0
LINE
  8
ボルト／ビス
  6
CONTINUOUS
 62
    64
 10
46.24876
 20
-84.12014
 11
46.326045
 21
-83.88219
  0
LINE
  8
ボルト／ビス
  6
CONTINUOUS
 62
    64
 10
46.570758
 20
-83.830145
 11
46.326045
 21
-83.88219
  0
LINE
  8
ボルト／ビス
  6
CONTINUOUS
 62
    64
 10
46.416187
 20
-84.306045
 11
46.6609
 21
-84.254
  0
LINE
  8
ボルト／ビス
  6
CONTINUOUS
 62
    64
 10
46.738185
 20
-84.01605
 11
46.6609
 21
-84.254
  0
LINE
  8
ボルト／ビス
  6
CONTINUOUS
 62
    64
 10
46.24876
 20
-84.12014
 11
46.416187
 21
-84.306045
  0
LINE
  8
ボルト／ビス
  6
CONTINUOUS
 62
    64
 10
46.570758
 20
-83.830145
 11
46.738185
 21
-84.01605
  0
CIRCLE
  8
ボルト／ビス
  6
CONTINUOUS
 62
    64
 10
46.493472
 20
-84.068095
 40
0.216668
  0
CIRCLE
  8
ボルト／ビス
  6
CONTINUOUS
 10
57.208575
 20
-74.418073
 40
0.250185
  0
CIRCLE
  8
ボルト／ビス
  6
CONTINUOUS
 10
57.208575
 20
-74.418073
 40
0.301025
  0
LINE
  8
ボルト／ビス
  6
CONTINUOUS
 62
    64
 10
56.96386
 20
-74.470115
 11
57.041148
 21
-74.232165
  0
LINE
  8
ボルト／ビス
  6
CONTINUOUS
 62
    64
 10
57.28586
 20
-74.180123
 11
57.041148
 21
-74.232165
  0
LINE
  8
ボルト／ビス
  6
CONTINUOUS
 62
    64
 10
57.131287
 20
-74.65602
 11
57.376
 21
-74.603975
  0
LINE
  8
ボルト／ビス
  6
CONTINUOUS
 62
    64
 10
57.453288
 20
-74.366028
 11
57.376
 21
-74.603975
  0
LINE
  8
ボルト／ビス
  6
CONTINUOUS
 62
    64
 10
56.96386
 20
-74.470115
 11
57.131287
 21
-74.65602
  0
LINE
  8
ボルト／ビス
  6
CONTINUOUS
 62
    64
 10
57.28586
 20
-74.180123
 11
57.453288
 21
-74.366028
  0
CIRCLE
  8
ボルト／ビス
  6
CONTINUOUS
 62
    64
 10
57.208575
 20
-74.418073
 40
0.216668
  0
CIRCLE
  8
ボルト／ビス
  6
CONTINUOUS
 10
67.923675
 20
-64.768045
 40
0.250185
  0
CIRCLE
  8
ボルト／ビス
  6
CONTINUOUS
 10
67.923675
 20
-64.768045
 40
0.301025
  0
LINE
  8
ボルト／ビス
  6
CONTINUOUS
 62
    64
 10
68.000963
 20
-64.530095
 11
67.75625
 21
-64.58214
  0
LINE
  8
ボルト／ビス
  6
CONTINUOUS
 62
    64
 10
67.678965
 20
-64.82009
 11
67.75625
 21
-64.58214
  0
LINE
  8
ボルト／ビス
  6
CONTINUOUS
 62
    64
 10
68.16839
 20
-64.716
 11
68.091102
 21
-64.95395
  0
LINE
  8
ボルト／ビス
  6
CONTINUOUS
 62
    64
 10
67.84639
 20
-65.005995
 11
68.091102
 21
-64.95395
  0
LINE
  8
ボルト／ビス
  6
CONTINUOUS
 62
    64
 10
68.000963
 20
-64.530095
 11
68.16839
 21
-64.716
  0
LINE
  8
ボルト／ビス
  6
CONTINUOUS
 62
    64
 10
67.678965
 20
-64.82009
 11
67.84639
 21
-65.005995
  0
CIRCLE
  8
ボルト／ビス
  6
CONTINUOUS
 62
    64
 10
67.923675
 20
-64.768045
 40
0.216668
  0
ENDBLK
  0
BLOCK
  2
*GRP_0022
 70
    65
 10
0.0
 20
0.0
  0
LINE
  8
補助線
  6
BYBLOCK
 62
    64
 10
-9.756477
 20
-84.012327
 11
-9.632632
 21
-84.123863
  0
LINE
  8
補助線
  6
BYBLOCK
 62
    64
 10
-9.638785
 20
-84.00617
 11
-9.750323
 21
-84.130018
  0
LINE
  8
補助線
  6
BYBLOCK
 62
    64
 10
-20.47158
 20
-74.362302
 11
-20.347735
 21
-74.473837
  0
LINE
  8
補助線
  6
BYBLOCK
 62
    64
 10
-20.35389
 20
-74.356145
 11
-20.465425
 21
-74.479993
  0
LINE
  8
補助線
  6
BYBLOCK
 62
    64
 10
-31.062838
 20
-64.823812
 11
-31.18668
 21
-64.712277
  0
LINE
  8
補助線
  6
BYBLOCK
 62
    64
 10
-31.06899
 20
-64.70612
 11
-31.180527
 21
-64.829968
  0
LINE
  8
型材断面
  6
CONTINUOUS
 10
-8.889188
 20
-83.67194
 11
-8.85226
 21
-84.37808
  0
LINE
  8
型材断面
  6
CONTINUOUS
 10
-8.85226
 20
-84.37808
 11
-9.2984
 21
-84.873463
  0
LINE
  8
型材断面
  6
CONTINUOUS
 10
-9.2984
 20
-84.873463
 11
-10.004543
 21
-84.910393
  0
LINE
  8
型材断面
  6
CONTINUOUS
 10
-30.814775
 20
-63.92575
 11
-31.520915
 21
-63.96268
  0
LINE
  8
型材断面
  6
CONTINUOUS
 10
-31.520915
 20
-63.96268
 11
-31.967058
 21
-64.45806
  0
LINE
  8
型材断面
  6
CONTINUOUS
 10
-31.967058
 20
-64.45806
 11
-31.930127
 21
-65.164205
  0
LINE
  8
型材断面
  6
CONTINUOUS
 10
-10.004543
 20
-84.910393
 11
-31.930127
 21
-65.164205
  0
LINE
  8
型材断面
  6
CONTINUOUS
 10
-8.889188
 20
-83.67194
 11
-30.814775
 21
-63.92575
  0
CIRCLE
  8
ボルト／ビス
  6
CONTINUOUS
 10
-9.694555
 20
-84.068095
 40
0.250185
  0
CIRCLE
  8
ボルト／ビス
  6
CONTINUOUS
 10
-9.694555
 20
-84.068095
 40
0.301025
  0
LINE
  8
ボルト／ビス
  6
CONTINUOUS
 62
    64
 10
-9.449842
 20
-84.12014
 11
-9.527128
 21
-83.88219
  0
LINE
  8
ボルト／ビス
  6
CONTINUOUS
 62
    64
 10
-9.77184
 20
-83.830145
 11
-9.527128
 21
-83.88219
  0
LINE
  8
ボルト／ビス
  6
CONTINUOUS
 62
    64
 10
-9.61727
 20
-84.306045
 11
-9.861982
 21
-84.254
  0
LINE
  8
ボルト／ビス
  6
CONTINUOUS
 62
    64
 10
-9.939268
 20
-84.01605
 11
-9.861982
 21
-84.254
  0
LINE
  8
ボルト／ビス
  6
CONTINUOUS
 62
    64
 10
-9.449842
 20
-84.12014
 11
-9.61727
 21
-84.306045
  0
LINE
  8
ボルト／ビス
  6
CONTINUOUS
 62
    64
 10
-9.77184
 20
-83.830145
 11
-9.939268
 21
-84.01605
  0
CIRCLE
  8
ボルト／ビス
  6
CONTINUOUS
 62
    64
 10
-9.694555
 20
-84.068095
 40
0.216668
  0
CIRCLE
  8
ボルト／ビス
  6
CONTINUOUS
 10
-20.409657
 20
-74.418073
 40
0.250185
  0
CIRCLE
  8
ボルト／ビス
  6
CONTINUOUS
 10
-20.409657
 20
-74.418073
 40
0.301025
  0
LINE
  8
ボルト／ビス
  6
CONTINUOUS
 62
    64
 10
-20.164942
 20
-74.470115
 11
-20.24223
 21
-74.232165
  0
LINE
  8
ボルト／ビス
  6
CONTINUOUS
 62
    64
 10
-20.486942
 20
-74.180123
 11
-20.24223
 21
-74.232165
  0
LINE
  8
ボルト／ビス
  6
CONTINUOUS
 62
    64
 10
-20.33237
 20
-74.65602
 11
-20.577082
 21
-74.603975
  0
LINE
  8
ボルト／ビス
  6
CONTINUOUS
 62
    64
 10
-20.65437
 20
-74.366028
 11
-20.577082
 21
-74.603975
  0
LINE
  8
ボルト／ビス
  6
CONTINUOUS
 62
    64
 10
-20.164942
 20
-74.470115
 11
-20.33237
 21
-74.65602
  0
LINE
  8
ボルト／ビス
  6
CONTINUOUS
 62
    64
 10
-20.486942
 20
-74.180123
 11
-20.65437
 21
-74.366028
  0
CIRCLE
  8
ボルト／ビス
  6
CONTINUOUS
 62
    64
 10
-20.409657
 20
-74.418073
 40
0.216668
  0
CIRCLE
  8
ボルト／ビス
  6
CONTINUOUS
 10
-31.124758
 20
-64.768045
 40
0.250185
  0
CIRCLE
  8
ボルト／ビス
  6
CONTINUOUS
 10
-31.124758
 20
-64.768045
 40
0.301025
  0
LINE
  8
ボルト／ビス
  6
CONTINUOUS
 62
    64
 10
-31.202045
 20
-64.530095
 11
-30.957333
 21
-64.58214
  0
LINE
  8
ボルト／ビス
  6
CONTINUOUS
 62
    64
 10
-30.880048
 20
-64.82009
 11
-30.957333
 21
-64.58214
  0
LINE
  8
ボルト／ビス
  6
CONTINUOUS
 62
    64
 10
-31.369473
 20
-64.716
 11
-31.292185
 21
-64.95395
  0
LINE
  8
ボルト／ビス
  6
CONTINUOUS
 62
    64
 10
-31.047473
 20
-65.005995
 11
-31.292185
 21
-64.95395
  0
LINE
  8
ボルト／ビス
  6
CONTINUOUS
 62
    64
 10
-31.202045
 20
-64.530095
 11
-31.369473
 21
-64.716
  0
LINE
  8
ボルト／ビス
  6
CONTINUOUS
 62
    64
 10
-30.880048
 20
-64.82009
 11
-31.047473
 21
-65.005995
  0
CIRCLE
  8
ボルト／ビス
  6
CONTINUOUS
 62
    64
 10
-31.124758
 20
-64.768045
 40
0.216668
  0
ENDBLK
  0
BLOCK
  2
*GRP_0023
 70
    65
 10
0.0
 20
0.0
  0
LINE
  8
補助線
  6
BYBLOCK
 62
    64
 10
-31.062838
 20
-84.012327
 11
-31.186683
 21
-84.123863
  0
LINE
  8
補助線
  6
BYBLOCK
 62
    64
 10
-31.18053
 20
-84.00617
 11
-31.068992
 21
-84.130018
  0
LINE
  8
補助線
  6
BYBLOCK
 62
    64
 10
-20.347735
 20
-74.362302
 11
-20.47158
 21
-74.473837
  0
LINE
  8
補助線
  6
BYBLOCK
 62
    64
 10
-20.465425
 20
-74.356145
 11
-20.35389
 21
-74.479993
  0
LINE
  8
補助線
  6
BYBLOCK
 62
    64
 10
-9.756477
 20
-64.823812
 11
-9.632635
 21
-64.712277
  0
LINE
  8
補助線
  6
BYBLOCK
 62
    64
 10
-9.750325
 20
-64.70612
 11
-9.638788
 21
-64.829968
  0
LINE
  8
型材断面
  6
CONTINUOUS
 10
-31.930127
 20
-83.67194
 11
-31.967055
 21
-84.37808
  0
LINE
  8
型材断面
  6
CONTINUOUS
 10
-31.967055
 20
-84.37808
 11
-31.520915
 21
-84.873463
  0
LINE
  8
型材断面
  6
CONTINUOUS
 10
-31.520915
 20
-84.873463
 11
-30.814772
 21
-84.910393
  0
LINE
  8
型材断面
  6
CONTINUOUS
 10
-10.00454
 20
-63.92575
 11
-9.2984
 21
-63.96268
  0
LINE
  8
型材断面
  6
CONTINUOUS
 10
-9.2984
 20
-63.96268
 11
-8.852257
 21
-64.45806
  0
LINE
  8
型材断面
  6
CONTINUOUS
 10
-8.852257
 20
-64.45806
 11
-8.889188
 21
-65.164205
  0
LINE
  8
型材断面
  6
CONTINUOUS
 10
-30.814772
 20
-84.910393
 11
-8.889188
 21
-65.164205
  0
LINE
  8
型材断面
  6
CONTINUOUS
 10
-31.930127
 20
-83.67194
 11
-10.00454
 21
-63.92575
  0
CIRCLE
  8
ボルト／ビス
  6
CONTINUOUS
 10
-31.12476
 20
-84.068095
 40
0.250185
  0
CIRCLE
  8
ボルト／ビス
  6
CONTINUOUS
 10
-31.12476
 20
-84.068095
 40
0.301025
  0
LINE
  8
ボルト／ビス
  6
CONTINUOUS
 62
    64
 10
-31.369473
 20
-84.12014
 11
-31.292188
 21
-83.88219
  0
LINE
  8
ボルト／ビス
  6
CONTINUOUS
 62
    64
 10
-31.047475
 20
-83.830145
 11
-31.292188
 21
-83.88219
  0
LINE
  8
ボルト／ビス
  6
CONTINUOUS
 62
    64
 10
-31.202045
 20
-84.306045
 11
-30.957333
 21
-84.254
  0
LINE
  8
ボルト／ビス
  6
CONTINUOUS
 62
    64
 10
-30.880048
 20
-84.01605
 11
-30.957333
 21
-84.254
  0
LINE
  8
ボルト／ビス
  6
CONTINUOUS
 62
    64
 10
-31.369473
 20
-84.12014
 11
-31.202045
 21
-84.306045
  0
LINE
  8
ボルト／ビス
  6
CONTINUOUS
 62
    64
 10
-31.047475
 20
-83.830145
 11
-30.880048
 21
-84.01605
  0
CIRCLE
  8
ボルト／ビス
  6
CONTINUOUS
 62
    64
 10
-31.12476
 20
-84.068095
 40
0.216668
  0
CIRCLE
  8
ボルト／ビス
  6
CONTINUOUS
 10
-20.409657
 20
-74.418073
 40
0.250185
  0
CIRCLE
  8
ボルト／ビス
  6
CONTINUOUS
 10
-20.409657
 20
-74.418073
 40
0.301025
  0
LINE
  8
ボルト／ビス
  6
CONTINUOUS
 62
    64
 10
-20.654373
 20
-74.470115
 11
-20.577085
 21
-74.232165
  0
LINE
  8
ボルト／ビス
  6
CONTINUOUS
 62
    64
 10
-20.332373
 20
-74.180123
 11
-20.577085
 21
-74.232165
  0
LINE
  8
ボルト／ビス
  6
CONTINUOUS
 62
    64
 10
-20.486945
 20
-74.65602
 11
-20.242232
 21
-74.603975
  0
LINE
  8
ボルト／ビス
  6
CONTINUOUS
 62
    64
 10
-20.164945
 20
-74.366028
 11
-20.242232
 21
-74.603975
  0
LINE
  8
ボルト／ビス
  6
CONTINUOUS
 62
    64
 10
-20.654373
 20
-74.470115
 11
-20.486945
 21
-74.65602
  0
LINE
  8
ボルト／ビス
  6
CONTINUOUS
 62
    64
 10
-20.332373
 20
-74.180123
 11
-20.164945
 21
-74.366028
  0
CIRCLE
  8
ボルト／ビス
  6
CONTINUOUS
 62
    64
 10
-20.409657
 20
-74.418073
 40
0.216668
  0
CIRCLE
  8
ボルト／ビス
  6
CONTINUOUS
 10
-9.694557
 20
-64.768045
 40
0.250185
  0
CIRCLE
  8
ボルト／ビス
  6
CONTINUOUS
 10
-9.694557
 20
-64.768045
 40
0.301025
  0
LINE
  8
ボルト／ビス
  6
CONTINUOUS
 62
    64
 10
-9.61727
 20
-64.530095
 11
-9.861982
 21
-64.58214
  0
LINE
  8
ボルト／ビス
  6
CONTINUOUS
 62
    64
 10
-9.939268
 20
-64.82009
 11
-9.861982
 21
-64.58214
  0
LINE
  8
ボルト／ビス
  6
CONTINUOUS
 62
    64
 10
-9.449842
 20
-64.716
 11
-9.52713
 21
-64.95395
  0
LINE
  8
ボルト／ビス
  6
CONTINUOUS
 62
    64
 10
-9.771843
 20
-65.005995
 11
-9.52713
 21
-64.95395
  0
LINE
  8
ボルト／ビス
  6
CONTINUOUS
 62
    64
 10
-9.61727
 20
-64.530095
 11
-9.449842
 21
-64.716
  0
LINE
  8
ボルト／ビス
  6
CONTINUOUS
 62
    64
 10
-9.939268
 20
-64.82009
 11
-9.771843
 21
-65.005995
  0
CIRCLE
  8
ボルト／ビス
  6
CONTINUOUS
 62
    64
 10
-9.694557
 20
-64.768045
 40
0.216668
  0
ENDBLK
  0
BLOCK
  2
*DIM_0024
 70
    65
 10
0.0
 20
0.0
  0
LINE
  8
寸法
  6
CONTINUOUS
 10
71.257
 20
-22.024302
 11
-112.076332
 21
-22.024302
  0
POINT
  8
寸法
 10
71.257
 20
-22.024302
  0
POINT
  8
寸法
 10
-112.076332
 20
-22.024302
  0
TEXT
  7
TextStyle03
  8
寸法
  6
CONTINUOUS
 10
-32.14375
 20
-21.65
  1
呼称寸法　5500
 40
3.0
 72
     5
 11
-8.70625
 21
-21.65
  0
ENDBLK
  0
BLOCK
  2
*DIM_0025
 70
    65
 10
0.0
 20
0.0
  0
LINE
  8
寸法
  6
CONTINUOUS
 10
166.343563
 20
-41.52042
 11
130.61023
 21
-41.52042
  0
POINT
  8
寸法
 10
166.343563
 20
-41.52042
  0
POINT
  8
寸法
 10
130.61023
 20
-41.52042
  0
TEXT
  7
TextStyle03
  8
寸法
  6
CONTINUOUS
 10
145.19375
 20
-41.175
  1
1072
 40
3.0
 72
     5
 11
151.75625
 21
-41.175
  0
ENDBLK
  0
BLOCK
  2
*DIM_0026
 70
    65
 10
0.0
 20
0.0
  0
LINE
  8
寸法
  6
BYBLOCK
 62
     0
 10
90.43383
 20
-78.49138
 11
90.43383
 21
-61.824712
  0
POINT
  8
寸法
 62
     0
 10
90.43383
 20
-78.49138
  0
POINT
  8
寸法
 62
     0
 10
90.43383
 20
-61.824712
  0
TEXT
  7
TextStyle03
  8
寸法
  6
CONTINUOUS
 62
     0
 10
89.625
 20
-59.31875
  1
上昇463以上
 40
3.0
 50
90.0
 72
     5
 11
89.625
 21
-41.13125
  0
ENDBLK
  0
BLOCK
  2
*DIM_0027
 70
    65
 10
0.0
 20
0.0
  0
LINE
  8
寸法
  6
BYBLOCK
 62
     0
 10
160.173723
 20
65.733497
 11
143.507055
 21
65.733497
  0
POINT
  8
寸法
 62
     0
 10
160.173723
 20
65.733497
  0
POINT
  8
寸法
 62
     0
 10
143.507055
 20
65.733497
  0
TEXT
  7
TextStyle03
  8
寸法
  6
CONTINUOUS
 62
     0
 10
122.55625
 20
64.275
  1
上昇463以上
 40
3.0
 72
     5
 11
140.74375
 21
64.275
  0
ENDBLK
  0
BLOCK
  2
*DIM_0028
 70
    65
 10
0.0
 20
0.0
  0
LINE
  8
寸法
  6
CONTINUOUS
 10
171.343563
 20
-49.867045
 11
179.350785
 21
-49.867045
  0
LINE
  8
寸法
  6
CONTINUOUS
 10
171.343563
 20
-93.20038
 11
179.350785
 21
-93.20038
  0
LINE
  8
寸法
  6
CONTINUOUS
 10
179.350785
 20
-49.867045
 11
179.350785
 21
-93.20038
  0
POINT
  8
寸法
 10
179.350785
 20
-49.867045
  0
POINT
  8
寸法
 10
179.350785
 20
-93.20038
  0
TEXT
  7
TextStyle03
  8
寸法
  6
CONTINUOUS
 10
178.975
 20
-74.83125
  1
1300
 40
3.0
 50
90.0
 72
     5
 11
178.975
 21
-68.26875
  0
ENDBLK
  0
BLOCK
  2
*DIM_0029
 70
    65
 10
0.0
 20
0.0
  0
LINE
  8
寸法
  6
CONTINUOUS
 10
160.173723
 20
61.73238
 11
160.173723
 21
65.733497
  0
LINE
  8
寸法
  6
CONTINUOUS
 10
168.290275
 20
61.73238
 11
168.290275
 21
65.733497
  0
LINE
  8
寸法
  6
CONTINUOUS
 10
160.173723
 20
65.733497
 11
168.290275
 21
65.733497
  0
POINT
  8
寸法
 10
160.173723
 20
65.733497
  0
POINT
  8
寸法
 10
168.290275
 20
65.733497
  0
TEXT
  7
TextStyle03
  8
寸法
  6
CONTINUOUS
 10
160.075
 20
66.075
  1
243.5
 40
3.0
 72
     5
 11
168.325
 21
66.075
  0
ENDBLK
  0
BLOCK
  2
*DIM_0030
 70
    65
 10
0.0
 20
0.0
  0
LINE
  8
寸法
  6
CONTINUOUS
 10
77.93252
 20
-78.49138
 11
90.43383
 21
-78.49138
  0
LINE
  8
寸法
  6
CONTINUOUS
 10
79.020345
 20
-86.607932
 11
90.43383
 21
-86.607932
  0
LINE
  8
寸法
  6
CONTINUOUS
 10
90.43383
 20
-78.49138
 11
90.43383
 21
-86.607932
  0
POINT
  8
寸法
 10
90.43383
 20
-78.49138
  0
POINT
  8
寸法
 10
90.43383
 20
-86.607932
  0
TEXT
  7
TextStyle03
  8
寸法
  6
CONTINUOUS
 10
93.425
 20
-86.675
  1
243.5
 40
3.0
 50
90.0
 72
     5
 11
93.425
 21
-78.425
  0
ENDBLK
  0
ENDSEC
  0
SECTION
  2
ENTITIES
  0
POLYLINE
  8
通り芯
  6
CONTINUOUS
 66
     1
 70
     1
  0
VERTEX
  8
通り芯
 10
-210.0
 20
-148.5
  0
VERTEX
  8
通り芯
 10
210.0
 20
-148.5
  0
VERTEX
  8
通り芯
 10
210.0
 20
148.5
  0
VERTEX
  8
通り芯
 10
-210.0
 20
148.5
  0
SEQEND
  0
INSERT
  2
*GRP_0001
  8
型材断面
  6
CONTINUOUS
 10
0.0
 20
0.0
  0
LINE
  8
型材断面
  6
DASHDOT
 10
71.257007
 20
-87.251428
 11
71.257007
 21
56.73238
  0
LINE
  8
型材断面
  6
DASHDOT
 10
-112.076325
 20
-87.251428
 11
-112.076325
 21
56.73238
  0
LINE
  8
型材断面
  6
DASHDOT
 10
-20.40966
 20
-87.251428
 11
-20.40966
 21
56.73238
  0
POLYLINE
  8
型材断面
  6
CONTINUOUS
 66
     1
 70
     1
  0
VERTEX
  8
型材断面
 10
-10.935852
 20
66.508305
  0
VERTEX
  8
型材断面
 10
-29.707783
 20
66.508305
  0
VERTEX
  8
型材断面
 10
-29.707783
 20
71.245147
  0
VERTEX
  8
型材断面
 10
-10.935852
 20
71.245147
  0
SEQEND
  0
POLYLINE
  8
型材断面
  6
CONTINUOUS
 66
     1
 70
     1
  0
VERTEX
  8
型材断面
 10
-10.935852
 20
3.623125
  0
VERTEX
  8
型材断面
 10
-29.707783
 20
3.623125
  0
VERTEX
  8
型材断面
 10
-29.707783
 20
-1.113717
  0
VERTEX
  8
型材断面
 10
-10.935852
 20
-1.113717
  0
SEQEND
  0
LINE
  8
型材断面
  6
DASHDOT
 10
168.93377
 20
56.73238
 11
-112.076325
 21
56.73238
  0
LINE
  8
型材断面
  6
DASHDOT
 10
168.93377
 20
13.399048
 11
-112.076325
 21
13.399048
  0
LINE
  8
型材断面
  6
DASHDOT
 10
168.93377
 20
35.065715
 11
-112.076325
 21
35.065715
  0
LINE
  8
型材断面
  6
CONTINUOUS
 10
-152.928532
 20
94.709852
 11
-152.332478
 21
92.119345
  0
LINE
  8
型材断面
  6
CONTINUOUS
 10
-152.928532
 20
94.709852
 11
-153.52459
 21
92.119345
  0
LINE
  8
型材断面
  6
CONTINUOUS
 10
-153.52459
 20
92.119345
 11
-152.332478
 21
92.119345
  0
LINE
  8
型材断面
  6
CONTINUOUS
 10
-158.95112
 20
88.840452
 11
-112.709343
 21
88.840452
  0
LINE
  8
型材断面
  6
CONTINUOUS
 10
-152.928532
 20
101.239727
 11
-154.424162
 21
98.64922
  0
LINE
  8
型材断面
  6
CONTINUOUS
 10
-152.928532
 20
101.239727
 11
-151.432903
 21
98.64922
  0
LINE
  8
型材断面
  6
CONTINUOUS
 10
-151.432903
 20
98.64922
 11
-154.424162
 21
98.64922
  0
LINE
  8
型材断面
  6
CONTINUOUS
 10
-158.95112
 20
97.710625
 11
-112.709343
 21
97.710625
  0
LINE
  8
型材断面
  6
CONTINUOUS
 10
-158.95112
 20
83.05242
 11
-112.709343
 21
83.05242
  0
LINE
  8
型材断面
  6
CONTINUOUS
 10
-158.95112
 20
77.264387
 11
-112.709343
 21
77.264387
  0
INSERT
  2
*GRP_0018
  8
型材断面
  6
CONTINUOUS
 10
0.0
 20
0.0
  0
INSERT
  2
*GRP_0019
  8
型材断面
  6
CONTINUOUS
 10
0.0
 20
0.0
  0
INSERT
  2
*GRP_0020
  8
型材断面
  6
CONTINUOUS
 10
0.0
 20
0.0
  0
INSERT
  2
*GRP_0021
  8
型材断面
  6
CONTINUOUS
 10
0.0
 20
0.0
  0
INSERT
  2
*GRP_0022
  8
型材断面
  6
CONTINUOUS
 10
0.0
 20
0.0
  0
INSERT
  2
*GRP_0023
  8
型材断面
  6
CONTINUOUS
 10
0.0
 20
0.0
  0
LINE
  8
型材断面
  6
CONTINUOUS
 10
74.020342
 20
10.63586
 11
-114.839665
 21
10.63586
  0
LINE
  8
型材断面
  6
CONTINUOUS
 10
74.020342
 20
59.495565
 11
-114.839665
 21
59.495565
  0
LINE
  8
型材断面
  6
CONTINUOUS
 10
-114.839665
 20
35.065712
 11
-117.430173
 21
36.561342
  0
LINE
  8
型材断面
  6
CONTINUOUS
 10
-114.839665
 20
35.065712
 11
-117.430173
 21
33.570082
  0
LINE
  8
型材断面
  6
CONTINUOUS
 10
-117.430173
 20
33.570082
 11
-117.430173
 21
36.561342
  0
LINE
  8
型材断面
  6
CONTINUOUS
 10
-114.839667
 20
53.03238
 11
-117.430177
 21
52.436327
  0
LINE
  8
型材断面
  6
CONTINUOUS
 10
-114.839667
 20
53.03238
 11
-117.430175
 21
53.62844
  0
LINE
  8
型材断面
  6
CONTINUOUS
 10
-117.430175
 20
53.62844
 11
-117.430177
 21
52.436327
  0
LINE
  8
型材断面
  6
CONTINUOUS
 10
-114.839667
 20
17.099045
 11
-117.430177
 21
17.695097
  0
LINE
  8
型材断面
  6
CONTINUOUS
 10
-114.839667
 20
17.099045
 11
-117.430175
 21
16.502985
  0
LINE
  8
型材断面
  6
CONTINUOUS
 10
-117.430175
 20
16.502985
 11
-117.430177
 21
17.695097
  0
LINE
  8
型材断面
  6
CONTINUOUS
 10
-95.409657
 20
59.495565
 11
-96.905288
 21
62.086073
  0
LINE
  8
型材断面
  6
CONTINUOUS
 10
-95.409657
 20
59.495565
 11
-93.914027
 21
62.086073
  0
LINE
  8
型材断面
  6
CONTINUOUS
 10
-93.914027
 20
62.086073
 11
-96.905288
 21
62.086073
  0
LINE
  8
型材断面
  6
CONTINUOUS
 10
54.590337
 20
59.495565
 11
56.085967
 21
62.086073
  0
LINE
  8
型材断面
  6
CONTINUOUS
 10
54.590337
 20
59.495565
 11
53.094708
 21
62.086073
  0
LINE
  8
型材断面
  6
CONTINUOUS
 10
53.094708
 20
62.086073
 11
56.085967
 21
62.086073
  0
LINE
  8
型材断面
  6
CONTINUOUS
 10
-20.40966
 20
59.495565
 11
-21.90529
 21
62.086073
  0
LINE
  8
型材断面
  6
CONTINUOUS
 10
-20.40966
 20
59.495565
 11
-18.91403
 21
62.086073
  0
LINE
  8
型材断面
  6
CONTINUOUS
 10
-18.91403
 20
62.086073
 11
-21.90529
 21
62.086073
  0
LINE
  8
型材断面
  6
CONTINUOUS
 10
74.020342
 20
35.065715
 11
76.61085
 21
36.561345
  0
LINE
  8
型材断面
  6
CONTINUOUS
 10
74.020342
 20
35.065715
 11
76.61085
 21
33.570085
  0
LINE
  8
型材断面
  6
CONTINUOUS
 10
76.61085
 20
33.570085
 11
76.61085
 21
36.561345
  0
LINE
  8
型材断面
  6
CONTINUOUS
 10
74.020345
 20
53.032382
 11
76.610855
 21
52.43633
  0
LINE
  8
型材断面
  6
CONTINUOUS
 10
74.020345
 20
53.032382
 11
76.610852
 21
53.628442
  0
LINE
  8
型材断面
  6
CONTINUOUS
 10
76.610852
 20
53.628442
 11
76.610855
 21
52.43633
  0
LINE
  8
型材断面
  6
CONTINUOUS
 10
74.020345
 20
17.099048
 11
76.610855
 21
17.6951
  0
LINE
  8
型材断面
  6
CONTINUOUS
 10
74.020345
 20
17.099048
 11
76.610852
 21
16.502988
  0
LINE
  8
型材断面
  6
CONTINUOUS
 10
76.610852
 20
16.502988
 11
76.610855
 21
17.6951
  0
LINE
  8
型材断面
  6
CONTINUOUS
 10
-95.409657
 20
10.63586
 11
-96.905288
 21
8.045353
  0
LINE
  8
型材断面
  6
CONTINUOUS
 10
-95.409657
 20
10.63586
 11
-93.914027
 21
8.045353
  0
LINE
  8
型材断面
  6
CONTINUOUS
 10
-93.914027
 20
8.045353
 11
-96.905288
 21
8.045353
  0
LINE
  8
型材断面
  6
CONTINUOUS
 10
54.590337
 20
10.63586
 11
56.085967
 21
8.045353
  0
LINE
  8
型材断面
  6
CONTINUOUS
 10
54.590337
 20
10.63586
 11
53.094708
 21
8.045353
  0
LINE
  8
型材断面
  6
CONTINUOUS
 10
53.094708
 20
8.045353
 11
56.085967
 21
8.045353
  0
LINE
  8
型材断面
  6
CONTINUOUS
 10
-20.40966
 20
10.63586
 11
-21.90529
 21
8.045353
  0
LINE
  8
型材断面
  6
CONTINUOUS
 10
-20.40966
 20
10.63586
 11
-18.91403
 21
8.045353
  0
LINE
  8
型材断面
  6
CONTINUOUS
 10
-18.91403
 20
8.045353
 11
-21.90529
 21
8.045353
  0
LINE
  8
型材断面
  6
DASHDOT
 10
-75.75966
 20
13.399048
 11
-75.75966
 21
56.73238
  0
LINE
  8
型材断面
  6
DASHDOT
 10
-38.85966
 20
13.399048
 11
-38.85966
 21
56.73238
  0
LINE
  8
型材断面
  6
DASHDOT
 10
34.94034
 20
13.399048
 11
34.94034
 21
56.73238
  0
LINE
  8
型材断面
  6
DASHDOT
 10
-1.95966
 20
13.399048
 11
-1.95966
 21
56.73238
  0
LINE
  8
型材断面
  6
CONTINUOUS
 10
33.69034
 20
14.899052
 11
36.19034
 21
14.89905
  0
LINE
  8
型材断面
  6
CONTINUOUS
 10
33.69034
 20
55.232378
 11
36.19034
 21
55.23238
  0
LINE
  8
型材断面
  6
CONTINUOUS
 10
33.69034
 20
14.899052
 11
33.69034
 21
55.232378
  0
LINE
  8
型材断面
  6
CONTINUOUS
 10
36.19034
 20
14.89905
 11
36.19034
 21
55.23238
  0
LINE
  8
型材断面
  6
CONTINUOUS
 10
-3.20966
 20
14.899052
 11
-0.70966
 21
14.89905
  0
LINE
  8
型材断面
  6
CONTINUOUS
 10
-3.20966
 20
55.232378
 11
-0.70966
 21
55.23238
  0
LINE
  8
型材断面
  6
CONTINUOUS
 10
-3.20966
 20
14.899052
 11
-3.20966
 21
55.232378
  0
LINE
  8
型材断面
  6
CONTINUOUS
 10
-0.70966
 20
14.89905
 11
-0.70966
 21
55.23238
  0
LINE
  8
型材断面
  6
CONTINUOUS
 10
-74.50966
 20
14.899052
 11
-77.00966
 21
14.89905
  0
LINE
  8
型材断面
  6
CONTINUOUS
 10
-74.50966
 20
55.232378
 11
-77.00966
 21
55.23238
  0
LINE
  8
型材断面
  6
CONTINUOUS
 10
-74.50966
 20
14.899052
 11
-74.50966
 21
55.232378
  0
LINE
  8
型材断面
  6
CONTINUOUS
 10
-77.00966
 20
14.89905
 11
-77.00966
 21
55.23238
  0
LINE
  8
型材断面
  6
CONTINUOUS
 10
-37.60966
 20
14.899052
 11
-40.10966
 21
14.89905
  0
LINE
  8
型材断面
  6
CONTINUOUS
 10
-37.60966
 20
55.232378
 11
-40.10966
 21
55.23238
  0
LINE
  8
型材断面
  6
CONTINUOUS
 10
-37.60966
 20
14.899052
 11
-37.60966
 21
55.232378
  0
LINE
  8
型材断面
  6
CONTINUOUS
 10
-40.10966
 20
14.89905
 11
-40.10966
 21
55.23238
  0
LINE
  8
型材断面
  6
CONTINUOUS
 10
74.020345
 20
10.63586
 11
74.020345
 21
59.495565
  0
LINE
  8
型材断面
  6
CONTINUOUS
 10
72.854665
 20
11.565692
 11
73.090365
 21
11.801392
  0
LINE
  8
型材断面
  6
CONTINUOUS
 10
70.354663
 20
14.065692
 11
70.590363
 21
14.301392
  0
LINE
  8
型材断面
  6
CONTINUOUS
 10
70.590363
 20
14.301392
 11
73.090365
 21
11.801392
  0
LINE
  8
型材断面
  6
CONTINUOUS
 10
73.090335
 20
35.065715
 11
73.090365
 21
11.801392
  0
LINE
  8
型材断面
  6
CONTINUOUS
 10
70.354663
 20
14.065692
 11
72.854665
 21
11.565692
  0
LINE
  8
型材断面
  6
CONTINUOUS
 10
74.020197
 20
10.63586
 11
72.972513
 21
11.68354
  0
LINE
  8
型材断面
  6
CONTINUOUS
 10
70.590335
 20
34.649048
 11
73.090335
 21
34.649048
  0
LINE
  8
型材断面
  6
CONTINUOUS
 10
70.590335
 20
35.482382
 11
73.090335
 21
35.482382
  0
LINE
  8
型材断面
  6
CONTINUOUS
 10
70.590335
 20
34.649048
 11
70.590363
 21
14.301392
  0
LINE
  8
型材断面
  6
CONTINUOUS
 10
72.854665
 20
58.565738
 11
73.090365
 21
58.330038
  0
LINE
  8
型材断面
  6
CONTINUOUS
 10
70.354663
 20
56.065738
 11
70.590363
 21
55.830038
  0
LINE
  8
型材断面
  6
CONTINUOUS
 10
70.354663
 20
56.065738
 11
72.854665
 21
58.565738
  0
LINE
  8
型材断面
  6
CONTINUOUS
 10
74.020197
 20
59.49557
 11
72.972513
 21
58.44789
  0
LINE
  8
型材断面
  6
CONTINUOUS
 10
70.590363
 20
55.830038
 11
73.090365
 21
58.330038
  0
LINE
  8
型材断面
  6
CONTINUOUS
 10
73.090335
 20
35.065715
 11
73.090365
 21
58.330038
  0
LINE
  8
型材断面
  6
CONTINUOUS
 10
70.590335
 20
35.482382
 11
70.590363
 21
55.830038
  0
LINE
  8
型材断面
  6
CONTINUOUS
 10
-28.742993
 20
58.565665
 11
72.854665
 21
58.565738
  0
LINE
  8
型材断面
  6
CONTINUOUS
 10
-28.742993
 20
11.565765
 11
72.854665
 21
11.565692
  0
LINE
  8
型材断面
  6
CONTINUOUS
 10
52.682007
 20
14.065705
 11
52.682007
 21
11.565707
  0
LINE
  8
型材断面
  6
CONTINUOUS
 10
53.515343
 20
14.065705
 11
53.515343
 21
11.565707
  0
LINE
  8
型材断面
  6
CONTINUOUS
 10
16.073673
 20
14.065705
 11
16.073673
 21
11.565707
  0
LINE
  8
型材断面
  6
CONTINUOUS
 10
16.907007
 20
14.065705
 11
16.907007
 21
11.565707
  0
LINE
  8
型材断面
  6
CONTINUOUS
 10
-20.826328
 20
14.065705
 11
-20.826328
 21
11.565707
  0
LINE
  8
型材断面
  6
CONTINUOUS
 10
-19.992993
 20
14.065705
 11
-19.992993
 21
11.565707
  0
LINE
  8
型材断面
  6
CONTINUOUS
 10
52.682007
 20
56.065725
 11
52.682007
 21
58.565723
  0
LINE
  8
型材断面
  6
CONTINUOUS
 10
53.515343
 20
56.065725
 11
53.515343
 21
58.565723
  0
LINE
  8
型材断面
  6
CONTINUOUS
 10
16.073673
 20
56.065725
 11
16.073673
 21
58.565723
  0
LINE
  8
型材断面
  6
CONTINUOUS
 10
16.907007
 20
56.065725
 11
16.907007
 21
58.565723
  0
LINE
  8
型材断面
  6
CONTINUOUS
 10
-20.826328
 20
56.065725
 11
-20.826328
 21
58.565723
  0
LINE
  8
型材断面
  6
CONTINUOUS
 10
-19.992993
 20
56.065725
 11
-19.992993
 21
58.565723
  0
LINE
  8
型材断面
  6
CONTINUOUS
 10
53.515343
 20
56.065725
 11
70.354663
 21
56.065738
  0
LINE
  8
型材断面
  6
CONTINUOUS
 10
53.515343
 20
14.065705
 11
70.354663
 21
14.065692
  0
LINE
  8
型材断面
  6
CONTINUOUS
 10
16.907007
 20
14.065733
 11
52.682007
 21
14.065705
  0
LINE
  8
型材断面
  6
CONTINUOUS
 10
16.907007
 20
56.065697
 11
52.682007
 21
56.065725
  0
LINE
  8
型材断面
  6
CONTINUOUS
 10
-19.992993
 20
56.065668
 11
-12.076328
 21
56.065662
  0
LINE
  8
型材断面
  6
CONTINUOUS
 10
-28.742993
 20
56.065662
 11
-20.826328
 21
56.065668
  0
LINE
  8
型材断面
  6
CONTINUOUS
 10
-19.992993
 20
56.06567
 11
16.073673
 21
56.065697
  0
LINE
  8
型材断面
  6
CONTINUOUS
 10
-19.992993
 20
14.065762
 11
-12.076328
 21
14.065768
  0
LINE
  8
型材断面
  6
CONTINUOUS
 10
-28.742993
 20
14.065768
 11
-20.826328
 21
14.065762
  0
LINE
  8
型材断面
  6
CONTINUOUS
 10
-19.992993
 20
14.06576
 11
16.073673
 21
14.065733
  0
LINE
  8
型材断面
  6
DASHDOT
 10
-75.75966
 20
13.399048
 11
-75.75966
 21
56.73238
  0
LINE
  8
型材断面
  6
DASHDOT
 10
-38.85966
 20
13.399048
 11
-38.85966
 21
56.73238
  0
LINE
  8
型材断面
  6
CONTINUOUS
 10
-74.50966
 20
14.899052
 11
-77.00966
 21
14.89905
  0
LINE
  8
型材断面
  6
CONTINUOUS
 10
-74.50966
 20
55.232378
 11
-77.00966
 21
55.23238
  0
LINE
  8
型材断面
  6
CONTINUOUS
 10
-74.50966
 20
14.899052
 11
-74.50966
 21
55.232378
  0
LINE
  8
型材断面
  6
CONTINUOUS
 10
-77.00966
 20
14.89905
 11
-77.00966
 21
55.23238
  0
LINE
  8
型材断面
  6
CONTINUOUS
 10
-37.60966
 20
14.899052
 11
-40.10966
 21
14.89905
  0
LINE
  8
型材断面
  6
CONTINUOUS
 10
-37.60966
 20
55.232378
 11
-40.10966
 21
55.23238
  0
LINE
  8
型材断面
  6
CONTINUOUS
 10
-37.60966
 20
14.899052
 11
-37.60966
 21
55.232378
  0
LINE
  8
型材断面
  6
CONTINUOUS
 10
-40.10966
 20
14.89905
 11
-40.10966
 21
55.23238
  0
LINE
  8
型材断面
  6
CONTINUOUS
 10
-114.839665
 20
10.63586
 11
-114.839665
 21
59.495565
  0
LINE
  8
型材断面
  6
CONTINUOUS
 10
-113.673985
 20
11.565692
 11
-113.909685
 21
11.801392
  0
LINE
  8
型材断面
  6
CONTINUOUS
 10
-111.173982
 20
14.065692
 11
-111.409682
 21
14.301392
  0
LINE
  8
型材断面
  6
CONTINUOUS
 10
-111.409682
 20
14.301392
 11
-113.909685
 21
11.801392
  0
LINE
  8
型材断面
  6
CONTINUOUS
 10
-113.909655
 20
35.065715
 11
-113.909685
 21
11.801392
  0
LINE
  8
型材断面
  6
CONTINUOUS
 10
-111.173982
 20
14.065692
 11
-113.673985
 21
11.565692
  0
LINE
  8
型材断面
  6
CONTINUOUS
 10
-114.839517
 20
10.63586
 11
-113.791832
 21
11.68354
  0
LINE
  8
型材断面
  6
CONTINUOUS
 10
-111.409655
 20
34.649048
 11
-113.909655
 21
34.649048
  0
LINE
  8
型材断面
  6
CONTINUOUS
 10
-111.409655
 20
35.482382
 11
-113.909655
 21
35.482382
  0
LINE
  8
型材断面
  6
CONTINUOUS
 10
-111.409655
 20
34.649048
 11
-111.409682
 21
14.301392
  0
LINE
  8
型材断面
  6
CONTINUOUS
 10
-113.673985
 20
58.565738
 11
-113.909685
 21
58.330038
  0
LINE
  8
型材断面
  6
CONTINUOUS
 10
-111.173982
 20
56.065738
 11
-111.409682
 21
55.830038
  0
LINE
  8
型材断面
  6
CONTINUOUS
 10
-111.173982
 20
56.065738
 11
-113.673985
 21
58.565738
  0
LINE
  8
型材断面
  6
CONTINUOUS
 10
-114.839517
 20
59.49557
 11
-113.791832
 21
58.44789
  0
LINE
  8
型材断面
  6
CONTINUOUS
 10
-111.409682
 20
55.830038
 11
-113.909685
 21
58.330038
  0
LINE
  8
型材断面
  6
CONTINUOUS
 10
-113.909655
 20
35.065715
 11
-113.909685
 21
58.330038
  0
LINE
  8
型材断面
  6
CONTINUOUS
 10
-111.409655
 20
35.482382
 11
-111.409682
 21
55.830038
  0
LINE
  8
型材断面
  6
CONTINUOUS
 10
-93.501328
 20
14.065705
 11
-93.501328
 21
11.565707
  0
LINE
  8
型材断面
  6
CONTINUOUS
 10
-94.334663
 20
14.065705
 11
-94.334663
 21
11.565707
  0
LINE
  8
型材断面
  6
CONTINUOUS
 10
-56.892993
 20
14.065705
 11
-56.892993
 21
11.565707
  0
LINE
  8
型材断面
  6
CONTINUOUS
 10
-57.726328
 20
14.065705
 11
-57.726328
 21
11.565707
  0
LINE
  8
型材断面
  6
CONTINUOUS
 10
-93.501328
 20
56.065725
 11
-93.501328
 21
58.565723
  0
LINE
  8
型材断面
  6
CONTINUOUS
 10
-94.334663
 20
56.065725
 11
-94.334663
 21
58.565723
  0
LINE
  8
型材断面
  6
CONTINUOUS
 10
-56.892993
 20
56.065725
 11
-56.892993
 21
58.565723
  0
LINE
  8
型材断面
  6
CONTINUOUS
 10
-57.726328
 20
56.065725
 11
-57.726328
 21
58.565723
  0
LINE
  8
型材断面
  6
CONTINUOUS
 10
-94.334663
 20
56.065725
 11
-111.173982
 21
56.065738
  0
LINE
  8
型材断面
  6
CONTINUOUS
 10
-94.334663
 20
14.065705
 11
-111.173982
 21
14.065692
  0
LINE
  8
型材断面
  6
CONTINUOUS
 10
-57.726328
 20
14.065733
 11
-93.501328
 21
14.065705
  0
LINE
  8
型材断面
  6
CONTINUOUS
 10
-57.726328
 20
56.065697
 11
-93.501328
 21
56.065725
  0
LINE
  8
型材断面
  6
CONTINUOUS
 10
-20.826328
 20
56.06567
 11
-56.892993
 21
56.065697
  0
LINE
  8
型材断面
  6
CONTINUOUS
 10
-20.826328
 20
14.06576
 11
-56.892993
 21
14.065733
  0
LINE
  8
型材断面
  6
CONTINUOUS
 10
-12.076328
 20
58.565665
 11
-113.673985
 21
58.565738
  0
LINE
  8
型材断面
  6
CONTINUOUS
 10
-12.076328
 20
11.565765
 11
-113.673985
 21
11.565692
  0
LINE
  8
型材断面
  6
CONTINUOUS
 10
168.290275
 20
58.995567
 11
168.62694
 21
58.995567
  0
LINE
  8
型材断面
  6
CONTINUOUS
 10
164.193725
 20
59.2989
 11
164.390393
 21
59.495567
  0
LINE
  8
型材断面
  6
CONTINUOUS
 10
164.390393
 20
59.495567
 11
168.290275
 21
59.495567
  0
LINE
  8
型材断面
  6
CONTINUOUS
 62
    47
 10
164.19377
 20
59.298942
 11
164.19377
 21
35.065715
  0
LINE
  8
型材断面
  6
CONTINUOUS
 10
164.390393
 20
59.495567
 11
164.390393
 21
35.065715
  0
LINE
  8
型材断面
  6
CONTINUOUS
 10
168.290275
 20
59.495567
 11
168.290275
 21
35.065715
  0
LINE
  8
型材断面
  6
CONTINUOUS
 10
168.62694
 20
58.995567
 11
168.62694
 21
35.065715
  0
LINE
  8
型材断面
  6
CONTINUOUS
 10
168.290275
 20
11.135863
 11
168.62694
 21
11.135863
  0
LINE
  8
型材断面
  6
CONTINUOUS
 10
164.193725
 20
10.83253
 11
164.390393
 21
10.635863
  0
LINE
  8
型材断面
  6
CONTINUOUS
 10
164.390393
 20
10.635863
 11
168.290275
 21
10.635863
  0
LINE
  8
型材断面
  6
CONTINUOUS
 62
    47
 10
164.19377
 20
10.832488
 11
164.19377
 21
35.065715
  0
LINE
  8
型材断面
  6
CONTINUOUS
 10
164.390393
 20
10.635863
 11
164.390393
 21
35.065715
  0
LINE
  8
型材断面
  6
CONTINUOUS
 10
168.290275
 20
10.635863
 11
168.290275
 21
35.065715
  0
LINE
  8
型材断面
  6
CONTINUOUS
 10
168.62694
 20
11.135863
 11
168.62694
 21
35.065715
  0
LINE
  8
型材断面
  6
CONTINUOUS
 10
73.520345
 20
-86.607932
 11
73.520345
 21
-86.944597
  0
LINE
  8
型材断面
  6
CONTINUOUS
 10
73.823677
 20
-82.511383
 11
74.020345
 21
-82.70805
  0
LINE
  8
型材断面
  6
CONTINUOUS
 10
74.020345
 20
-82.70805
 11
74.020345
 21
-86.607932
  0
LINE
  8
型材断面
  6
CONTINUOUS
 10
74.020345
 20
-86.607932
 11
-20.40966
 21
-86.607932
  0
LINE
  8
型材断面
  6
CONTINUOUS
 10
73.520345
 20
-86.944597
 11
-20.40966
 21
-86.944597
  0
LINE
  8
型材断面
  6
CONTINUOUS
 62
    47
 10
73.82372
 20
-82.511427
 11
-20.40966
 21
-82.511427
  0
LINE
  8
型材断面
  6
CONTINUOUS
 10
74.020345
 20
-82.70805
 11
-20.40966
 21
-82.70805
  0
LINE
  8
型材断面
  6
CONTINUOUS
 10
-114.339665
 20
-86.607932
 11
-114.339665
 21
-86.944597
  0
LINE
  8
型材断面
  6
CONTINUOUS
 10
-114.642998
 20
-82.511383
 11
-114.839665
 21
-82.70805
  0
LINE
  8
型材断面
  6
CONTINUOUS
 10
-114.839665
 20
-82.70805
 11
-114.839665
 21
-86.607932
  0
LINE
  8
型材断面
  6
CONTINUOUS
 10
-114.839665
 20
-86.607932
 11
-20.40966
 21
-86.607932
  0
LINE
  8
型材断面
  6
CONTINUOUS
 10
-114.339665
 20
-86.944597
 11
-20.40966
 21
-86.944597
  0
LINE
  8
型材断面
  6
CONTINUOUS
 62
    47
 10
-114.64304
 20
-82.511427
 11
-20.40966
 21
-82.511427
  0
LINE
  8
型材断面
  6
CONTINUOUS
 10
-114.839665
 20
-82.70805
 11
-20.40966
 21
-82.70805
  0
TEXT
  7
TextStyle03
  8
文字
  6
CONTINUOUS
 10
-28.625
 20
67.2
  1
可動装置側
 40
3.0
 72
     5
 11
-12.125
 21
67.2
  0
TEXT
  7
TextStyle03
  8
文字
  6
CONTINUOUS
 10
-28.625
 20
-0.075
  1
可動装置側
 40
3.0
 72
     5
 11
-12.125
 21
-0.075
  0
TEXT
  7
TextStyle03
  8
文字
  6
CONTINUOUS
 10
-150.125
 20
93.325
  1
はケーシング位置を示す
 40
3.0
 72
     5
 11
-113.375
 21
93.325
  0
TEXT
  7
TextStyle03
  8
文字
  6
CONTINUOUS
 10
-150.125
 20
89.95
  1
４ヶ所中1ヶ所に設定
 40
3.0
 72
     5
 11
-118.4375
 21
89.95
  0
TEXT
  7
TextStyle03
  8
文字
  6
CONTINUOUS
 10
-150.125
 20
98.85
  1
は排水穴位置を示す
 40
3.0
 72
     5
 11
-120.125
 21
98.85
  0
TEXT
  7
TextStyle03
  8
文字
  6
CONTINUOUS
 10
-149.625
 20
23.975
  1
アンカーピッチ
 40
3.0
 50
90.0
 72
     5
 11
-149.625
 21
47.225
  0
TEXT
  7
TextStyle03
  8
文字
  6
CONTINUOUS
 10
-98.025
 20
93.125
  1
アンカーピッチ
 40
3.0
 72
     5
 11
-74.775
 21
93.125
  0
TEXT
  7
TextStyle03
  8
文字
  6
CONTINUOUS
 10
-153.85
 20
83.975
  1
アンカー数量　１８ヶ所
 40
3.0
 72
     5
 11
-117.1
 21
83.975
  0
TEXT
  7
TextStyle03
  8
文字
  6
CONTINUOUS
 10
-158.85
 20
73.25
  1
※重量に依るのでご相談ください
 40
3.0
 72
     5
 11
-108.6
 21
73.25
  0
TEXT
  7
TextStyle03
  8
文字
  6
CONTINUOUS
 10
-158.85
 20
78.2
  1
アームユニット数　※６～８ヶ所
 40
3.0
 72
     5
 11
-108.6
 21
78.2
  0
LINE
  8
文字
  6
CONTINUOUS
 10
162.386035
 20
59.495565
 11
105.276657
 21
59.495565
  0
LINE
  8
文字
  6
CONTINUOUS
 10
162.386035
 20
10.63586
 11
105.276657
 21
10.63586
  0
LINE
  8
文字
  6
CONTINUOUS
 10
143.507055
 20
65.733497
 11
143.507055
 21
60.820725
  0
LINE
  8
文字
  6
CONTINUOUS
 10
-114.839665
 20
-80.158047
 11
-114.839665
 21
-22.024302
  0
LINE
  8
文字
  6
CONTINUOUS
 10
74.020342
 20
-80.158047
 11
74.020342
 21
-22.024302
  0
LINE
  8
文字
  6
CONTINUOUS
 10
90.43383
 20
-61.824712
 11
76.4
 21
-61.824712
  0
LINE
  8
文字
  6
CONTINUOUS
 10
130.61023
 20
-41.52042
 11
130.61023
 21
-48.86848
  0
LINE
  8
文字
  6
CONTINUOUS
 10
166.343563
 20
-41.52042
 11
166.343563
 21
-48.86848
  0
TEXT
  7
TextStyle03
  8
文字
  6
CONTINUOUS
 10
147.775
 20
-86.75
  1
網入り6.8t
 40
3.0
 72
     5
 11
164.4625
 21
-86.75
  0
TEXT
  7
TextStyle03
  8
文字
  6
CONTINUOUS
 10
154.45
 20
-91.425
  1
×５枚
 40
3.0
 72
     5
 11
164.2
 21
-91.425
  0
TEXT
  7
TextStyle03
  8
文字
  6
CONTINUOUS
 10
60.575
 20
125.25
  1
シリーズ：ＴＦＦＬ
 40
5.0
 72
     5
 11
110.575
 21
125.25
  0
TEXT
  7
TextStyle03
  8
文字
  6
CONTINUOUS
 10
60.575
 20
119.625
  1
　　　　　（上下可動）1300×5500タイプ
 40
5.0
 72
     5
 11
166.825
 21
119.625
  0
TEXT
  7
TextStyle03
  8
文字
  6
CONTINUOUS
 10
60.575
 20
114.0
  1
図面名　：外観姿図
 40
5.0
 72
     5
 11
110.575
 21
114.0
  0
TEXT
  7
TextStyle03
  8
文字
  6
CONTINUOUS
 10
60.575
 20
108.375
  1
　　　　　　
 40
5.0
 72
     5
 11
93.7
 21
108.375
  0
TEXT
  7
TextStyle03
  8
文字
  6
CONTINUOUS
 10
60.725
 20
104.525
  1
ＮＳコード：ＮＳＦＬ
 40
5.0
 72
     5
 11
116.35
 21
104.525
  0
INSERT
  2
*DIM_0002
  8
寸法
  6
CONTINUOUS
 10
0.0
 20
0.0
  0
INSERT
  2
*DIM_0003
  8
寸法
  6
CONTINUOUS
 10
0.0
 20
0.0
  0
INSERT
  2
*DIM_0004
  8
寸法
  6
CONTINUOUS
 10
0.0
 20
0.0
  0
INSERT
  2
*DIM_0005
  8
寸法
  6
CONTINUOUS
 10
0.0
 20
0.0
  0
INSERT
  2
*DIM_0006
  8
寸法
  6
CONTINUOUS
 10
0.0
 20
0.0
  0
INSERT
  2
*DIM_0007
  8
寸法
  6
CONTINUOUS
 10
0.0
 20
0.0
  0
INSERT
  2
*DIM_0008
  8
寸法
  6
CONTINUOUS
 10
0.0
 20
0.0
  0
INSERT
  2
*DIM_0009
  8
寸法
  6
CONTINUOUS
 10
0.0
 20
0.0
  0
INSERT
  2
*DIM_0010
  8
寸法
  6
CONTINUOUS
 10
0.0
 20
0.0
  0
INSERT
  2
*DIM_0011
  8
寸法
  6
CONTINUOUS
 10
0.0
 20
0.0
  0
INSERT
  2
*DIM_0012
  8
寸法
  6
CONTINUOUS
 10
0.0
 20
0.0
  0
INSERT
  2
*DIM_0013
  8
寸法
  6
CONTINUOUS
 10
0.0
 20
0.0
  0
INSERT
  2
*DIM_0014
  8
寸法
  6
CONTINUOUS
 10
0.0
 20
0.0
  0
INSERT
  2
*DIM_0015
  8
寸法
  6
CONTINUOUS
 10
0.0
 20
0.0
  0
INSERT
  2
*DIM_0016
  8
寸法
  6
CONTINUOUS
 10
0.0
 20
0.0
  0
INSERT
  2
*DIM_0017
  8
寸法
  6
CONTINUOUS
 10
0.0
 20
0.0
  0
INSERT
  2
*DIM_0024
  8
寸法
  6
CONTINUOUS
 10
0.0
 20
0.0
  0
INSERT
  2
*DIM_0025
  8
寸法
  6
CONTINUOUS
 10
0.0
 20
0.0
  0
INSERT
  2
*DIM_0026
  8
寸法
  6
CONTINUOUS
 10
0.0
 20
0.0
  0
INSERT
  2
*DIM_0027
  8
寸法
  6
CONTINUOUS
 10
0.0
 20
0.0
  0
INSERT
  2
*DIM_0028
  8
寸法
  6
CONTINUOUS
 10
0.0
 20
0.0
  0
INSERT
  2
*DIM_0029
  8
寸法
  6
CONTINUOUS
 10
0.0
 20
0.0
  0
INSERT
  2
*DIM_0030
  8
寸法
  6
CONTINUOUS
 10
0.0
 20
0.0
  0
LINE
  8
別途部材
  6
CONTINUOUS
 62
    47
 10
160.273723
 20
58.565568
 11
160.34039
 21
58.565568
  0
ARC
  8
別途部材
  6
CONTINUOUS
 62
    47
 10
160.273723
 20
58.465567
 40
0.1
 50
90.0
 51
180.0
  0
LINE
  8
別途部材
  6
CONTINUOUS
 62
    47
 10
160.34039
 20
58.409045
 11
161.84039
 21
58.409045
  0
LINE
  8
別途部材
  6
CONTINUOUS
 62
    47
 10
160.273723
 20
11.565857
 11
160.34039
 21
11.565857
  0
ARC
  8
別途部材
  6
CONTINUOUS
 62
    47
 10
160.273723
 20
11.665858
 40
0.1
 50
180.0
 51
270.0
  0
LINE
  8
別途部材
  6
CONTINUOUS
 62
    47
 10
160.34039
 20
11.72238
 11
161.84039
 21
11.72238
  0
LINE
  8
別途部材
  6
CONTINUOUS
 62
    47
 10
160.34039
 20
11.565857
 11
160.34039
 21
35.198768
  0
LINE
  8
別途部材
  6
CONTINUOUS
 62
    47
 10
160.173723
 20
11.665857
 11
160.173723
 21
35.198768
  0
LINE
  8
別途部材
  6
CONTINUOUS
 62
    47
 10
161.84039
 20
11.72238
 11
161.84039
 21
35.198768
  0
LINE
  8
別途部材
  6
CONTINUOUS
 62
    47
 10
162.990393
 20
10.63586
 11
162.990393
 21
35.198768
  0
LINE
  8
別途部材
  6
CONTINUOUS
 62
    47
 10
164.157057
 20
10.63586
 11
164.157057
 21
35.198768
  0
LINE
  8
別途部材
  6
CONTINUOUS
 62
    47
 10
164.157057
 20
59.495565
 11
164.157057
 21
35.198768
  0
LINE
  8
別途部材
  6
CONTINUOUS
 62
    47
 10
162.990393
 20
59.495565
 11
162.990393
 21
35.198768
  0
LINE
  8
別途部材
  6
CONTINUOUS
 62
    47
 10
161.84039
 20
58.409045
 11
161.84039
 21
35.198768
  0
LINE
  8
別途部材
  6
CONTINUOUS
 62
    47
 10
160.34039
 20
58.565568
 11
160.34039
 21
35.198768
  0
LINE
  8
別途部材
  6
CONTINUOUS
 62
    47
 10
160.173723
 20
58.465567
 11
160.173723
 21
35.198768
  0
LINE
  8
別途部材
  6
DOT
 62
    47
 10
143.607055
 20
58.565568
 11
143.673723
 21
58.565568
  0
ARC
  8
別途部材
  6
DOT
 62
    47
 10
143.607056
 20
58.465567
 40
0.1
 50
90.0
 51
180.0
  0
LINE
  8
別途部材
  6
DOT
 62
    47
 10
143.673723
 20
58.409045
 11
145.173723
 21
58.409045
  0
LINE
  8
別途部材
  6
DOT
 62
    47
 10
143.607055
 20
11.565857
 11
143.673723
 21
11.565857
  0
ARC
  8
別途部材
  6
DOT
 62
    47
 10
143.607056
 20
11.665858
 40
0.1
 50
180.0
 51
270.0
  0
LINE
  8
別途部材
  6
DOT
 62
    47
 10
143.673723
 20
11.72238
 11
145.173723
 21
11.72238
  0
LINE
  8
別途部材
  6
DOT
 62
    47
 10
146.323725
 20
10.63586
 11
146.323725
 21
35.198768
  0
LINE
  8
別途部材
  6
DOT
 62
    47
 10
143.507055
 20
11.665857
 11
143.507055
 21
35.198768
  0
LINE
  8
別途部材
  6
DOT
 62
    47
 10
145.173723
 20
11.72238
 11
145.173723
 21
35.198768
  0
LINE
  8
別途部材
  6
DOT
 62
    47
 10
147.49039
 20
10.63586
 11
147.49039
 21
35.198768
  0
LINE
  8
別途部材
  6
DOT
 62
    47
 10
143.673723
 20
11.565857
 11
143.673723
 21
35.198768
  0
LINE
  8
別途部材
  6
DOT
 62
    47
 10
147.49039
 20
59.495565
 11
147.49039
 21
35.198768
  0
LINE
  8
別途部材
  6
DOT
 62
    47
 10
146.323725
 20
59.495565
 11
146.323725
 21
35.198768
  0
LINE
  8
別途部材
  6
DOT
 62
    47
 10
145.173723
 20
58.409045
 11
145.173723
 21
35.198768
  0
LINE
  8
別途部材
  6
DOT
 62
    47
 10
143.507055
 20
58.465567
 11
143.507055
 21
35.198768
  0
LINE
  8
別途部材
  6
DOT
 62
    47
 10
143.673723
 20
58.565568
 11
143.673723
 21
35.198768
  0
LINE
  8
別途部材
  6
CONTINUOUS
 62
    47
 10
-113.909667
 20
-78.59138
 11
-113.909667
 21
-78.658047
  0
ARC
  8
別途部材
  6
CONTINUOUS
 62
    47
 10
-113.809665
 20
-78.591382
 40
0.1
 50
90.0
 51
180.0
  0
LINE
  8
別途部材
  6
CONTINUOUS
 62
    47
 10
-113.753145
 20
-78.658047
 11
-113.753145
 21
-80.158047
  0
LINE
  8
別途部材
  6
CONTINUOUS
 62
    47
 10
73.090345
 20
-78.59138
 11
73.090345
 21
-78.658047
  0
ARC
  8
別途部材
  6
CONTINUOUS
 62
    47
 10
72.990337
 20
-78.591382
 40
0.1
 50
0.0
 51
90.0
  0
LINE
  8
別途部材
  6
CONTINUOUS
 62
    47
 10
72.933822
 20
-78.658047
 11
72.933822
 21
-80.158047
  0
LINE
  8
別途部材
  6
CONTINUOUS
 62
    47
 10
-113.809667
 20
-78.49138
 11
-20.40966
 21
-78.49138
  0
LINE
  8
別途部材
  6
CONTINUOUS
 62
    47
 10
-113.909667
 20
-78.658047
 11
-20.40966
 21
-78.658047
  0
LINE
  8
別途部材
  6
CONTINUOUS
 62
    47
 10
-113.753145
 20
-80.158047
 11
-20.40966
 21
-80.158047
  0
LINE
  8
別途部材
  6
CONTINUOUS
 62
    47
 10
-114.839665
 20
-81.30805
 11
-20.40966
 21
-81.30805
  0
LINE
  8
別途部材
  6
CONTINUOUS
 62
    47
 10
-114.839665
 20
-82.474715
 11
-20.40966
 21
-82.474715
  0
LINE
  8
別途部材
  6
CONTINUOUS
 62
    47
 10
74.020342
 20
-82.474715
 11
-20.40966
 21
-82.474715
  0
LINE
  8
別途部材
  6
CONTINUOUS
 62
    47
 10
74.020342
 20
-81.30805
 11
-20.40966
 21
-81.30805
  0
LINE
  8
別途部材
  6
CONTINUOUS
 62
    47
 10
72.933822
 20
-80.158047
 11
-20.40966
 21
-80.158047
  0
LINE
  8
別途部材
  6
CONTINUOUS
 62
    47
 10
72.990345
 20
-78.49138
 11
-20.40966
 21
-78.49138
  0
LINE
  8
別途部材
  6
CONTINUOUS
 62
    47
 10
73.090345
 20
-78.658047
 11
-20.40966
 21
-78.658047
  0
LINE
  8
別途部材
  6
DOT
 62
    47
 10
-113.909667
 20
-61.924712
 11
-113.909667
 21
-61.99138
  0
ARC
  8
別途部材
  6
DOT
 62
    47
 10
-113.809665
 20
-61.924714
 40
0.1
 50
90.0
 51
180.0
  0
LINE
  8
別途部材
  6
DOT
 62
    47
 10
-113.753145
 20
-61.99138
 11
-113.753145
 21
-63.49138
  0
LINE
  8
別途部材
  6
DOT
 62
    47
 10
73.090345
 20
-61.924712
 11
73.090345
 21
-61.99138
  0
ARC
  8
別途部材
  6
DOT
 62
    47
 10
72.990337
 20
-61.924714
 40
0.1
 50
0.0
 51
90.0
  0
LINE
  8
別途部材
  6
DOT
 62
    47
 10
72.933822
 20
-61.99138
 11
72.933822
 21
-63.49138
  0
LINE
  8
別途部材
  6
DOT
 62
    47
 10
-114.839665
 20
-64.641382
 11
-20.40966
 21
-64.641382
  0
LINE
  8
別途部材
  6
DOT
 62
    47
 10
-113.753145
 20
-63.49138
 11
-20.40966
 21
-63.49138
  0
LINE
  8
別途部材
  6
DOT
 62
    47
 10
-113.809667
 20
-61.824712
 11
-20.40966
 21
-61.824712
  0
LINE
  8
別途部材
  6
DOT
 62
    47
 10
-113.909667
 20
-61.99138
 11
-20.40966
 21
-61.99138
  0
LINE
  8
別途部材
  6
DOT
 62
    47
 10
-114.839665
 20
-65.808047
 11
-20.40966
 21
-65.808047
  0
LINE
  8
別途部材
  6
DOT
 62
    47
 10
72.933822
 20
-63.49138
 11
-20.40966
 21
-63.49138
  0
LINE
  8
別途部材
  6
DOT
 62
    47
 10
74.020342
 20
-64.641382
 11
-20.40966
 21
-64.641382
  0
LINE
  8
別途部材
  6
DOT
 62
    47
 10
74.020342
 20
-65.808047
 11
-20.40966
 21
-65.808047
  0
LINE
  8
別途部材
  6
DOT
 62
    47
 10
73.090345
 20
-61.99138
 11
-20.40966
 21
-61.99138
  0
LINE
  8
別途部材
  6
DOT
 62
    47
 10
72.990345
 20
-61.824712
 11
-20.40966
 21
-61.824712
  0
LINE
  8
曲げ物
  6
CONTINUOUS
 10
55.982738
 20
37.022003
 11
52.287425
 21
33.32669
  0
LINE
  8
曲げ物
  6
CONTINUOUS
 10
55.279268
 20
35.485893
 11
53.823538
 21
34.030163
  0
LINE
  8
曲げ物
  6
CONTINUOUS
 10
54.446628
 20
36.318533
 11
52.990898
 21
34.862803
  0
LINE
  8
曲げ物
  6
CONTINUOUS
 10
19.732727
 20
37.022003
 11
16.037415
 21
33.32669
  0
LINE
  8
曲げ物
  6
CONTINUOUS
 10
19.029257
 20
35.485893
 11
17.573527
 21
34.030163
  0
LINE
  8
曲げ物
  6
CONTINUOUS
 10
18.196617
 20
36.318533
 11
16.740887
 21
34.862803
  0
LINE
  8
曲げ物
  6
CONTINUOUS
 10
-18.715007
 20
37.022003
 11
-22.41032
 21
33.32669
  0
LINE
  8
曲げ物
  6
CONTINUOUS
 10
-19.418477
 20
35.485893
 11
-20.874208
 21
34.030163
  0
LINE
  8
曲げ物
  6
CONTINUOUS
 10
-20.251117
 20
36.318533
 11
-21.706848
 21
34.862803
  0
LINE
  8
曲げ物
  6
CONTINUOUS
 10
-54.98961
 20
37.022003
 11
-58.684922
 21
33.32669
  0
LINE
  8
曲げ物
  6
CONTINUOUS
 10
-55.69308
 20
35.485893
 11
-57.14881
 21
34.030163
  0
LINE
  8
曲げ物
  6
CONTINUOUS
 10
-56.52572
 20
36.318533
 11
-57.98145
 21
34.862803
  0
LINE
  8
曲げ物
  6
CONTINUOUS
 10
-91.262047
 20
37.022003
 11
-94.95736
 21
33.32669
  0
LINE
  8
曲げ物
  6
CONTINUOUS
 10
-91.965517
 20
35.485893
 11
-93.421248
 21
34.030163
  0
LINE
  8
曲げ物
  6
CONTINUOUS
 10
-92.798157
 20
36.318533
 11
-94.253888
 21
34.862803
  0
LINE
  8
曲げ物
  6
CONTINUOUS
 10
166.343563
 20
-49.867045
 11
130.61023
 21
-49.867045
  0
LINE
  8
曲げ物
  6
CONTINUOUS
 10
166.343563
 20
-93.20038
 11
130.61023
 21
-93.20038
  0
LINE
  8
曲げ物
  6
CONTINUOUS
 10
130.61023
 20
-49.867045
 11
130.61023
 21
-93.20038
  0
LINE
  8
曲げ物
  6
CONTINUOUS
 10
166.343563
 20
-49.867045
 11
166.343563
 21
-93.20038
  0
LINE
  8
鉄骨等
  6
CONTINUOUS
 62
    47
 10
164.157057
 20
59.495565
 11
162.990393
 21
59.495565
  0
LINE
  8
鉄骨等
  6
CONTINUOUS
 62
    47
 10
162.990393
 20
59.495565
 11
161.840393
 21
58.092377
  0
LINE
  8
鉄骨等
  6
CONTINUOUS
 62
    47
 10
164.157057
 20
10.63586
 11
162.990393
 21
10.63586
  0
LINE
  8
鉄骨等
  6
CONTINUOUS
 62
    47
 10
162.990393
 20
10.63586
 11
161.840393
 21
12.039045
  0
LINE
  8
鉄骨等
  6
DOT
 62
    47
 10
147.49039
 20
59.495565
 11
146.323725
 21
59.495565
  0
LINE
  8
鉄骨等
  6
DOT
 62
    47
 10
146.323725
 20
59.495565
 11
145.173725
 21
58.092377
  0
LINE
  8
鉄骨等
  6
DOT
 62
    47
 10
147.49039
 20
10.63586
 11
146.323725
 21
10.63586
  0
LINE
  8
鉄骨等
  6
DOT
 62
    47
 10
146.323725
 20
10.63586
 11
145.173725
 21
12.039045
  0
LINE
  8
鉄骨等
  6
CONTINUOUS
 62
    47
 10
-114.839665
 20
-82.474715
 11
-114.839665
 21
-81.30805
  0
LINE
  8
鉄骨等
  6
CONTINUOUS
 62
    47
 10
-114.839665
 20
-81.30805
 11
-113.43648
 21
-80.15805
  0
LINE
  8
鉄骨等
  6
CONTINUOUS
 62
    47
 10
74.020342
 20
-82.474715
 11
74.020342
 21
-81.30805
  0
LINE
  8
鉄骨等
  6
CONTINUOUS
 62
    47
 10
74.020342
 20
-81.30805
 11
72.617158
 21
-80.15805
  0
LINE
  8
鉄骨等
  6
DOT
 62
    47
 10
-114.839665
 20
-65.808047
 11
-114.839665
 21
-64.641382
  0
LINE
  8
鉄骨等
  6
DOT
 62
    47
 10
-114.839665
 20
-64.641382
 11
-113.43648
 21
-63.491382
  0
LINE
  8
鉄骨等
  6
DOT
 62
    47
 10
74.020342
 20
-65.808047
 11
74.020342
 21
-64.641382
  0
LINE
  8
鉄骨等
  6
DOT
 62
    47
 10
74.020342
 20
-64.641382
 11
72.617158
 21
-63.491382
  0
ENDSEC
  0
EOF
