  0
SECTION
  2
HEADER
  9
$EXTMIN
 10
-210.0
 20
-148.5
  9
$EXTMAX
 10
210.0
 20
148.5
  9
$PDMODE
 70
    32
  9
$PDSIZE
 40
1.5
  9
$LTSCALE
 40
10.0
  0
ENDSEC
  0
SECTION
  2
TABLES
  0
TABLE
  2
LTYPE
 70
    15
  0
LTYPE
  2
CONTINUOUS
 70
    64
  3
実線
 72
    65
 73
     0
 40
0.0
  0
LTYPE
  2
DASHED
 70
    64
  3
破線A
 72
    65
 73
     2
 40
0.6
 49
0.4
 49
-0.2
  0
LTYPE
  2
DASHEDX2
 70
    64
  3
破線B
 72
    65
 73
     2
 40
1.3
 49
0.9
 49
-0.4
  0
LTYPE
  2
DASHDOT
 70
    64
  3
１点鎖線A
 72
    65
 73
     4
 40
0.5375
 49
0.375
 49
-0.05
 49
0.0625
 49
-0.05
  0
LTYPE
  2
DASHDOTX2
 70
    64
  3
１点鎖線B
 72
    65
 73
     4
 40
1.075
 49
0.75
 49
-0.1
 49
0.125
 49
-0.1
  0
LTYPE
  2
DIVIDE2
 70
    64
  3
２点鎖線A
 72
    65
 73
     6
 40
0.5125
 49
0.3
 49
-0.0375
 49
0.05
 49
-0.0375
 49
0.05
 49
-0.0375
  0
LTYPE
  2
DIVIDE
 70
    64
  3
２点鎖線B
 72
    65
 73
     6
 40
1.05
 49
0.55
 49
-0.1
 49
0.1
 49
-0.1
 49
0.1
 49
-0.1
  0
LTYPE
  2
DOT
 70
    64
  3
点線A
 72
    65
 73
     2
 40
0.1125
 49
0.0625
 49
-0.05
  0
LTYPE
  2
DOTX2
 70
    64
  3
点線B
 72
    65
 73
     2
 40
0.275
 49
0.15
 49
-0.125
  0
LTYPE
  2
CONTINUOUS
 70
    64
  3
実線
 72
    65
 73
     0
 40
0.0
  0
LTYPE
  2
CONTINUOUS
 70
    64
  3
実線
 72
    65
 73
     0
 40
0.0
  0
LTYPE
  2
CONTINUOUS
 70
    64
  3
実線
 72
    65
 73
     0
 40
0.0
  0
LTYPE
  2
CONTINUOUS
 70
    64
  3
実線
 72
    65
 73
     0
 40
0.0
  0
LTYPE
  2
CONTINUOUS
 70
    64
  3
実線
 72
    65
 73
     0
 40
0.0
  0
LTYPE
  2
CONTINUOUS
 70
    64
  3
実線
 72
    65
 73
     0
 40
0.0
  0
ENDTAB
  0
TABLE
  2
LAYER
 70
    34
  0
LAYER
  2
通り芯
 70
     0
 62
    15
  6
CONTINUOUS
  0
LAYER
  2
補助線
 70
     0
 62
    16
  6
DOT
  0
LAYER
  2
躯体
 70
     0
 62
    31
  6
CONTINUOUS
  0
LAYER
  2
型材
 70
     0
 62
    32
  6
CONTINUOUS
  0
LAYER
  2
型材断面
 70
     0
 62
    47
  6
CONTINUOUS
  0
LAYER
  2
ガラス
 70
     0
 62
    48
  6
CONTINUOUS
  0
LAYER
  2
ゴム等
 70
     0
 62
    63
  6
CONTINUOUS
  0
LAYER
  2
ボルト／ビス
 70
     0
 62
    64
  6
CONTINUOUS
  0
LAYER
  2
文字
 70
     0
 62
    79
  6
CONTINUOUS
  0
LAYER
  2
寸法
 70
     0
 62
    80
  6
CONTINUOUS
  0
LAYER
  2
ﾊｯﾁﾝｸﾞ
 70
     0
 62
    95
  6
CONTINUOUS
  0
LAYER
  2
別途部材
 70
     0
 62
    96
  6
CONTINUOUS
  0
LAYER
  2
曲げ物
 70
     0
 62
   111
  6
CONTINUOUS
  0
LAYER
  2
鉄骨等
 70
     0
 62
   112
  6
CONTINUOUS
  0
LAYER
  2
St
 70
     0
 62
   127
  6
CONTINUOUS
  0
LAYER
  2
その他部品等
 70
     0
 62
   128
  6
CONTINUOUS
  0
LAYER
  2
ｶﾞｽｹｯﾄ
 70
     0
 62
   143
  6
CONTINUOUS
  0
LAYER
  2
ｽｹｯﾁ
 70
     0
 62
    14
  6
CONTINUOUS
  0
LAYER
  2
0
 70
     0
 62
    17
  6
CONTINUOUS
  0
LAYER
  2
1
 70
     0
 62
    30
  6
CONTINUOUS
  0
LAYER
  2
4
 70
     0
 62
    33
  6
CONTINUOUS
  0
LAYER
  2
ﾚｲﾔ3
 70
     0
 62
    46
  6
CONTINUOUS
  0
LAYER
  2
外形線
 70
     0
 62
    49
  6
CONTINUOUS
  0
LAYER
  2
部品
 70
     0
 62
    14
  6
CONTINUOUS
  0
LAYER
  2
サッシ芯
 70
     0
 62
    17
  6
DASHDOTX2
  0
LAYER
  2
寸法線
 70
     0
 62
    62
  6
CONTINUOUS
  0
LAYER
  2
姿図外形線
 70
     0
 62
    65
  6
CONTINUOUS
  0
LAYER
  2
姿補助線
 70
     0
 62
    30
  6
CONTINUOUS
  0
LAYER
  2
透視線
 70
     0
 62
    78
  6
DOT
  0
LAYER
  2
用紙
 70
     0
 62
    81
  6
CONTINUOUS
  0
LAYER
  2
実線図枠
 70
     0
 62
    94
  6
CONTINUOUS
  0
LAYER
  2
補助図枠
 70
     0
 62
    97
  6
CONTINUOUS
  0
LAYER
  2
建具記号
 70
     0
 62
   110
  6
CONTINUOUS
  0
LAYER
  2
補助文字
 70
     0
 62
   113
  6
CONTINUOUS
  0
ENDTAB
  0
TABLE
  2
STYLE
 70
    10
  0
STYLE
  2
STANDARD
 70
     0
 40
1.0
 41
1.0
 42
1.0
 50
0.0
 71
     0
  3
TXT
  4
BIGFONT
  0
STYLE
  2
TATE
 70
     4
 40
1.0
 41
1.0
 42
1.0
 50
0.0
 71
     0
  3
TXT
  4
BIGFONT
  0
STYLE
  2
TextStyle03
 70
     0
 40
1.0
 41
1.0
 42
1.0
 50
0.0
 71
     0
  3
MONOTXT
  4
BIGFONT
  0
STYLE
  2
TextStyle04
 70
     0
 40
1.0
 41
1.0
 42
1.0
 50
0.0
 71
     0
  3
MONOTXT
  4
BIGFONT
  0
STYLE
  2
TextStyle05
 70
     0
 40
1.0
 41
1.0
 42
1.0
 50
0.0
 71
     0
  3
MONOTXT
  4
BIGFONT
  0
STYLE
  2
TextStyle06
 70
     0
 40
1.0
 41
1.0
 42
1.0
 50
0.0
 71
     0
  3
MONOTXT
  4
BIGFONT
  0
STYLE
  2
TextStyle07
 70
     0
 40
1.0
 41
1.0
 42
1.0
 50
0.0
 71
     0
  3
MONOTXT
  4
BIGFONT
  0
STYLE
  2
TextStyle08
 70
     0
 40
1.0
 41
1.0
 42
1.0
 50
0.0
 71
     0
  3
MONOTXT
  4
BIGFONT
  0
STYLE
  2
TextStyle09
 70
     0
 40
1.0
 41
1.0
 42
1.0
 50
0.0
 71
     0
  3
MONOTXT
  4
BIGFONT
  0
STYLE
  2
TextStyle10
 70
     0
 40
1.0
 41
1.0
 42
1.0
 50
0.0
 71
     0
  3
MONOTXT
  4
BIGFONT
  0
ENDTAB
  0
ENDSEC
  0
SECTION
  2
BLOCKS
  0
BLOCK
  2
*GRP_0001
 70
    65
 10
0.0
 20
0.0
  0
LINE
  8
型材断面
  6
CONTINUOUS
 10
195.0
 20
133.5
 11
195.0
 21
-133.5
  0
LINE
  8
型材断面
  6
CONTINUOUS
 10
195.0
 20
-133.5
 11
-185.0
 21
-133.5
  0
LINE
  8
型材断面
  6
CONTINUOUS
 10
-185.0
 20
-133.5
 11
-185.0
 21
133.5
  0
LINE
  8
型材断面
  6
CONTINUOUS
 10
195.0
 20
133.5
 11
-185.0
 21
133.5
  0
LINE
  8
型材断面
  6
CONTINUOUS
 10
145.0
 20
-133.5
 11
145.0
 21
-118.5
  0
LINE
  8
型材断面
  6
CONTINUOUS
 10
195.0
 20
-118.5
 11
145.0
 21
-118.5
  0
ENDBLK
  0
BLOCK
  2
*DIM_0002
 70
    65
 10
0.0
 20
0.0
  0
LINE
  8
寸法
  6
BYBLOCK
 62
     0
 10
54.282945
 20
56.732382
 11
64.007228
 21
56.732382
  0
LINE
  8
寸法
  6
BYBLOCK
 62
     0
 10
56.913075
 20
53.032382
 11
64.007228
 21
53.032382
  0
LINE
  8
寸法
  6
BYBLOCK
 62
     0
 10
64.007228
 20
56.732382
 11
64.007228
 21
53.032382
  0
POINT
  8
寸法
 62
     0
 10
64.007228
 20
56.732382
  0
POINT
  8
寸法
 62
     0
 10
64.007228
 20
53.032382
  0
TEXT
  7
TextStyle03
  8
寸法
  6
CONTINUOUS
 62
     0
 10
63.675
 20
57.7125
  1
111
 40
3.0
 50
90.0
 72
     5
 11
63.675
 21
62.5875
  0
ENDBLK
  0
BLOCK
  2
*DIM_0003
 70
    65
 10
0.0
 20
0.0
  0
LINE
  8
寸法
  6
BYBLOCK
 62
     0
 10
54.282945
 20
13.399048
 11
64.007228
 21
13.399045
  0
LINE
  8
寸法
  6
BYBLOCK
 62
     0
 10
56.913075
 20
17.099048
 11
64.007228
 21
17.099045
  0
LINE
  8
寸法
  6
BYBLOCK
 62
     0
 10
64.007228
 20
13.399045
 11
64.007228
 21
17.099045
  0
POINT
  8
寸法
 62
     0
 10
64.007228
 20
13.399045
  0
POINT
  8
寸法
 62
     0
 10
64.007228
 20
17.099045
  0
TEXT
  7
TextStyle03
  8
寸法
  6
CONTINUOUS
 62
     0
 10
63.65
 20
7.5375
  1
111
 40
3.0
 50
90.0
 72
     5
 11
63.65
 21
12.4125
  0
ENDBLK
  0
BLOCK
  2
*DIM_0004
 70
    65
 10
0.0
 20
0.0
  0
LINE
  8
寸法
  6
BYBLOCK
 62
     0
 10
-80.050388
 20
9.76892
 11
-80.050388
 21
4.855835
  0
LINE
  8
寸法
  6
BYBLOCK
 62
     0
 10
-21.717055
 20
9.76892
 11
-21.717055
 21
4.855835
  0
LINE
  8
寸法
  6
BYBLOCK
 62
     0
 10
-80.050388
 20
4.855835
 11
-21.717055
 21
4.855835
  0
POINT
  8
寸法
 62
     0
 10
-80.050388
 20
4.855835
  0
POINT
  8
寸法
 62
     0
 10
-21.717055
 20
4.855835
  0
TEXT
  7
TextStyle03
  8
寸法
  6
CONTINUOUS
 62
     0
 10
-54.18125
 20
5.225
  1
1750
 40
3.0
 72
     5
 11
-47.61875
 21
5.225
  0
ENDBLK
  0
BLOCK
  2
*DIM_0005
 70
    65
 10
0.0
 20
0.0
  0
LINE
  8
寸法
  6
BYBLOCK
 62
     0
 10
36.616278
 20
9.76892
 11
36.616278
 21
4.855835
  0
LINE
  8
寸法
  6
BYBLOCK
 62
     0
 10
-21.717055
 20
4.855835
 11
36.616278
 21
4.855835
  0
POINT
  8
寸法
 62
     0
 10
36.616278
 20
4.855835
  0
TEXT
  7
TextStyle03
  8
寸法
  6
CONTINUOUS
 62
     0
 10
4.14375
 20
5.225
  1
1750
 40
3.0
 72
     5
 11
10.70625
 21
5.225
  0
ENDBLK
  0
BLOCK
  2
*DIM_0006
 70
    65
 10
0.0
 20
0.0
  0
LINE
  8
寸法
  6
BYBLOCK
 62
     0
 10
-99.717055
 20
23.399048
 11
-128.66222
 21
23.399048
  0
LINE
  8
寸法
  6
BYBLOCK
 62
     0
 10
-99.717055
 20
46.732382
 11
-128.66222
 21
46.732382
  0
LINE
  8
寸法
  6
BYBLOCK
 62
     0
 10
-128.66222
 20
23.399048
 11
-128.66222
 21
46.732382
  0
POINT
  8
寸法
 62
     0
 10
-128.66222
 20
23.399048
  0
POINT
  8
寸法
 62
     0
 10
-128.66222
 20
46.732382
  0
TEXT
  7
TextStyle03
  8
寸法
  6
CONTINUOUS
 62
     0
 10
-129.075
 20
32.6125
  1
700
 40
3.0
 50
90.0
 72
     5
 11
-129.075
 21
37.4875
  0
ENDBLK
  0
BLOCK
  2
*DIM_0007
 70
    65
 10
0.0
 20
0.0
  0
LINE
  8
寸法
  6
BYBLOCK
 62
     0
 10
-88.383723
 20
59.73238
 11
-88.383723
 21
88.840452
  0
LINE
  8
寸法
  6
BYBLOCK
 62
     0
 10
-61.717055
 20
59.73238
 11
-61.717055
 21
88.840452
  0
LINE
  8
寸法
  6
BYBLOCK
 62
     0
 10
-88.383723
 20
88.840452
 11
-61.717055
 21
88.840452
  0
POINT
  8
寸法
 62
     0
 10
-88.383723
 20
88.840452
  0
POINT
  8
寸法
 62
     0
 10
-61.717055
 20
88.840452
  0
TEXT
  7
TextStyle03
  8
寸法
  6
CONTINUOUS
 62
     0
 10
-77.5125
 20
89.2
  1
800
 40
3.0
 72
     5
 11
-72.6375
 21
89.2
  0
ENDBLK
  0
BLOCK
  2
*DIM_0008
 70
    65
 10
0.0
 20
0.0
  0
LINE
  8
寸法
  6
BYBLOCK
 62
     0
 10
-35.050388
 20
59.73238
 11
-35.050388
 21
88.840452
  0
LINE
  8
寸法
  6
BYBLOCK
 62
     0
 10
-61.717055
 20
88.840452
 11
-35.050388
 21
88.840452
  0
POINT
  8
寸法
 62
     0
 10
-35.050388
 20
88.840452
  0
TEXT
  7
TextStyle03
  8
寸法
  6
CONTINUOUS
 62
     0
 10
-50.8375
 20
89.2
  1
800
 40
3.0
 72
     5
 11
-45.9625
 21
89.2
  0
ENDBLK
  0
BLOCK
  2
*DIM_0009
 70
    65
 10
0.0
 20
0.0
  0
LINE
  8
寸法
  6
BYBLOCK
 62
     0
 10
-8.383723
 20
59.73238
 11
-8.383723
 21
88.840452
  0
LINE
  8
寸法
  6
BYBLOCK
 62
     0
 10
-35.050388
 20
88.840452
 11
-8.383723
 21
88.840452
  0
POINT
  8
寸法
 62
     0
 10
-8.383723
 20
88.840452
  0
TEXT
  7
TextStyle03
  8
寸法
  6
CONTINUOUS
 62
     0
 10
-24.1625
 20
89.2
  1
800
 40
3.0
 72
     5
 11
-19.2875
 21
89.2
  0
ENDBLK
  0
BLOCK
  2
*DIM_0010
 70
    65
 10
0.0
 20
0.0
  0
LINE
  8
寸法
  6
BYBLOCK
 62
     0
 10
18.282945
 20
59.73238
 11
18.282945
 21
88.840452
  0
LINE
  8
寸法
  6
BYBLOCK
 62
     0
 10
-8.383723
 20
88.840452
 11
18.282945
 21
88.840452
  0
POINT
  8
寸法
 62
     0
 10
18.282945
 20
88.840452
  0
TEXT
  7
TextStyle03
  8
寸法
  6
CONTINUOUS
 62
     0
 10
2.4875
 20
89.2
  1
800
 40
3.0
 72
     5
 11
7.3625
 21
89.2
  0
ENDBLK
  0
BLOCK
  2
*DIM_0011
 70
    65
 10
0.0
 20
0.0
  0
LINE
  8
寸法
  6
BYBLOCK
 62
     0
 10
44.949612
 20
59.73238
 11
44.949612
 21
88.840452
  0
LINE
  8
寸法
  6
BYBLOCK
 62
     0
 10
18.282945
 20
88.840452
 11
44.949612
 21
88.840452
  0
POINT
  8
寸法
 62
     0
 10
44.949612
 20
88.840452
  0
TEXT
  7
TextStyle03
  8
寸法
  6
CONTINUOUS
 62
     0
 10
29.1625
 20
89.2
  1
800
 40
3.0
 72
     5
 11
34.0375
 21
89.2
  0
ENDBLK
  0
BLOCK
  2
*DIM_0012
 70
    65
 10
0.0
 20
0.0
  0
LINE
  8
寸法
  6
CONTINUOUS
 10
87.302595
 20
59.495565
 11
87.302595
 21
56.73238
  0
POINT
  8
寸法
 10
87.302595
 20
59.495565
  0
POINT
  8
寸法
 10
87.302595
 20
56.73238
  0
TEXT
  7
TextStyle03
  8
寸法
  6
CONTINUOUS
 10
88.675
 20
60.54375
  1
82.9
 40
3.0
 50
90.0
 72
     5
 11
88.675
 21
67.10625
  0
ENDBLK
  0
BLOCK
  2
*DIM_0013
 70
    65
 10
0.0
 20
0.0
  0
LINE
  8
寸法
  6
CONTINUOUS
 10
87.302595
 20
13.399048
 11
87.302595
 21
10.63586
  0
POINT
  8
寸法
 10
87.302595
 20
13.399048
  0
POINT
  8
寸法
 10
87.302595
 20
10.63586
  0
TEXT
  7
TextStyle03
  8
寸法
  6
CONTINUOUS
 10
88.675
 20
2.99375
  1
82.9
 40
3.0
 50
90.0
 72
     5
 11
88.675
 21
9.55625
  0
ENDBLK
  0
BLOCK
  2
*DIM_0014
 70
    65
 10
0.0
 20
0.0
  0
LINE
  8
寸法
  6
CONTINUOUS
 10
87.302595
 20
56.73238
 11
87.302595
 21
13.399048
  0
POINT
  8
寸法
 10
87.302595
 20
56.73238
  0
POINT
  8
寸法
 10
87.302595
 20
13.399048
  0
TEXT
  7
TextStyle03
  8
寸法
  6
CONTINUOUS
 10
86.9
 20
24.175
  1
呼称寸法=1300
 40
3.0
 50
90.0
 72
     5
 11
86.9
 21
45.925
  0
ENDBLK
  0
BLOCK
  2
*GRP_0015
 70
    65
 10
0.0
 20
0.0
  0
LINE
  8
補助線
  6
BYBLOCK
 62
    64
 10
-76.65513
 20
-84.012327
 11
-76.778975
 21
-84.123863
  0
LINE
  8
補助線
  6
BYBLOCK
 62
    64
 10
-76.772822
 20
-84.00617
 11
-76.661285
 21
-84.130018
  0
LINE
  8
補助線
  6
BYBLOCK
 62
    64
 10
-65.940027
 20
-74.362302
 11
-66.063872
 21
-74.473837
  0
LINE
  8
補助線
  6
BYBLOCK
 62
    64
 10
-66.057718
 20
-74.356145
 11
-65.946183
 21
-74.479993
  0
LINE
  8
補助線
  6
BYBLOCK
 62
    64
 10
-55.34877
 20
-64.823812
 11
-55.224928
 21
-64.712277
  0
LINE
  8
補助線
  6
BYBLOCK
 62
    64
 10
-55.342617
 20
-64.70612
 11
-55.23108
 21
-64.829968
  0
LINE
  8
型材断面
  6
CONTINUOUS
 10
-77.52242
 20
-83.67194
 11
-77.559347
 21
-84.37808
  0
LINE
  8
型材断面
  6
CONTINUOUS
 10
-77.559347
 20
-84.37808
 11
-77.113208
 21
-84.873463
  0
LINE
  8
型材断面
  6
CONTINUOUS
 10
-77.113208
 20
-84.873463
 11
-76.407065
 21
-84.910393
  0
LINE
  8
型材断面
  6
CONTINUOUS
 10
-55.596832
 20
-63.92575
 11
-54.890693
 21
-63.96268
  0
LINE
  8
型材断面
  6
CONTINUOUS
 10
-54.890693
 20
-63.96268
 11
-54.44455
 21
-64.45806
  0
LINE
  8
型材断面
  6
CONTINUOUS
 10
-54.44455
 20
-64.45806
 11
-54.48148
 21
-65.164205
  0
LINE
  8
型材断面
  6
CONTINUOUS
 10
-76.407065
 20
-84.910393
 11
-54.48148
 21
-65.164205
  0
LINE
  8
型材断面
  6
CONTINUOUS
 10
-77.52242
 20
-83.67194
 11
-55.596832
 21
-63.92575
  0
CIRCLE
  8
ボルト／ビス
  6
CONTINUOUS
 10
-76.717053
 20
-84.068095
 40
0.250185
  0
CIRCLE
  8
ボルト／ビス
  6
CONTINUOUS
 10
-76.717053
 20
-84.068095
 40
0.301025
  0
LINE
  8
ボルト／ビス
  6
CONTINUOUS
 62
    64
 10
-76.961765
 20
-84.12014
 11
-76.88448
 21
-83.88219
  0
LINE
  8
ボルト／ビス
  6
CONTINUOUS
 62
    64
 10
-76.639768
 20
-83.830145
 11
-76.88448
 21
-83.88219
  0
LINE
  8
ボルト／ビス
  6
CONTINUOUS
 62
    64
 10
-76.794337
 20
-84.306045
 11
-76.549625
 21
-84.254
  0
LINE
  8
ボルト／ビス
  6
CONTINUOUS
 62
    64
 10
-76.47234
 20
-84.01605
 11
-76.549625
 21
-84.254
  0
LINE
  8
ボルト／ビス
  6
CONTINUOUS
 62
    64
 10
-76.961765
 20
-84.12014
 11
-76.794337
 21
-84.306045
  0
LINE
  8
ボルト／ビス
  6
CONTINUOUS
 62
    64
 10
-76.639768
 20
-83.830145
 11
-76.47234
 21
-84.01605
  0
CIRCLE
  8
ボルト／ビス
  6
CONTINUOUS
 62
    64
 10
-76.717053
 20
-84.068095
 40
0.216668
  0
CIRCLE
  8
ボルト／ビス
  6
CONTINUOUS
 10
-66.00195
 20
-74.418073
 40
0.250185
  0
CIRCLE
  8
ボルト／ビス
  6
CONTINUOUS
 10
-66.00195
 20
-74.418073
 40
0.301025
  0
LINE
  8
ボルト／ビス
  6
CONTINUOUS
 62
    64
 10
-66.246665
 20
-74.470115
 11
-66.169377
 21
-74.232165
  0
LINE
  8
ボルト／ビス
  6
CONTINUOUS
 62
    64
 10
-65.924665
 20
-74.180123
 11
-66.169377
 21
-74.232165
  0
LINE
  8
ボルト／ビス
  6
CONTINUOUS
 62
    64
 10
-66.079238
 20
-74.65602
 11
-65.834525
 21
-74.603975
  0
LINE
  8
ボルト／ビス
  6
CONTINUOUS
 62
    64
 10
-65.757237
 20
-74.366028
 11
-65.834525
 21
-74.603975
  0
LINE
  8
ボルト／ビス
  6
CONTINUOUS
 62
    64
 10
-66.246665
 20
-74.470115
 11
-66.079238
 21
-74.65602
  0
LINE
  8
ボルト／ビス
  6
CONTINUOUS
 62
    64
 10
-65.924665
 20
-74.180123
 11
-65.757237
 21
-74.366028
  0
CIRCLE
  8
ボルト／ビス
  6
CONTINUOUS
 62
    64
 10
-66.00195
 20
-74.418073
 40
0.216668
  0
CIRCLE
  8
ボルト／ビス
  6
CONTINUOUS
 10
-55.28685
 20
-64.768045
 40
0.250185
  0
CIRCLE
  8
ボルト／ビス
  6
CONTINUOUS
 10
-55.28685
 20
-64.768045
 40
0.301025
  0
LINE
  8
ボルト／ビス
  6
CONTINUOUS
 62
    64
 10
-55.209562
 20
-64.530095
 11
-55.454275
 21
-64.58214
  0
LINE
  8
ボルト／ビス
  6
CONTINUOUS
 62
    64
 10
-55.53156
 20
-64.82009
 11
-55.454275
 21
-64.58214
  0
LINE
  8
ボルト／ビス
  6
CONTINUOUS
 62
    64
 10
-55.042135
 20
-64.716
 11
-55.119423
 21
-64.95395
  0
LINE
  8
ボルト／ビス
  6
CONTINUOUS
 62
    64
 10
-55.364135
 20
-65.005995
 11
-55.119423
 21
-64.95395
  0
LINE
  8
ボルト／ビス
  6
CONTINUOUS
 62
    64
 10
-55.209562
 20
-64.530095
 11
-55.042135
 21
-64.716
  0
LINE
  8
ボルト／ビス
  6
CONTINUOUS
 62
    64
 10
-55.53156
 20
-64.82009
 11
-55.364135
 21
-65.005995
  0
CIRCLE
  8
ボルト／ビス
  6
CONTINUOUS
 62
    64
 10
-55.28685
 20
-64.768045
 40
0.216668
  0
ENDBLK
  0
BLOCK
  2
*GRP_0016
 70
    65
 10
0.0
 20
0.0
  0
LINE
  8
補助線
  6
BYBLOCK
 62
    64
 10
-55.34877
 20
-84.012327
 11
-55.224925
 21
-84.123863
  0
LINE
  8
補助線
  6
BYBLOCK
 62
    64
 10
-55.231077
 20
-84.00617
 11
-55.342615
 21
-84.130018
  0
LINE
  8
補助線
  6
BYBLOCK
 62
    64
 10
-66.063872
 20
-74.362302
 11
-65.940027
 21
-74.473837
  0
LINE
  8
補助線
  6
BYBLOCK
 62
    64
 10
-65.946183
 20
-74.356145
 11
-66.057718
 21
-74.479993
  0
LINE
  8
補助線
  6
BYBLOCK
 62
    64
 10
-76.65513
 20
-64.823812
 11
-76.778972
 21
-64.712277
  0
LINE
  8
補助線
  6
BYBLOCK
 62
    64
 10
-76.661283
 20
-64.70612
 11
-76.77282
 21
-64.829968
  0
LINE
  8
型材断面
  6
CONTINUOUS
 10
-54.48148
 20
-83.67194
 11
-54.444553
 21
-84.37808
  0
LINE
  8
型材断面
  6
CONTINUOUS
 10
-54.444553
 20
-84.37808
 11
-54.890693
 21
-84.873463
  0
LINE
  8
型材断面
  6
CONTINUOUS
 10
-54.890693
 20
-84.873463
 11
-55.596835
 21
-84.910393
  0
LINE
  8
型材断面
  6
CONTINUOUS
 10
-76.407067
 20
-63.92575
 11
-77.113208
 21
-63.96268
  0
LINE
  8
型材断面
  6
CONTINUOUS
 10
-77.113208
 20
-63.96268
 11
-77.55935
 21
-64.45806
  0
LINE
  8
型材断面
  6
CONTINUOUS
 10
-77.55935
 20
-64.45806
 11
-77.52242
 21
-65.164205
  0
LINE
  8
型材断面
  6
CONTINUOUS
 10
-55.596835
 20
-84.910393
 11
-77.52242
 21
-65.164205
  0
LINE
  8
型材断面
  6
CONTINUOUS
 10
-54.48148
 20
-83.67194
 11
-76.407067
 21
-63.92575
  0
CIRCLE
  8
ボルト／ビス
  6
CONTINUOUS
 10
-55.286848
 20
-84.068095
 40
0.250185
  0
CIRCLE
  8
ボルト／ビス
  6
CONTINUOUS
 10
-55.286848
 20
-84.068095
 40
0.301025
  0
LINE
  8
ボルト／ビス
  6
CONTINUOUS
 62
    64
 10
-55.042135
 20
-84.12014
 11
-55.11942
 21
-83.88219
  0
LINE
  8
ボルト／ビス
  6
CONTINUOUS
 62
    64
 10
-55.364132
 20
-83.830145
 11
-55.11942
 21
-83.88219
  0
LINE
  8
ボルト／ビス
  6
CONTINUOUS
 62
    64
 10
-55.209562
 20
-84.306045
 11
-55.454275
 21
-84.254
  0
LINE
  8
ボルト／ビス
  6
CONTINUOUS
 62
    64
 10
-55.53156
 20
-84.01605
 11
-55.454275
 21
-84.254
  0
LINE
  8
ボルト／ビス
  6
CONTINUOUS
 62
    64
 10
-55.042135
 20
-84.12014
 11
-55.209562
 21
-84.306045
  0
LINE
  8
ボルト／ビス
  6
CONTINUOUS
 62
    64
 10
-55.364132
 20
-83.830145
 11
-55.53156
 21
-84.01605
  0
CIRCLE
  8
ボルト／ビス
  6
CONTINUOUS
 62
    64
 10
-55.286848
 20
-84.068095
 40
0.216668
  0
CIRCLE
  8
ボルト／ビス
  6
CONTINUOUS
 10
-66.00195
 20
-74.418073
 40
0.250185
  0
CIRCLE
  8
ボルト／ビス
  6
CONTINUOUS
 10
-66.00195
 20
-74.418073
 40
0.301025
  0
LINE
  8
ボルト／ビス
  6
CONTINUOUS
 62
    64
 10
-65.757235
 20
-74.470115
 11
-65.834523
 21
-74.232165
  0
LINE
  8
ボルト／ビス
  6
CONTINUOUS
 62
    64
 10
-66.079235
 20
-74.180123
 11
-65.834523
 21
-74.232165
  0
LINE
  8
ボルト／ビス
  6
CONTINUOUS
 62
    64
 10
-65.924662
 20
-74.65602
 11
-66.169375
 21
-74.603975
  0
LINE
  8
ボルト／ビス
  6
CONTINUOUS
 62
    64
 10
-66.246662
 20
-74.366028
 11
-66.169375
 21
-74.603975
  0
LINE
  8
ボルト／ビス
  6
CONTINUOUS
 62
    64
 10
-65.757235
 20
-74.470115
 11
-65.924662
 21
-74.65602
  0
LINE
  8
ボルト／ビス
  6
CONTINUOUS
 62
    64
 10
-66.079235
 20
-74.180123
 11
-66.246662
 21
-74.366028
  0
CIRCLE
  8
ボルト／ビス
  6
CONTINUOUS
 62
    64
 10
-66.00195
 20
-74.418073
 40
0.216668
  0
CIRCLE
  8
ボルト／ビス
  6
CONTINUOUS
 10
-76.71705
 20
-64.768045
 40
0.250185
  0
CIRCLE
  8
ボルト／ビス
  6
CONTINUOUS
 10
-76.71705
 20
-64.768045
 40
0.301025
  0
LINE
  8
ボルト／ビス
  6
CONTINUOUS
 62
    64
 10
-76.794337
 20
-64.530095
 11
-76.549625
 21
-64.58214
  0
LINE
  8
ボルト／ビス
  6
CONTINUOUS
 62
    64
 10
-76.47234
 20
-64.82009
 11
-76.549625
 21
-64.58214
  0
LINE
  8
ボルト／ビス
  6
CONTINUOUS
 62
    64
 10
-76.961765
 20
-64.716
 11
-76.884477
 21
-64.95395
  0
LINE
  8
ボルト／ビス
  6
CONTINUOUS
 62
    64
 10
-76.639765
 20
-65.005995
 11
-76.884477
 21
-64.95395
  0
LINE
  8
ボルト／ビス
  6
CONTINUOUS
 62
    64
 10
-76.794337
 20
-64.530095
 11
-76.961765
 21
-64.716
  0
LINE
  8
ボルト／ビス
  6
CONTINUOUS
 62
    64
 10
-76.47234
 20
-64.82009
 11
-76.639765
 21
-65.005995
  0
CIRCLE
  8
ボルト／ビス
  6
CONTINUOUS
 62
    64
 10
-76.71705
 20
-64.768045
 40
0.216668
  0
ENDBLK
  0
BLOCK
  2
*GRP_0017
 70
    65
 10
0.0
 20
0.0
  0
LINE
  8
補助線
  6
BYBLOCK
 62
    64
 10
33.221025
 20
-84.012327
 11
33.34487
 21
-84.123863
  0
LINE
  8
補助線
  6
BYBLOCK
 62
    64
 10
33.338717
 20
-84.00617
 11
33.22718
 21
-84.130018
  0
LINE
  8
補助線
  6
BYBLOCK
 62
    64
 10
22.505923
 20
-74.362302
 11
22.629767
 21
-74.473837
  0
LINE
  8
補助線
  6
BYBLOCK
 62
    64
 10
22.623612
 20
-74.356145
 11
22.512077
 21
-74.479993
  0
LINE
  8
補助線
  6
BYBLOCK
 62
    64
 10
11.914665
 20
-64.823812
 11
11.790822
 21
-64.712277
  0
LINE
  8
補助線
  6
BYBLOCK
 62
    64
 10
11.908512
 20
-64.70612
 11
11.796975
 21
-64.829968
  0
LINE
  8
型材断面
  6
CONTINUOUS
 10
34.088315
 20
-83.67194
 11
34.125243
 21
-84.37808
  0
LINE
  8
型材断面
  6
CONTINUOUS
 10
34.125243
 20
-84.37808
 11
33.679103
 21
-84.873463
  0
LINE
  8
型材断面
  6
CONTINUOUS
 10
33.679103
 20
-84.873463
 11
32.97296
 21
-84.910393
  0
LINE
  8
型材断面
  6
CONTINUOUS
 10
12.162728
 20
-63.92575
 11
11.456588
 21
-63.96268
  0
LINE
  8
型材断面
  6
CONTINUOUS
 10
11.456588
 20
-63.96268
 11
11.010445
 21
-64.45806
  0
LINE
  8
型材断面
  6
CONTINUOUS
 10
11.010445
 20
-64.45806
 11
11.047375
 21
-65.164205
  0
LINE
  8
型材断面
  6
CONTINUOUS
 10
32.97296
 20
-84.910393
 11
11.047375
 21
-65.164205
  0
LINE
  8
型材断面
  6
CONTINUOUS
 10
34.088315
 20
-83.67194
 11
12.162728
 21
-63.92575
  0
CIRCLE
  8
ボルト／ビス
  6
CONTINUOUS
 10
33.282948
 20
-84.068095
 40
0.250185
  0
CIRCLE
  8
ボルト／ビス
  6
CONTINUOUS
 10
33.282948
 20
-84.068095
 40
0.301025
  0
LINE
  8
ボルト／ビス
  6
CONTINUOUS
 62
    64
 10
33.52766
 20
-84.12014
 11
33.450375
 21
-83.88219
  0
LINE
  8
ボルト／ビス
  6
CONTINUOUS
 62
    64
 10
33.205662
 20
-83.830145
 11
33.450375
 21
-83.88219
  0
LINE
  8
ボルト／ビス
  6
CONTINUOUS
 62
    64
 10
33.360232
 20
-84.306045
 11
33.11552
 21
-84.254
  0
LINE
  8
ボルト／ビス
  6
CONTINUOUS
 62
    64
 10
33.038235
 20
-84.01605
 11
33.11552
 21
-84.254
  0
LINE
  8
ボルト／ビス
  6
CONTINUOUS
 62
    64
 10
33.52766
 20
-84.12014
 11
33.360232
 21
-84.306045
  0
LINE
  8
ボルト／ビス
  6
CONTINUOUS
 62
    64
 10
33.205662
 20
-83.830145
 11
33.038235
 21
-84.01605
  0
CIRCLE
  8
ボルト／ビス
  6
CONTINUOUS
 62
    64
 10
33.282948
 20
-84.068095
 40
0.216668
  0
CIRCLE
  8
ボルト／ビス
  6
CONTINUOUS
 10
22.567845
 20
-74.418073
 40
0.250185
  0
CIRCLE
  8
ボルト／ビス
  6
CONTINUOUS
 10
22.567845
 20
-74.418073
 40
0.301025
  0
LINE
  8
ボルト／ビス
  6
CONTINUOUS
 62
    64
 10
22.81256
 20
-74.470115
 11
22.735273
 21
-74.232165
  0
LINE
  8
ボルト／ビス
  6
CONTINUOUS
 62
    64
 10
22.49056
 20
-74.180123
 11
22.735273
 21
-74.232165
  0
LINE
  8
ボルト／ビス
  6
CONTINUOUS
 62
    64
 10
22.645132
 20
-74.65602
 11
22.40042
 21
-74.603975
  0
LINE
  8
ボルト／ビス
  6
CONTINUOUS
 62
    64
 10
22.323133
 20
-74.366028
 11
22.40042
 21
-74.603975
  0
LINE
  8
ボルト／ビス
  6
CONTINUOUS
 62
    64
 10
22.81256
 20
-74.470115
 11
22.645132
 21
-74.65602
  0
LINE
  8
ボルト／ビス
  6
CONTINUOUS
 62
    64
 10
22.49056
 20
-74.180123
 11
22.323133
 21
-74.366028
  0
CIRCLE
  8
ボルト／ビス
  6
CONTINUOUS
 62
    64
 10
22.567845
 20
-74.418073
 40
0.216668
  0
CIRCLE
  8
ボルト／ビス
  6
CONTINUOUS
 10
11.852745
 20
-64.768045
 40
0.250185
  0
CIRCLE
  8
ボルト／ビス
  6
CONTINUOUS
 10
11.852745
 20
-64.768045
 40
0.301025
  0
LINE
  8
ボルト／ビス
  6
CONTINUOUS
 62
    64
 10
11.775458
 20
-64.530095
 11
12.02017
 21
-64.58214
  0
LINE
  8
ボルト／ビス
  6
CONTINUOUS
 62
    64
 10
12.097455
 20
-64.82009
 11
12.02017
 21
-64.58214
  0
LINE
  8
ボルト／ビス
  6
CONTINUOUS
 62
    64
 10
11.60803
 20
-64.716
 11
11.685318
 21
-64.95395
  0
LINE
  8
ボルト／ビス
  6
CONTINUOUS
 62
    64
 10
11.93003
 20
-65.005995
 11
11.685318
 21
-64.95395
  0
LINE
  8
ボルト／ビス
  6
CONTINUOUS
 62
    64
 10
11.775458
 20
-64.530095
 11
11.60803
 21
-64.716
  0
LINE
  8
ボルト／ビス
  6
CONTINUOUS
 62
    64
 10
12.097455
 20
-64.82009
 11
11.93003
 21
-65.005995
  0
CIRCLE
  8
ボルト／ビス
  6
CONTINUOUS
 62
    64
 10
11.852745
 20
-64.768045
 40
0.216668
  0
ENDBLK
  0
BLOCK
  2
*GRP_0018
 70
    65
 10
0.0
 20
0.0
  0
LINE
  8
補助線
  6
BYBLOCK
 62
    64
 10
11.914665
 20
-84.012327
 11
11.79082
 21
-84.123863
  0
LINE
  8
補助線
  6
BYBLOCK
 62
    64
 10
11.796973
 20
-84.00617
 11
11.90851
 21
-84.130018
  0
LINE
  8
補助線
  6
BYBLOCK
 62
    64
 10
22.629767
 20
-74.362302
 11
22.505923
 21
-74.473837
  0
LINE
  8
補助線
  6
BYBLOCK
 62
    64
 10
22.512077
 20
-74.356145
 11
22.623612
 21
-74.479993
  0
LINE
  8
補助線
  6
BYBLOCK
 62
    64
 10
33.221025
 20
-64.823812
 11
33.344867
 21
-64.712277
  0
LINE
  8
補助線
  6
BYBLOCK
 62
    64
 10
33.227177
 20
-64.70612
 11
33.338715
 21
-64.829968
  0
LINE
  8
型材断面
  6
CONTINUOUS
 10
11.047375
 20
-83.67194
 11
11.010448
 21
-84.37808
  0
LINE
  8
型材断面
  6
CONTINUOUS
 10
11.010448
 20
-84.37808
 11
11.456588
 21
-84.873463
  0
LINE
  8
型材断面
  6
CONTINUOUS
 10
11.456588
 20
-84.873463
 11
12.16273
 21
-84.910393
  0
LINE
  8
型材断面
  6
CONTINUOUS
 10
32.972962
 20
-63.92575
 11
33.679103
 21
-63.96268
  0
LINE
  8
型材断面
  6
CONTINUOUS
 10
33.679103
 20
-63.96268
 11
34.125245
 21
-64.45806
  0
LINE
  8
型材断面
  6
CONTINUOUS
 10
34.125245
 20
-64.45806
 11
34.088315
 21
-65.164205
  0
LINE
  8
型材断面
  6
CONTINUOUS
 10
12.16273
 20
-84.910393
 11
34.088315
 21
-65.164205
  0
LINE
  8
型材断面
  6
CONTINUOUS
 10
11.047375
 20
-83.67194
 11
32.972962
 21
-63.92575
  0
CIRCLE
  8
ボルト／ビス
  6
CONTINUOUS
 10
11.852743
 20
-84.068095
 40
0.250185
  0
CIRCLE
  8
ボルト／ビス
  6
CONTINUOUS
 10
11.852743
 20
-84.068095
 40
0.301025
  0
LINE
  8
ボルト／ビス
  6
CONTINUOUS
 62
    64
 10
11.60803
 20
-84.12014
 11
11.685315
 21
-83.88219
  0
LINE
  8
ボルト／ビス
  6
CONTINUOUS
 62
    64
 10
11.930027
 20
-83.830145
 11
11.685315
 21
-83.88219
  0
LINE
  8
ボルト／ビス
  6
CONTINUOUS
 62
    64
 10
11.775458
 20
-84.306045
 11
12.02017
 21
-84.254
  0
LINE
  8
ボルト／ビス
  6
CONTINUOUS
 62
    64
 10
12.097455
 20
-84.01605
 11
12.02017
 21
-84.254
  0
LINE
  8
ボルト／ビス
  6
CONTINUOUS
 62
    64
 10
11.60803
 20
-84.12014
 11
11.775458
 21
-84.306045
  0
LINE
  8
ボルト／ビス
  6
CONTINUOUS
 62
    64
 10
11.930027
 20
-83.830145
 11
12.097455
 21
-84.01605
  0
CIRCLE
  8
ボルト／ビス
  6
CONTINUOUS
 62
    64
 10
11.852743
 20
-84.068095
 40
0.216668
  0
CIRCLE
  8
ボルト／ビス
  6
CONTINUOUS
 10
22.567845
 20
-74.418073
 40
0.250185
  0
CIRCLE
  8
ボルト／ビス
  6
CONTINUOUS
 10
22.567845
 20
-74.418073
 40
0.301025
  0
LINE
  8
ボルト／ビス
  6
CONTINUOUS
 62
    64
 10
22.32313
 20
-74.470115
 11
22.400418
 21
-74.232165
  0
LINE
  8
ボルト／ビス
  6
CONTINUOUS
 62
    64
 10
22.64513
 20
-74.180123
 11
22.400418
 21
-74.232165
  0
LINE
  8
ボルト／ビス
  6
CONTINUOUS
 62
    64
 10
22.490558
 20
-74.65602
 11
22.73527
 21
-74.603975
  0
LINE
  8
ボルト／ビス
  6
CONTINUOUS
 62
    64
 10
22.812558
 20
-74.366028
 11
22.73527
 21
-74.603975
  0
LINE
  8
ボルト／ビス
  6
CONTINUOUS
 62
    64
 10
22.32313
 20
-74.470115
 11
22.490558
 21
-74.65602
  0
LINE
  8
ボルト／ビス
  6
CONTINUOUS
 62
    64
 10
22.64513
 20
-74.180123
 11
22.812558
 21
-74.366028
  0
CIRCLE
  8
ボルト／ビス
  6
CONTINUOUS
 62
    64
 10
22.567845
 20
-74.418073
 40
0.216668
  0
CIRCLE
  8
ボルト／ビス
  6
CONTINUOUS
 10
33.282945
 20
-64.768045
 40
0.250185
  0
CIRCLE
  8
ボルト／ビス
  6
CONTINUOUS
 10
33.282945
 20
-64.768045
 40
0.301025
  0
LINE
  8
ボルト／ビス
  6
CONTINUOUS
 62
    64
 10
33.360232
 20
-64.530095
 11
33.11552
 21
-64.58214
  0
LINE
  8
ボルト／ビス
  6
CONTINUOUS
 62
    64
 10
33.038235
 20
-64.82009
 11
33.11552
 21
-64.58214
  0
LINE
  8
ボルト／ビス
  6
CONTINUOUS
 62
    64
 10
33.52766
 20
-64.716
 11
33.450373
 21
-64.95395
  0
LINE
  8
ボルト／ビス
  6
CONTINUOUS
 62
    64
 10
33.20566
 20
-65.005995
 11
33.450373
 21
-64.95395
  0
LINE
  8
ボルト／ビス
  6
CONTINUOUS
 62
    64
 10
33.360232
 20
-64.530095
 11
33.52766
 21
-64.716
  0
LINE
  8
ボルト／ビス
  6
CONTINUOUS
 62
    64
 10
33.038235
 20
-64.82009
 11
33.20566
 21
-65.005995
  0
CIRCLE
  8
ボルト／ビス
  6
CONTINUOUS
 62
    64
 10
33.282945
 20
-64.768045
 40
0.216668
  0
ENDBLK
  0
BLOCK
  2
*DIM_0019
 70
    65
 10
0.0
 20
0.0
  0
LINE
  8
寸法
  6
CONTINUOUS
 10
-96.71706
 20
-22.024302
 11
-99.480393
 21
-22.024302
  0
POINT
  8
寸法
 10
-96.71706
 20
-22.024302
  0
POINT
  8
寸法
 10
-99.480393
 20
-22.024302
  0
TEXT
  7
TextStyle03
  8
寸法
  6
CONTINUOUS
 10
-104.03125
 20
-21.125
  1
82.9
 40
3.0
 72
     5
 11
-97.46875
 21
-21.125
  0
ENDBLK
  0
BLOCK
  2
*DIM_0020
 70
    65
 10
0.0
 20
0.0
  0
LINE
  8
寸法
  6
CONTINUOUS
 10
56.04628
 20
-22.024302
 11
53.282945
 21
-22.024302
  0
POINT
  8
寸法
 10
56.04628
 20
-22.024302
  0
POINT
  8
寸法
 10
53.282945
 20
-22.024302
  0
TEXT
  7
TextStyle03
  8
寸法
  6
CONTINUOUS
 10
54.34375
 20
-21.175
  1
82.9
 40
3.0
 72
     5
 11
60.90625
 21
-21.175
  0
ENDBLK
  0
BLOCK
  2
*DIM_0021
 70
    65
 10
0.0
 20
0.0
  0
LINE
  8
寸法
  6
CONTINUOUS
 10
-96.717055
 20
-22.024302
 11
53.282945
 21
-22.024302
  0
POINT
  8
寸法
 10
-96.717055
 20
-22.024302
  0
POINT
  8
寸法
 10
53.282945
 20
-22.024302
  0
TEXT
  7
TextStyle03
  8
寸法
  6
CONTINUOUS
 10
-33.44375
 20
-21.675
  1
呼称寸法　4500
 40
3.0
 72
     5
 11
-10.00625
 21
-21.675
  0
ENDBLK
  0
BLOCK
  2
*DIM_0022
 70
    65
 10
0.0
 20
0.0
  0
LINE
  8
寸法
  6
CONTINUOUS
 10
148.3695
 20
-41.50152
 11
111.7695
 21
-41.50152
  0
POINT
  8
寸法
 10
148.3695
 20
-41.50152
  0
POINT
  8
寸法
 10
111.7695
 20
-41.50152
  0
TEXT
  7
TextStyle03
  8
寸法
  6
CONTINUOUS
 10
126.76875
 20
-41.15
  1
1098
 40
3.0
 72
     5
 11
133.33125
 21
-41.15
  0
ENDBLK
  0
BLOCK
  2
*DIM_0023
 70
    65
 10
0.0
 20
0.0
  0
LINE
  8
寸法
  6
BYBLOCK
 62
     0
 10
72.459768
 20
-78.49138
 11
72.459768
 21
-61.824712
  0
POINT
  8
寸法
 62
     0
 10
72.459768
 20
-78.49138
  0
POINT
  8
寸法
 62
     0
 10
72.459768
 20
-61.824712
  0
TEXT
  7
TextStyle03
  8
寸法
  6
CONTINUOUS
 62
     0
 10
72.05
 20
-59.44375
  1
上昇440以上
 40
3.0
 50
90.0
 72
     5
 11
72.05
 21
-41.25625
  0
ENDBLK
  0
BLOCK
  2
*DIM_0024
 70
    65
 10
0.0
 20
0.0
  0
LINE
  8
寸法
  6
BYBLOCK
 62
     0
 10
142.19966
 20
65.733497
 11
125.532993
 21
65.733497
  0
POINT
  8
寸法
 62
     0
 10
142.19966
 20
65.733497
  0
POINT
  8
寸法
 62
     0
 10
125.532993
 20
65.733497
  0
TEXT
  7
TextStyle03
  8
寸法
  6
CONTINUOUS
 62
     0
 10
102.90625
 20
64.75
  1
上昇440以上
 40
3.0
 72
     5
 11
121.09375
 21
64.75
  0
ENDBLK
  0
BLOCK
  2
*DIM_0025
 70
    65
 10
0.0
 20
0.0
  0
LINE
  8
寸法
  6
CONTINUOUS
 10
153.3695
 20
-49.867045
 11
161.53467
 21
-49.867045
  0
LINE
  8
寸法
  6
CONTINUOUS
 10
153.3695
 20
-93.20038
 11
161.53467
 21
-93.20038
  0
LINE
  8
寸法
  6
CONTINUOUS
 10
161.53467
 20
-49.867045
 11
161.53467
 21
-93.20038
  0
POINT
  8
寸法
 10
161.53467
 20
-49.867045
  0
POINT
  8
寸法
 10
161.53467
 20
-93.20038
  0
TEXT
  7
TextStyle03
  8
寸法
  6
CONTINUOUS
 10
161.15
 20
-74.83125
  1
1300
 40
3.0
 50
90.0
 72
     5
 11
161.15
 21
-68.26875
  0
ENDBLK
  0
BLOCK
  2
*DIM_0026
 70
    65
 10
0.0
 20
0.0
  0
LINE
  8
寸法
  6
CONTINUOUS
 10
142.19966
 20
61.73238
 11
142.19966
 21
65.733497
  0
LINE
  8
寸法
  6
CONTINUOUS
 10
150.316213
 20
61.73238
 11
150.316213
 21
65.733497
  0
LINE
  8
寸法
  6
CONTINUOUS
 10
142.19966
 20
65.733497
 11
150.316213
 21
65.733497
  0
POINT
  8
寸法
 10
142.19966
 20
65.733497
  0
POINT
  8
寸法
 10
150.316213
 20
65.733497
  0
TEXT
  7
TextStyle03
  8
寸法
  6
CONTINUOUS
 10
142.125
 20
66.075
  1
243.5
 40
3.0
 72
     5
 11
150.375
 21
66.075
  0
ENDBLK
  0
BLOCK
  2
*DIM_0027
 70
    65
 10
0.0
 20
0.0
  0
LINE
  8
寸法
  6
CONTINUOUS
 10
59.958458
 20
-78.49138
 11
72.459768
 21
-78.49138
  0
LINE
  8
寸法
  6
CONTINUOUS
 10
61.046283
 20
-86.607932
 11
72.459768
 21
-86.607932
  0
LINE
  8
寸法
  6
CONTINUOUS
 10
72.459768
 20
-78.49138
 11
72.459768
 21
-86.607932
  0
POINT
  8
寸法
 10
72.459768
 20
-78.49138
  0
POINT
  8
寸法
 10
72.459768
 20
-86.607932
  0
TEXT
  7
TextStyle03
  8
寸法
  6
CONTINUOUS
 10
75.475
 20
-86.675
  1
243.5
 40
3.0
 50
90.0
 72
     5
 11
75.475
 21
-78.425
  0
ENDBLK
  0
ENDSEC
  0
SECTION
  2
ENTITIES
  0
POLYLINE
  8
通り芯
  6
CONTINUOUS
 66
     1
 70
     1
  0
VERTEX
  8
通り芯
 10
-210.0
 20
-148.5
  0
VERTEX
  8
通り芯
 10
210.0
 20
-148.5
  0
VERTEX
  8
通り芯
 10
210.0
 20
148.5
  0
VERTEX
  8
通り芯
 10
-210.0
 20
148.5
  0
SEQEND
  0
INSERT
  2
*GRP_0001
  8
型材断面
  6
CONTINUOUS
 10
0.0
 20
0.0
  0
LINE
  8
型材断面
  6
DASHDOT
 10
53.282945
 20
-87.251428
 11
53.282945
 21
56.73238
  0
LINE
  8
型材断面
  6
DASHDOT
 10
-21.717055
 20
-87.251428
 11
-21.717055
 21
56.73238
  0
LINE
  8
型材断面
  6
DASHDOT
 10
-96.717055
 20
-87.251428
 11
-96.717055
 21
56.73238
  0
POLYLINE
  8
型材断面
  6
CONTINUOUS
 66
     1
 70
     1
  0
VERTEX
  8
型材断面
 10
-12.226177
 20
66.508305
  0
VERTEX
  8
型材断面
 10
-30.998107
 20
66.508305
  0
VERTEX
  8
型材断面
 10
-30.998107
 20
71.245147
  0
VERTEX
  8
型材断面
 10
-12.226177
 20
71.245147
  0
SEQEND
  0
POLYLINE
  8
型材断面
  6
CONTINUOUS
 66
     1
 70
     1
  0
VERTEX
  8
型材断面
 10
-12.226177
 20
3.623125
  0
VERTEX
  8
型材断面
 10
-30.998107
 20
3.623125
  0
VERTEX
  8
型材断面
 10
-30.998107
 20
-1.113717
  0
VERTEX
  8
型材断面
 10
-12.226177
 20
-1.113717
  0
SEQEND
  0
LINE
  8
型材断面
  6
DASHDOT
 10
150.959707
 20
13.399048
 11
-96.717055
 21
13.399048
  0
LINE
  8
型材断面
  6
DASHDOT
 10
150.959707
 20
35.065715
 11
-96.717055
 21
35.065715
  0
LINE
  8
型材断面
  6
DASHDOT
 10
150.959707
 20
56.73238
 11
-96.717055
 21
56.73238
  0
LINE
  8
型材断面
  6
DASHDOT
 10
-21.717055
 20
13.399048
 11
-21.717055
 21
56.73238
  0
LINE
  8
型材断面
  6
CONTINUOUS
 10
-137.569262
 20
94.709852
 11
-136.973208
 21
92.119345
  0
LINE
  8
型材断面
  6
CONTINUOUS
 10
-137.569262
 20
94.709852
 11
-138.16532
 21
92.119345
  0
LINE
  8
型材断面
  6
CONTINUOUS
 10
-138.16532
 20
92.119345
 11
-136.973208
 21
92.119345
  0
LINE
  8
型材断面
  6
CONTINUOUS
 10
-143.59185
 20
88.840452
 11
-97.350072
 21
88.840452
  0
LINE
  8
型材断面
  6
CONTINUOUS
 10
-137.569262
 20
101.239727
 11
-139.064893
 21
98.64922
  0
LINE
  8
型材断面
  6
CONTINUOUS
 10
-137.569262
 20
101.239727
 11
-136.073632
 21
98.64922
  0
LINE
  8
型材断面
  6
CONTINUOUS
 10
-136.073632
 20
98.64922
 11
-139.064893
 21
98.64922
  0
LINE
  8
型材断面
  6
CONTINUOUS
 10
-143.59185
 20
97.710625
 11
-97.350072
 21
97.710625
  0
LINE
  8
型材断面
  6
CONTINUOUS
 10
-143.59185
 20
83.05242
 11
-97.350072
 21
83.05242
  0
LINE
  8
型材断面
  6
CONTINUOUS
 10
-143.59185
 20
77.264387
 11
-97.350072
 21
77.264387
  0
INSERT
  2
*GRP_0015
  8
型材断面
  6
CONTINUOUS
 10
0.0
 20
0.0
  0
INSERT
  2
*GRP_0016
  8
型材断面
  6
CONTINUOUS
 10
0.0
 20
0.0
  0
INSERT
  2
*GRP_0017
  8
型材断面
  6
CONTINUOUS
 10
0.0
 20
0.0
  0
INSERT
  2
*GRP_0018
  8
型材断面
  6
CONTINUOUS
 10
0.0
 20
0.0
  0
LINE
  8
型材断面
  6
CONTINUOUS
 10
-99.480393
 20
10.63586
 11
56.04628
 21
10.63586
  0
LINE
  8
型材断面
  6
CONTINUOUS
 10
-99.480393
 20
59.495565
 11
56.04628
 21
59.495565
  0
LINE
  8
型材断面
  6
CONTINUOUS
 10
-99.480393
 20
35.065712
 11
-102.0709
 21
36.561342
  0
LINE
  8
型材断面
  6
CONTINUOUS
 10
-99.480393
 20
35.065712
 11
-102.0709
 21
33.570082
  0
LINE
  8
型材断面
  6
CONTINUOUS
 10
-102.0709
 20
33.570082
 11
-102.0709
 21
36.561342
  0
LINE
  8
型材断面
  6
CONTINUOUS
 10
-99.480393
 20
53.03238
 11
-102.070903
 21
52.436327
  0
LINE
  8
型材断面
  6
CONTINUOUS
 10
-99.480393
 20
53.03238
 11
-102.0709
 21
53.62844
  0
LINE
  8
型材断面
  6
CONTINUOUS
 10
-102.0709
 20
53.62844
 11
-102.070903
 21
52.436327
  0
LINE
  8
型材断面
  6
CONTINUOUS
 10
-99.480393
 20
17.099045
 11
-102.070903
 21
17.695097
  0
LINE
  8
型材断面
  6
CONTINUOUS
 10
-99.480393
 20
17.099045
 11
-102.0709
 21
16.502985
  0
LINE
  8
型材断面
  6
CONTINUOUS
 10
-102.0709
 20
16.502985
 11
-102.070903
 21
17.695097
  0
LINE
  8
型材断面
  6
CONTINUOUS
 10
-80.050388
 20
59.495565
 11
-81.546018
 21
62.086073
  0
LINE
  8
型材断面
  6
CONTINUOUS
 10
-80.050388
 20
59.495565
 11
-78.554757
 21
62.086073
  0
LINE
  8
型材断面
  6
CONTINUOUS
 10
-78.554757
 20
62.086073
 11
-81.546018
 21
62.086073
  0
LINE
  8
型材断面
  6
CONTINUOUS
 10
36.616278
 20
59.495565
 11
38.111908
 21
62.086073
  0
LINE
  8
型材断面
  6
CONTINUOUS
 10
36.616278
 20
59.495565
 11
35.120648
 21
62.086073
  0
LINE
  8
型材断面
  6
CONTINUOUS
 10
35.120648
 20
62.086073
 11
38.111908
 21
62.086073
  0
LINE
  8
型材断面
  6
CONTINUOUS
 10
-21.717055
 20
59.495565
 11
-20.221425
 21
62.086073
  0
LINE
  8
型材断面
  6
CONTINUOUS
 10
-21.717055
 20
59.495565
 11
-23.212685
 21
62.086073
  0
LINE
  8
型材断面
  6
CONTINUOUS
 10
-23.212685
 20
62.086073
 11
-20.221425
 21
62.086073
  0
LINE
  8
型材断面
  6
CONTINUOUS
 10
56.04628
 20
35.065715
 11
58.636787
 21
36.561345
  0
LINE
  8
型材断面
  6
CONTINUOUS
 10
56.04628
 20
35.065715
 11
58.636787
 21
33.570085
  0
LINE
  8
型材断面
  6
CONTINUOUS
 10
58.636787
 20
33.570085
 11
58.636787
 21
36.561345
  0
LINE
  8
型材断面
  6
CONTINUOUS
 10
56.04628
 20
53.032382
 11
58.63679
 21
52.43633
  0
LINE
  8
型材断面
  6
CONTINUOUS
 10
56.04628
 20
53.032382
 11
58.636787
 21
53.628442
  0
LINE
  8
型材断面
  6
CONTINUOUS
 10
58.636787
 20
53.628442
 11
58.63679
 21
52.43633
  0
LINE
  8
型材断面
  6
CONTINUOUS
 10
56.04628
 20
17.099048
 11
58.63679
 21
17.6951
  0
LINE
  8
型材断面
  6
CONTINUOUS
 10
56.04628
 20
17.099048
 11
58.636787
 21
16.502988
  0
LINE
  8
型材断面
  6
CONTINUOUS
 10
58.636787
 20
16.502988
 11
58.63679
 21
17.6951
  0
LINE
  8
型材断面
  6
CONTINUOUS
 10
-80.050388
 20
10.63586
 11
-81.546018
 21
8.045353
  0
LINE
  8
型材断面
  6
CONTINUOUS
 10
-80.050388
 20
10.63586
 11
-78.554757
 21
8.045353
  0
LINE
  8
型材断面
  6
CONTINUOUS
 10
-78.554757
 20
8.045353
 11
-81.546018
 21
8.045353
  0
LINE
  8
型材断面
  6
CONTINUOUS
 10
36.616278
 20
10.63586
 11
38.111908
 21
8.045353
  0
LINE
  8
型材断面
  6
CONTINUOUS
 10
36.616278
 20
10.63586
 11
35.120648
 21
8.045353
  0
LINE
  8
型材断面
  6
CONTINUOUS
 10
35.120648
 20
8.045353
 11
38.111908
 21
8.045353
  0
LINE
  8
型材断面
  6
CONTINUOUS
 10
-21.717055
 20
10.63586
 11
-20.221425
 21
8.045353
  0
LINE
  8
型材断面
  6
CONTINUOUS
 10
-21.717055
 20
10.63586
 11
-23.212685
 21
8.045353
  0
LINE
  8
型材断面
  6
CONTINUOUS
 10
-23.212685
 20
8.045353
 11
-20.221425
 21
8.045353
  0
LINE
  8
型材断面
  6
DASHDOT
 10
-59.507055
 20
13.399048
 11
-59.507055
 21
56.73238
  0
LINE
  8
型材断面
  6
DASHDOT
 10
16.072945
 20
13.399048
 11
16.072945
 21
56.73238
  0
LINE
  8
型材断面
  6
CONTINUOUS
 10
17.322945
 20
14.89905
 11
14.822945
 21
14.899052
  0
LINE
  8
型材断面
  6
CONTINUOUS
 10
17.322945
 20
14.89905
 11
17.322945
 21
55.23238
  0
LINE
  8
型材断面
  6
CONTINUOUS
 10
14.822945
 20
14.899052
 11
14.822945
 21
55.232378
  0
LINE
  8
型材断面
  6
CONTINUOUS
 10
17.322945
 20
55.23238
 11
14.822945
 21
55.232378
  0
LINE
  8
型材断面
  6
CONTINUOUS
 10
-20.467055
 20
14.89905
 11
-22.967055
 21
14.899052
  0
LINE
  8
型材断面
  6
CONTINUOUS
 10
-20.467055
 20
14.89905
 11
-20.467055
 21
55.23238
  0
LINE
  8
型材断面
  6
CONTINUOUS
 10
-22.967055
 20
14.899052
 11
-22.967055
 21
55.232378
  0
LINE
  8
型材断面
  6
CONTINUOUS
 10
-20.467055
 20
55.23238
 11
-22.967055
 21
55.232378
  0
LINE
  8
型材断面
  6
CONTINUOUS
 10
-58.257055
 20
14.89905
 11
-60.757055
 21
14.899052
  0
LINE
  8
型材断面
  6
CONTINUOUS
 10
-58.257055
 20
14.89905
 11
-58.257055
 21
55.23238
  0
LINE
  8
型材断面
  6
CONTINUOUS
 10
-60.757055
 20
14.899052
 11
-60.757055
 21
55.232378
  0
LINE
  8
型材断面
  6
CONTINUOUS
 10
-58.257055
 20
55.23238
 11
-60.757055
 21
55.232378
  0
LINE
  8
型材断面
  6
CONTINUOUS
 10
35.094613
 20
14.065705
 11
35.094613
 21
11.565707
  0
LINE
  8
型材断面
  6
CONTINUOUS
 10
34.261277
 20
14.065705
 11
34.261277
 21
11.565707
  0
LINE
  8
型材断面
  6
CONTINUOUS
 10
-2.405387
 20
14.065705
 11
-2.405387
 21
11.565707
  0
LINE
  8
型材断面
  6
CONTINUOUS
 10
-3.238723
 20
14.065705
 11
-3.238723
 21
11.565707
  0
LINE
  8
型材断面
  6
CONTINUOUS
 10
35.094613
 20
56.065725
 11
35.094613
 21
58.565723
  0
LINE
  8
型材断面
  6
CONTINUOUS
 10
34.261277
 20
56.065725
 11
34.261277
 21
58.565723
  0
LINE
  8
型材断面
  6
CONTINUOUS
 10
-2.405387
 20
56.065725
 11
-2.405387
 21
58.565723
  0
LINE
  8
型材断面
  6
CONTINUOUS
 10
-3.238723
 20
56.065725
 11
-3.238723
 21
58.565723
  0
LINE
  8
型材断面
  6
CONTINUOUS
 10
-3.238723
 20
56.065695
 11
-21.717055
 21
56.065683
  0
LINE
  8
型材断面
  6
CONTINUOUS
 10
-3.238723
 20
14.065735
 11
-21.717055
 21
14.065747
  0
LINE
  8
型材断面
  6
CONTINUOUS
 10
34.261277
 20
14.065705
 11
-2.405387
 21
14.065733
  0
LINE
  8
型材断面
  6
CONTINUOUS
 10
34.261277
 20
56.065725
 11
-2.405387
 21
56.065697
  0
LINE
  8
型材断面
  6
CONTINUOUS
 10
56.046283
 20
10.63586
 11
56.046283
 21
59.495565
  0
LINE
  8
型材断面
  6
CONTINUOUS
 10
54.880602
 20
11.565692
 11
55.116302
 21
11.801392
  0
LINE
  8
型材断面
  6
CONTINUOUS
 10
52.3806
 20
14.065692
 11
52.6163
 21
14.301392
  0
LINE
  8
型材断面
  6
CONTINUOUS
 10
52.6163
 20
14.301392
 11
55.116302
 21
11.801392
  0
LINE
  8
型材断面
  6
CONTINUOUS
 10
55.116273
 20
35.065715
 11
55.116302
 21
11.801392
  0
LINE
  8
型材断面
  6
CONTINUOUS
 10
52.3806
 20
14.065692
 11
54.880602
 21
11.565692
  0
LINE
  8
型材断面
  6
CONTINUOUS
 10
56.046135
 20
10.63586
 11
54.99845
 21
11.68354
  0
LINE
  8
型材断面
  6
CONTINUOUS
 10
52.616273
 20
34.649048
 11
55.116273
 21
34.649048
  0
LINE
  8
型材断面
  6
CONTINUOUS
 10
52.616273
 20
35.482382
 11
55.116273
 21
35.482382
  0
LINE
  8
型材断面
  6
CONTINUOUS
 10
52.616273
 20
34.649048
 11
52.6163
 21
14.301392
  0
LINE
  8
型材断面
  6
CONTINUOUS
 10
54.880602
 20
58.565738
 11
55.116302
 21
58.330038
  0
LINE
  8
型材断面
  6
CONTINUOUS
 10
52.3806
 20
56.065738
 11
52.6163
 21
55.830038
  0
LINE
  8
型材断面
  6
CONTINUOUS
 10
52.3806
 20
56.065738
 11
54.880602
 21
58.565738
  0
LINE
  8
型材断面
  6
CONTINUOUS
 10
56.046135
 20
59.49557
 11
54.99845
 21
58.44789
  0
LINE
  8
型材断面
  6
CONTINUOUS
 10
52.6163
 20
55.830038
 11
55.116302
 21
58.330038
  0
LINE
  8
型材断面
  6
CONTINUOUS
 10
55.116273
 20
35.065715
 11
55.116302
 21
58.330038
  0
LINE
  8
型材断面
  6
CONTINUOUS
 10
52.616273
 20
35.482382
 11
52.6163
 21
55.830038
  0
LINE
  8
型材断面
  6
CONTINUOUS
 10
35.094613
 20
56.065725
 11
52.3806
 21
56.065738
  0
LINE
  8
型材断面
  6
CONTINUOUS
 10
-21.717055
 20
58.565683
 11
54.880602
 21
58.565738
  0
LINE
  8
型材断面
  6
CONTINUOUS
 10
-21.717055
 20
11.565747
 11
54.880602
 21
11.565692
  0
LINE
  8
型材断面
  6
CONTINUOUS
 10
35.094613
 20
14.065705
 11
52.3806
 21
14.065692
  0
LINE
  8
型材断面
  6
DASHDOT
 10
-59.507055
 20
13.399048
 11
-59.507055
 21
56.73238
  0
LINE
  8
型材断面
  6
CONTINUOUS
 10
-60.757055
 20
14.89905
 11
-58.257055
 21
14.899052
  0
LINE
  8
型材断面
  6
CONTINUOUS
 10
-60.757055
 20
14.89905
 11
-60.757055
 21
55.23238
  0
LINE
  8
型材断面
  6
CONTINUOUS
 10
-58.257055
 20
14.899052
 11
-58.257055
 21
55.232378
  0
LINE
  8
型材断面
  6
CONTINUOUS
 10
-60.757055
 20
55.23238
 11
-58.257055
 21
55.232378
  0
LINE
  8
型材断面
  6
CONTINUOUS
 10
-78.528723
 20
14.065705
 11
-78.528723
 21
11.565707
  0
LINE
  8
型材断面
  6
CONTINUOUS
 10
-77.695388
 20
14.065705
 11
-77.695388
 21
11.565707
  0
LINE
  8
型材断面
  6
CONTINUOUS
 10
-41.028723
 20
14.065705
 11
-41.028723
 21
11.565707
  0
LINE
  8
型材断面
  6
CONTINUOUS
 10
-40.195388
 20
14.065705
 11
-40.195388
 21
11.565707
  0
LINE
  8
型材断面
  6
CONTINUOUS
 10
-78.528723
 20
56.065725
 11
-78.528723
 21
58.565723
  0
LINE
  8
型材断面
  6
CONTINUOUS
 10
-77.695388
 20
56.065725
 11
-77.695388
 21
58.565723
  0
LINE
  8
型材断面
  6
CONTINUOUS
 10
-41.028723
 20
56.065725
 11
-41.028723
 21
58.565723
  0
LINE
  8
型材断面
  6
CONTINUOUS
 10
-40.195388
 20
56.065725
 11
-40.195388
 21
58.565723
  0
LINE
  8
型材断面
  6
CONTINUOUS
 10
-77.695388
 20
14.065705
 11
-41.028723
 21
14.065733
  0
LINE
  8
型材断面
  6
CONTINUOUS
 10
-77.695388
 20
56.065725
 11
-41.028723
 21
56.065697
  0
LINE
  8
型材断面
  6
CONTINUOUS
 10
-99.480393
 20
10.63586
 11
-99.480393
 21
59.495565
  0
LINE
  8
型材断面
  6
CONTINUOUS
 10
-98.314713
 20
11.565692
 11
-98.550413
 21
11.801392
  0
LINE
  8
型材断面
  6
CONTINUOUS
 10
-95.81471
 20
14.065692
 11
-96.05041
 21
14.301392
  0
LINE
  8
型材断面
  6
CONTINUOUS
 10
-96.05041
 20
14.301392
 11
-98.550413
 21
11.801392
  0
LINE
  8
型材断面
  6
CONTINUOUS
 10
-98.550382
 20
35.065715
 11
-98.550413
 21
11.801392
  0
LINE
  8
型材断面
  6
CONTINUOUS
 10
-95.81471
 20
14.065692
 11
-98.314713
 21
11.565692
  0
LINE
  8
型材断面
  6
CONTINUOUS
 10
-99.480245
 20
10.63586
 11
-98.43256
 21
11.68354
  0
LINE
  8
型材断面
  6
CONTINUOUS
 10
-96.050382
 20
34.649048
 11
-98.550382
 21
34.649048
  0
LINE
  8
型材断面
  6
CONTINUOUS
 10
-96.050382
 20
35.482382
 11
-98.550382
 21
35.482382
  0
LINE
  8
型材断面
  6
CONTINUOUS
 10
-96.050382
 20
34.649048
 11
-96.05041
 21
14.301392
  0
LINE
  8
型材断面
  6
CONTINUOUS
 10
-98.314713
 20
58.565738
 11
-98.550413
 21
58.330038
  0
LINE
  8
型材断面
  6
CONTINUOUS
 10
-95.81471
 20
56.065738
 11
-96.05041
 21
55.830038
  0
LINE
  8
型材断面
  6
CONTINUOUS
 10
-95.81471
 20
56.065738
 11
-98.314713
 21
58.565738
  0
LINE
  8
型材断面
  6
CONTINUOUS
 10
-99.480245
 20
59.49557
 11
-98.43256
 21
58.44789
  0
LINE
  8
型材断面
  6
CONTINUOUS
 10
-96.05041
 20
55.830038
 11
-98.550413
 21
58.330038
  0
LINE
  8
型材断面
  6
CONTINUOUS
 10
-98.550382
 20
35.065715
 11
-98.550413
 21
58.330038
  0
LINE
  8
型材断面
  6
CONTINUOUS
 10
-96.050382
 20
35.482382
 11
-96.05041
 21
55.830038
  0
LINE
  8
型材断面
  6
CONTINUOUS
 10
-78.528723
 20
56.065725
 11
-95.81471
 21
56.065738
  0
LINE
  8
型材断面
  6
CONTINUOUS
 10
-78.528723
 20
14.065705
 11
-95.81471
 21
14.065692
  0
LINE
  8
型材断面
  6
CONTINUOUS
 10
-21.717055
 20
14.065747
 11
-40.195388
 21
14.065735
  0
LINE
  8
型材断面
  6
CONTINUOUS
 10
-21.717055
 20
56.065683
 11
-40.195388
 21
56.065695
  0
LINE
  8
型材断面
  6
CONTINUOUS
 10
-21.717055
 20
58.565683
 11
-98.314713
 21
58.565738
  0
LINE
  8
型材断面
  6
CONTINUOUS
 10
-21.717055
 20
11.565747
 11
-98.314713
 21
11.565692
  0
LINE
  8
型材断面
  6
CONTINUOUS
 10
150.316213
 20
58.995567
 11
150.652878
 21
58.995567
  0
LINE
  8
型材断面
  6
CONTINUOUS
 10
146.219663
 20
59.2989
 11
146.41633
 21
59.495567
  0
LINE
  8
型材断面
  6
CONTINUOUS
 10
146.41633
 20
59.495567
 11
150.316213
 21
59.495567
  0
LINE
  8
型材断面
  6
CONTINUOUS
 62
    47
 10
146.219708
 20
59.298942
 11
146.219708
 21
35.065715
  0
LINE
  8
型材断面
  6
CONTINUOUS
 10
146.41633
 20
59.495567
 11
146.41633
 21
35.065715
  0
LINE
  8
型材断面
  6
CONTINUOUS
 10
150.316213
 20
59.495567
 11
150.316213
 21
35.065715
  0
LINE
  8
型材断面
  6
CONTINUOUS
 10
150.652878
 20
58.995567
 11
150.652878
 21
35.065715
  0
LINE
  8
型材断面
  6
CONTINUOUS
 10
150.316213
 20
11.135863
 11
150.652878
 21
11.135863
  0
LINE
  8
型材断面
  6
CONTINUOUS
 10
146.219663
 20
10.83253
 11
146.41633
 21
10.635863
  0
LINE
  8
型材断面
  6
CONTINUOUS
 10
146.41633
 20
10.635863
 11
150.316213
 21
10.635863
  0
LINE
  8
型材断面
  6
CONTINUOUS
 62
    47
 10
146.219708
 20
10.832488
 11
146.219708
 21
35.065715
  0
LINE
  8
型材断面
  6
CONTINUOUS
 10
146.41633
 20
10.635863
 11
146.41633
 21
35.065715
  0
LINE
  8
型材断面
  6
CONTINUOUS
 10
150.316213
 20
10.635863
 11
150.316213
 21
35.065715
  0
LINE
  8
型材断面
  6
CONTINUOUS
 10
150.652878
 20
11.135863
 11
150.652878
 21
35.065715
  0
LINE
  8
型材断面
  6
CONTINUOUS
 10
55.546283
 20
-86.607932
 11
55.546283
 21
-86.944597
  0
LINE
  8
型材断面
  6
CONTINUOUS
 10
55.849615
 20
-82.511383
 11
56.046283
 21
-82.70805
  0
LINE
  8
型材断面
  6
CONTINUOUS
 10
56.046283
 20
-82.70805
 11
56.046283
 21
-86.607932
  0
LINE
  8
型材断面
  6
CONTINUOUS
 62
    47
 10
55.849657
 20
-82.511427
 11
-21.717055
 21
-82.511427
  0
LINE
  8
型材断面
  6
CONTINUOUS
 10
56.046283
 20
-82.70805
 11
-21.717055
 21
-82.70805
  0
LINE
  8
型材断面
  6
CONTINUOUS
 10
56.046283
 20
-86.607932
 11
-21.717055
 21
-86.607932
  0
LINE
  8
型材断面
  6
CONTINUOUS
 10
55.546283
 20
-86.944597
 11
-21.717055
 21
-86.944597
  0
LINE
  8
型材断面
  6
CONTINUOUS
 10
-98.980393
 20
-86.607932
 11
-98.980393
 21
-86.944597
  0
LINE
  8
型材断面
  6
CONTINUOUS
 10
-99.283725
 20
-82.511383
 11
-99.480393
 21
-82.70805
  0
LINE
  8
型材断面
  6
CONTINUOUS
 10
-99.480393
 20
-82.70805
 11
-99.480393
 21
-86.607932
  0
LINE
  8
型材断面
  6
CONTINUOUS
 62
    47
 10
-99.283767
 20
-82.511427
 11
-21.717055
 21
-82.511427
  0
LINE
  8
型材断面
  6
CONTINUOUS
 10
-99.480393
 20
-82.70805
 11
-21.717055
 21
-82.70805
  0
LINE
  8
型材断面
  6
CONTINUOUS
 10
-99.480393
 20
-86.607932
 11
-21.717055
 21
-86.607932
  0
LINE
  8
型材断面
  6
CONTINUOUS
 10
-98.980393
 20
-86.944597
 11
-21.717055
 21
-86.944597
  0
TEXT
  7
TextStyle03
  8
文字
  6
CONTINUOUS
 10
-29.925
 20
67.2
  1
可動装置側
 40
3.0
 72
     5
 11
-13.425
 21
67.2
  0
TEXT
  7
TextStyle03
  8
文字
  6
CONTINUOUS
 10
-29.925
 20
-0.075
  1
可動装置側
 40
3.0
 72
     5
 11
-13.425
 21
-0.075
  0
TEXT
  7
TextStyle03
  8
文字
  6
CONTINUOUS
 10
-134.775
 20
93.325
  1
はケーシング位置を示す
 40
3.0
 72
     5
 11
-98.025
 21
93.325
  0
TEXT
  7
TextStyle03
  8
文字
  6
CONTINUOUS
 10
-134.775
 20
89.95
  1
４ヶ所中1ヶ所に設定
 40
3.0
 72
     5
 11
-103.0875
 21
89.95
  0
TEXT
  7
TextStyle03
  8
文字
  6
CONTINUOUS
 10
-134.775
 20
98.85
  1
は排水穴位置を示す
 40
3.0
 72
     5
 11
-104.775
 21
98.85
  0
TEXT
  7
TextStyle03
  8
文字
  6
CONTINUOUS
 10
-134.275
 20
23.975
  1
アンカーピッチ
 40
3.0
 50
90.0
 72
     5
 11
-134.275
 21
47.225
  0
TEXT
  7
TextStyle03
  8
文字
  6
CONTINUOUS
 10
-81.775
 20
93.8
  1
アンカーピッチ
 40
3.0
 72
     5
 11
-58.525
 21
93.8
  0
TEXT
  7
TextStyle03
  8
文字
  6
CONTINUOUS
 10
-138.5
 20
83.975
  1
アンカー数量　１６ヶ所
 40
3.0
 72
     5
 11
-101.75
 21
83.975
  0
TEXT
  7
TextStyle03
  8
文字
  6
CONTINUOUS
 10
-143.5
 20
78.2
  1
アームユニット数　※４～６ヶ所
 40
3.0
 72
     5
 11
-93.25
 21
78.2
  0
TEXT
  7
TextStyle03
  8
文字
  6
CONTINUOUS
 10
-143.5
 20
73.25
  1
※重量に依るのでご相談ください
 40
3.0
 72
     5
 11
-93.25
 21
73.25
  0
LINE
  8
文字
  6
CONTINUOUS
 10
144.411973
 20
59.495565
 11
87.302595
 21
59.495565
  0
LINE
  8
文字
  6
CONTINUOUS
 10
144.411973
 20
10.63586
 11
87.302595
 21
10.63586
  0
LINE
  8
文字
  6
CONTINUOUS
 10
125.532993
 20
65.733497
 11
125.532993
 21
60.820725
  0
LINE
  8
文字
  6
CONTINUOUS
 10
-99.480393
 20
-80.158047
 11
-99.480393
 21
-22.024302
  0
LINE
  8
文字
  6
CONTINUOUS
 10
56.04628
 20
-80.158047
 11
56.04628
 21
-22.024302
  0
LINE
  8
文字
  6
CONTINUOUS
 10
72.459768
 20
-61.824712
 11
58.846142
 21
-61.824712
  0
LINE
  8
文字
  6
CONTINUOUS
 10
111.7695
 20
-41.50152
 11
111.7695
 21
-48.93954
  0
LINE
  8
文字
  6
CONTINUOUS
 10
148.3695
 20
-41.50152
 11
148.3695
 21
-48.93954
  0
TEXT
  7
TextStyle03
  8
文字
  6
CONTINUOUS
 10
129.825
 20
-86.75
  1
網入り6.8t
 40
3.0
 72
     5
 11
146.5125
 21
-86.75
  0
TEXT
  7
TextStyle03
  8
文字
  6
CONTINUOUS
 10
136.5
 20
-91.425
  1
×４枚
 40
3.0
 72
     5
 11
146.25
 21
-91.425
  0
TEXT
  7
TextStyle03
  8
文字
  6
CONTINUOUS
 10
60.05
 20
125.25
  1
シリーズ：ＴＦＦＬ
 40
5.0
 72
     5
 11
110.05
 21
125.25
  0
TEXT
  7
TextStyle03
  8
文字
  6
CONTINUOUS
 10
60.05
 20
119.625
  1
　　　　　（上下可動）1300×4500タイプ
 40
5.0
 72
     5
 11
166.3
 21
119.625
  0
TEXT
  7
TextStyle03
  8
文字
  6
CONTINUOUS
 10
60.05
 20
114.0
  1
図面名　：外観姿図
 40
5.0
 72
     5
 11
110.05
 21
114.0
  0
TEXT
  7
TextStyle03
  8
文字
  6
CONTINUOUS
 10
60.05
 20
108.375
  1
　　　　　　
 40
5.0
 72
     5
 11
93.175
 21
108.375
  0
TEXT
  7
TextStyle03
  8
文字
  6
CONTINUOUS
 10
60.2
 20
104.525
  1
ＮＳコード：ＮＳＦＬ
 40
5.0
 72
     5
 11
115.825
 21
104.525
  0
INSERT
  2
*DIM_0002
  8
寸法
  6
CONTINUOUS
 10
0.0
 20
0.0
  0
INSERT
  2
*DIM_0003
  8
寸法
  6
CONTINUOUS
 10
0.0
 20
0.0
  0
INSERT
  2
*DIM_0004
  8
寸法
  6
CONTINUOUS
 10
0.0
 20
0.0
  0
INSERT
  2
*DIM_0005
  8
寸法
  6
CONTINUOUS
 10
0.0
 20
0.0
  0
INSERT
  2
*DIM_0006
  8
寸法
  6
CONTINUOUS
 10
0.0
 20
0.0
  0
INSERT
  2
*DIM_0007
  8
寸法
  6
CONTINUOUS
 10
0.0
 20
0.0
  0
INSERT
  2
*DIM_0008
  8
寸法
  6
CONTINUOUS
 10
0.0
 20
0.0
  0
INSERT
  2
*DIM_0009
  8
寸法
  6
CONTINUOUS
 10
0.0
 20
0.0
  0
INSERT
  2
*DIM_0010
  8
寸法
  6
CONTINUOUS
 10
0.0
 20
0.0
  0
INSERT
  2
*DIM_0011
  8
寸法
  6
CONTINUOUS
 10
0.0
 20
0.0
  0
INSERT
  2
*DIM_0012
  8
寸法
  6
CONTINUOUS
 10
0.0
 20
0.0
  0
INSERT
  2
*DIM_0013
  8
寸法
  6
CONTINUOUS
 10
0.0
 20
0.0
  0
INSERT
  2
*DIM_0014
  8
寸法
  6
CONTINUOUS
 10
0.0
 20
0.0
  0
INSERT
  2
*DIM_0019
  8
寸法
  6
CONTINUOUS
 10
0.0
 20
0.0
  0
INSERT
  2
*DIM_0020
  8
寸法
  6
CONTINUOUS
 10
0.0
 20
0.0
  0
INSERT
  2
*DIM_0021
  8
寸法
  6
CONTINUOUS
 10
0.0
 20
0.0
  0
INSERT
  2
*DIM_0022
  8
寸法
  6
CONTINUOUS
 10
0.0
 20
0.0
  0
INSERT
  2
*DIM_0023
  8
寸法
  6
CONTINUOUS
 10
0.0
 20
0.0
  0
INSERT
  2
*DIM_0024
  8
寸法
  6
CONTINUOUS
 10
0.0
 20
0.0
  0
INSERT
  2
*DIM_0025
  8
寸法
  6
CONTINUOUS
 10
0.0
 20
0.0
  0
INSERT
  2
*DIM_0026
  8
寸法
  6
CONTINUOUS
 10
0.0
 20
0.0
  0
INSERT
  2
*DIM_0027
  8
寸法
  6
CONTINUOUS
 10
0.0
 20
0.0
  0
LINE
  8
別途部材
  6
CONTINUOUS
 62
    47
 10
142.29966
 20
58.565568
 11
142.366328
 21
58.565568
  0
ARC
  8
別途部材
  6
CONTINUOUS
 62
    47
 10
142.299659
 20
58.465567
 40
0.1
 50
90.0
 51
180.0
  0
LINE
  8
別途部材
  6
CONTINUOUS
 62
    47
 10
142.366328
 20
58.409045
 11
143.866328
 21
58.409045
  0
LINE
  8
別途部材
  6
CONTINUOUS
 62
    47
 10
142.29966
 20
11.565857
 11
142.366328
 21
11.565857
  0
ARC
  8
別途部材
  6
CONTINUOUS
 62
    47
 10
142.299659
 20
11.665857
 40
0.1
 50
180.0
 51
270.0
  0
LINE
  8
別途部材
  6
CONTINUOUS
 62
    47
 10
142.366328
 20
11.72238
 11
143.866328
 21
11.72238
  0
LINE
  8
別途部材
  6
CONTINUOUS
 62
    47
 10
142.366328
 20
11.565857
 11
142.366328
 21
35.198768
  0
LINE
  8
別途部材
  6
CONTINUOUS
 62
    47
 10
142.19966
 20
11.665857
 11
142.19966
 21
35.198768
  0
LINE
  8
別途部材
  6
CONTINUOUS
 62
    47
 10
143.866328
 20
11.72238
 11
143.866328
 21
35.198768
  0
LINE
  8
別途部材
  6
CONTINUOUS
 62
    47
 10
145.01633
 20
10.63586
 11
145.01633
 21
35.198768
  0
LINE
  8
別途部材
  6
CONTINUOUS
 62
    47
 10
146.182995
 20
10.63586
 11
146.182995
 21
35.198768
  0
LINE
  8
別途部材
  6
CONTINUOUS
 62
    47
 10
146.182995
 20
59.495565
 11
146.182995
 21
35.198768
  0
LINE
  8
別途部材
  6
CONTINUOUS
 62
    47
 10
145.01633
 20
59.495565
 11
145.01633
 21
35.198768
  0
LINE
  8
別途部材
  6
CONTINUOUS
 62
    47
 10
143.866328
 20
58.409045
 11
143.866328
 21
35.198768
  0
LINE
  8
別途部材
  6
CONTINUOUS
 62
    47
 10
142.366328
 20
58.565568
 11
142.366328
 21
35.198768
  0
LINE
  8
別途部材
  6
CONTINUOUS
 62
    47
 10
142.19966
 20
58.465567
 11
142.19966
 21
35.198768
  0
LINE
  8
別途部材
  6
DOT
 62
    47
 10
125.632993
 20
58.565568
 11
125.69966
 21
58.565568
  0
ARC
  8
別途部材
  6
DOT
 62
    47
 10
125.632991
 20
58.465567
 40
0.1
 50
90.0
 51
180.0
  0
LINE
  8
別途部材
  6
DOT
 62
    47
 10
125.69966
 20
58.409045
 11
127.19966
 21
58.409045
  0
LINE
  8
別途部材
  6
DOT
 62
    47
 10
125.632993
 20
11.565857
 11
125.69966
 21
11.565857
  0
ARC
  8
別途部材
  6
DOT
 62
    47
 10
125.632991
 20
11.665857
 40
0.1
 50
180.0
 51
270.0
  0
LINE
  8
別途部材
  6
DOT
 62
    47
 10
125.69966
 20
11.72238
 11
127.19966
 21
11.72238
  0
LINE
  8
別途部材
  6
DOT
 62
    47
 10
128.349662
 20
10.63586
 11
128.349662
 21
35.198768
  0
LINE
  8
別途部材
  6
DOT
 62
    47
 10
125.532993
 20
11.665857
 11
125.532993
 21
35.198768
  0
LINE
  8
別途部材
  6
DOT
 62
    47
 10
127.19966
 20
11.72238
 11
127.19966
 21
35.198768
  0
LINE
  8
別途部材
  6
DOT
 62
    47
 10
129.516328
 20
10.63586
 11
129.516328
 21
35.198768
  0
LINE
  8
別途部材
  6
DOT
 62
    47
 10
125.69966
 20
11.565857
 11
125.69966
 21
35.198768
  0
LINE
  8
別途部材
  6
DOT
 62
    47
 10
129.516328
 20
59.495565
 11
129.516328
 21
35.198768
  0
LINE
  8
別途部材
  6
DOT
 62
    47
 10
128.349662
 20
59.495565
 11
128.349662
 21
35.198768
  0
LINE
  8
別途部材
  6
DOT
 62
    47
 10
127.19966
 20
58.409045
 11
127.19966
 21
35.198768
  0
LINE
  8
別途部材
  6
DOT
 62
    47
 10
125.532993
 20
58.465567
 11
125.532993
 21
35.198768
  0
LINE
  8
別途部材
  6
DOT
 62
    47
 10
125.69966
 20
58.565568
 11
125.69966
 21
35.198768
  0
LINE
  8
別途部材
  6
CONTINUOUS
 62
    47
 10
-98.550395
 20
-78.59138
 11
-98.550395
 21
-78.658047
  0
ARC
  8
別途部材
  6
CONTINUOUS
 62
    47
 10
-98.450392
 20
-78.591386
 40
0.1
 50
90.0
 51
180.0
  0
LINE
  8
別途部材
  6
CONTINUOUS
 62
    47
 10
-98.393873
 20
-78.658047
 11
-98.393873
 21
-80.158047
  0
LINE
  8
別途部材
  6
CONTINUOUS
 62
    47
 10
55.116282
 20
-78.59138
 11
55.116282
 21
-78.658047
  0
ARC
  8
別途部材
  6
CONTINUOUS
 62
    47
 10
55.016277
 20
-78.591386
 40
0.1
 50
0.0
 51
90.0
  0
LINE
  8
別途部材
  6
CONTINUOUS
 62
    47
 10
54.95976
 20
-78.658047
 11
54.95976
 21
-80.158047
  0
LINE
  8
別途部材
  6
CONTINUOUS
 62
    47
 10
-99.480393
 20
-81.30805
 11
-21.717055
 21
-81.30805
  0
LINE
  8
別途部材
  6
CONTINUOUS
 62
    47
 10
-98.393873
 20
-80.158047
 11
-21.717055
 21
-80.158047
  0
LINE
  8
別途部材
  6
CONTINUOUS
 62
    47
 10
-98.450395
 20
-78.49138
 11
-21.717055
 21
-78.49138
  0
LINE
  8
別途部材
  6
CONTINUOUS
 62
    47
 10
-98.550395
 20
-78.658047
 11
-21.717055
 21
-78.658047
  0
LINE
  8
別途部材
  6
CONTINUOUS
 62
    47
 10
-99.480393
 20
-82.474715
 11
-21.717055
 21
-82.474715
  0
LINE
  8
別途部材
  6
CONTINUOUS
 62
    47
 10
55.116282
 20
-78.658047
 11
-21.717055
 21
-78.658047
  0
LINE
  8
別途部材
  6
CONTINUOUS
 62
    47
 10
55.016282
 20
-78.49138
 11
-21.717055
 21
-78.49138
  0
LINE
  8
別途部材
  6
CONTINUOUS
 62
    47
 10
54.95976
 20
-80.158047
 11
-21.717055
 21
-80.158047
  0
LINE
  8
別途部材
  6
CONTINUOUS
 62
    47
 10
56.04628
 20
-81.30805
 11
-21.717055
 21
-81.30805
  0
LINE
  8
別途部材
  6
CONTINUOUS
 62
    47
 10
56.04628
 20
-82.474715
 11
-21.717055
 21
-82.474715
  0
LINE
  8
別途部材
  6
DOT
 62
    47
 10
-98.550395
 20
-61.924712
 11
-98.550395
 21
-61.99138
  0
ARC
  8
別途部材
  6
DOT
 62
    47
 10
-98.450392
 20
-61.924718
 40
0.1
 50
90.0
 51
180.0
  0
LINE
  8
別途部材
  6
DOT
 62
    47
 10
-98.393873
 20
-61.99138
 11
-98.393873
 21
-63.49138
  0
LINE
  8
別途部材
  6
DOT
 62
    47
 10
55.116282
 20
-61.924712
 11
55.116282
 21
-61.99138
  0
ARC
  8
別途部材
  6
DOT
 62
    47
 10
55.016277
 20
-61.924718
 40
0.1
 50
0.0
 51
90.0
  0
LINE
  8
別途部材
  6
DOT
 62
    47
 10
54.95976
 20
-61.99138
 11
54.95976
 21
-63.49138
  0
LINE
  8
別途部材
  6
DOT
 62
    47
 10
-98.393873
 20
-63.49138
 11
-21.717055
 21
-63.49138
  0
LINE
  8
別途部材
  6
DOT
 62
    47
 10
-99.480393
 20
-64.641382
 11
-21.717055
 21
-64.641382
  0
LINE
  8
別途部材
  6
DOT
 62
    47
 10
-99.480393
 20
-65.808047
 11
-21.717055
 21
-65.808047
  0
LINE
  8
別途部材
  6
DOT
 62
    47
 10
-98.450395
 20
-61.824712
 11
-21.717055
 21
-61.824712
  0
LINE
  8
別途部材
  6
DOT
 62
    47
 10
-98.550395
 20
-61.99138
 11
-21.717055
 21
-61.99138
  0
LINE
  8
別途部材
  6
DOT
 62
    47
 10
55.016282
 20
-61.824712
 11
-21.717055
 21
-61.824712
  0
LINE
  8
別途部材
  6
DOT
 62
    47
 10
55.116282
 20
-61.99138
 11
-21.717055
 21
-61.99138
  0
LINE
  8
別途部材
  6
DOT
 62
    47
 10
54.95976
 20
-63.49138
 11
-21.717055
 21
-63.49138
  0
LINE
  8
別途部材
  6
DOT
 62
    47
 10
56.04628
 20
-64.641382
 11
-21.717055
 21
-64.641382
  0
LINE
  8
別途部材
  6
DOT
 62
    47
 10
56.04628
 20
-65.808047
 11
-21.717055
 21
-65.808047
  0
LINE
  8
曲げ物
  6
CONTINUOUS
 10
38.008675
 20
37.022003
 11
34.313363
 21
33.32669
  0
LINE
  8
曲げ物
  6
CONTINUOUS
 10
37.305205
 20
35.485893
 11
35.849475
 21
34.030163
  0
LINE
  8
曲げ物
  6
CONTINUOUS
 10
36.472565
 20
36.318533
 11
35.016835
 21
34.862803
  0
LINE
  8
曲げ物
  6
CONTINUOUS
 10
0.648378
 20
37.022003
 11
-3.046935
 21
33.32669
  0
LINE
  8
曲げ物
  6
CONTINUOUS
 10
-0.055092
 20
35.485893
 11
-1.510822
 21
34.030163
  0
LINE
  8
曲げ物
  6
CONTINUOUS
 10
-0.887733
 20
36.318533
 11
-2.343462
 21
34.862803
  0
LINE
  8
曲げ物
  6
CONTINUOUS
 10
-38.87158
 20
37.022003
 11
-42.566892
 21
33.32669
  0
LINE
  8
曲げ物
  6
CONTINUOUS
 10
-39.57505
 20
35.485893
 11
-41.03078
 21
34.030163
  0
LINE
  8
曲げ物
  6
CONTINUOUS
 10
-40.40769
 20
36.318533
 11
-41.86342
 21
34.862803
  0
LINE
  8
曲げ物
  6
CONTINUOUS
 10
-77.815385
 20
37.022003
 11
-81.510697
 21
33.32669
  0
LINE
  8
曲げ物
  6
CONTINUOUS
 10
-78.518855
 20
35.485893
 11
-79.974585
 21
34.030163
  0
LINE
  8
曲げ物
  6
CONTINUOUS
 10
-79.351495
 20
36.318533
 11
-80.807225
 21
34.862803
  0
LINE
  8
曲げ物
  6
CONTINUOUS
 10
148.3695
 20
-49.867045
 11
111.7695
 21
-49.867045
  0
LINE
  8
曲げ物
  6
CONTINUOUS
 10
148.3695
 20
-93.20038
 11
111.7695
 21
-93.20038
  0
LINE
  8
曲げ物
  6
CONTINUOUS
 10
148.3695
 20
-49.867045
 11
148.3695
 21
-93.20038
  0
LINE
  8
曲げ物
  6
CONTINUOUS
 10
111.7695
 20
-49.867045
 11
111.7695
 21
-93.20038
  0
LINE
  8
鉄骨等
  6
CONTINUOUS
 62
    47
 10
146.182995
 20
59.495565
 11
145.01633
 21
59.495565
  0
LINE
  8
鉄骨等
  6
CONTINUOUS
 62
    47
 10
145.01633
 20
59.495565
 11
143.86633
 21
58.092377
  0
LINE
  8
鉄骨等
  6
CONTINUOUS
 62
    47
 10
146.182995
 20
10.63586
 11
145.01633
 21
10.63586
  0
LINE
  8
鉄骨等
  6
CONTINUOUS
 62
    47
 10
145.01633
 20
10.63586
 11
143.86633
 21
12.039045
  0
LINE
  8
鉄骨等
  6
DOT
 62
    47
 10
129.516328
 20
59.495565
 11
128.349662
 21
59.495565
  0
LINE
  8
鉄骨等
  6
DOT
 62
    47
 10
128.349662
 20
59.495565
 11
127.199662
 21
58.092377
  0
LINE
  8
鉄骨等
  6
DOT
 62
    47
 10
129.516328
 20
10.63586
 11
128.349662
 21
10.63586
  0
LINE
  8
鉄骨等
  6
DOT
 62
    47
 10
128.349662
 20
10.63586
 11
127.199662
 21
12.039045
  0
LINE
  8
鉄骨等
  6
CONTINUOUS
 62
    47
 10
-99.480393
 20
-82.474715
 11
-99.480393
 21
-81.30805
  0
LINE
  8
鉄骨等
  6
CONTINUOUS
 62
    47
 10
-99.480393
 20
-81.30805
 11
-98.077207
 21
-80.15805
  0
LINE
  8
鉄骨等
  6
CONTINUOUS
 62
    47
 10
56.04628
 20
-82.474715
 11
56.04628
 21
-81.30805
  0
LINE
  8
鉄骨等
  6
CONTINUOUS
 62
    47
 10
56.04628
 20
-81.30805
 11
54.643095
 21
-80.15805
  0
LINE
  8
鉄骨等
  6
DOT
 62
    47
 10
-99.480393
 20
-65.808047
 11
-99.480393
 21
-64.641382
  0
LINE
  8
鉄骨等
  6
DOT
 62
    47
 10
-99.480393
 20
-64.641382
 11
-98.077207
 21
-63.491382
  0
LINE
  8
鉄骨等
  6
DOT
 62
    47
 10
56.04628
 20
-65.808047
 11
56.04628
 21
-64.641382
  0
LINE
  8
鉄骨等
  6
DOT
 62
    47
 10
56.04628
 20
-64.641382
 11
54.643095
 21
-63.491382
  0
ENDSEC
  0
EOF
