  0
SECTION
  2
HEADER
  9
$EXTMIN
 10
-210.0
 20
-148.5
  9
$EXTMAX
 10
210.0
 20
148.5
  9
$PDMODE
 70
    32
  9
$PDSIZE
 40
1.5
  9
$LTSCALE
 40
10.0
  0
ENDSEC
  0
SECTION
  2
TABLES
  0
TABLE
  2
LTYPE
 70
    15
  0
LTYPE
  2
CONTINUOUS
 70
    64
  3
実線
 72
    65
 73
     0
 40
0.0
  0
LTYPE
  2
DASHED
 70
    64
  3
破線A
 72
    65
 73
     2
 40
0.6
 49
0.4
 49
-0.2
  0
LTYPE
  2
DASHEDX2
 70
    64
  3
破線B
 72
    65
 73
     2
 40
1.3
 49
0.9
 49
-0.4
  0
LTYPE
  2
DASHDOT
 70
    64
  3
１点鎖線A
 72
    65
 73
     4
 40
0.5375
 49
0.375
 49
-0.05
 49
0.0625
 49
-0.05
  0
LTYPE
  2
DASHDOTX2
 70
    64
  3
１点鎖線B
 72
    65
 73
     4
 40
1.075
 49
0.75
 49
-0.1
 49
0.125
 49
-0.1
  0
LTYPE
  2
DIVIDE2
 70
    64
  3
２点鎖線A
 72
    65
 73
     6
 40
0.5125
 49
0.3
 49
-0.0375
 49
0.05
 49
-0.0375
 49
0.05
 49
-0.0375
  0
LTYPE
  2
DIVIDE
 70
    64
  3
２点鎖線B
 72
    65
 73
     6
 40
1.05
 49
0.55
 49
-0.1
 49
0.1
 49
-0.1
 49
0.1
 49
-0.1
  0
LTYPE
  2
DOT
 70
    64
  3
点線A
 72
    65
 73
     2
 40
0.1125
 49
0.0625
 49
-0.05
  0
LTYPE
  2
DOTX2
 70
    64
  3
点線B
 72
    65
 73
     2
 40
0.275
 49
0.15
 49
-0.125
  0
LTYPE
  2
CONTINUOUS
 70
    64
  3
実線
 72
    65
 73
     0
 40
0.0
  0
LTYPE
  2
CONTINUOUS
 70
    64
  3
実線
 72
    65
 73
     0
 40
0.0
  0
LTYPE
  2
CONTINUOUS
 70
    64
  3
実線
 72
    65
 73
     0
 40
0.0
  0
LTYPE
  2
CONTINUOUS
 70
    64
  3
実線
 72
    65
 73
     0
 40
0.0
  0
LTYPE
  2
CONTINUOUS
 70
    64
  3
実線
 72
    65
 73
     0
 40
0.0
  0
LTYPE
  2
CONTINUOUS
 70
    64
  3
実線
 72
    65
 73
     0
 40
0.0
  0
ENDTAB
  0
TABLE
  2
LAYER
 70
    34
  0
LAYER
  2
通り芯
 70
     0
 62
    15
  6
CONTINUOUS
  0
LAYER
  2
補助線
 70
     0
 62
    16
  6
DOT
  0
LAYER
  2
躯体
 70
     0
 62
    31
  6
CONTINUOUS
  0
LAYER
  2
型材
 70
     0
 62
    32
  6
CONTINUOUS
  0
LAYER
  2
型材断面
 70
     0
 62
    47
  6
CONTINUOUS
  0
LAYER
  2
ガラス
 70
     0
 62
    48
  6
CONTINUOUS
  0
LAYER
  2
ゴム等
 70
     0
 62
    63
  6
CONTINUOUS
  0
LAYER
  2
ボルト／ビス
 70
     0
 62
    64
  6
CONTINUOUS
  0
LAYER
  2
文字
 70
     0
 62
    79
  6
CONTINUOUS
  0
LAYER
  2
寸法
 70
     0
 62
    80
  6
CONTINUOUS
  0
LAYER
  2
ﾊｯﾁﾝｸﾞ
 70
     0
 62
    95
  6
CONTINUOUS
  0
LAYER
  2
別途部材
 70
     0
 62
    96
  6
CONTINUOUS
  0
LAYER
  2
曲げ物
 70
     0
 62
   111
  6
CONTINUOUS
  0
LAYER
  2
鉄骨等
 70
     0
 62
   112
  6
CONTINUOUS
  0
LAYER
  2
St
 70
     0
 62
   127
  6
CONTINUOUS
  0
LAYER
  2
その他部品等
 70
     0
 62
   128
  6
CONTINUOUS
  0
LAYER
  2
ｶﾞｽｹｯﾄ
 70
     0
 62
   143
  6
CONTINUOUS
  0
LAYER
  2
ｽｹｯﾁ
 70
     0
 62
    14
  6
CONTINUOUS
  0
LAYER
  2
0
 70
     0
 62
    17
  6
CONTINUOUS
  0
LAYER
  2
1
 70
     0
 62
    30
  6
CONTINUOUS
  0
LAYER
  2
4
 70
     0
 62
    33
  6
CONTINUOUS
  0
LAYER
  2
ﾚｲﾔ3
 70
     0
 62
    46
  6
CONTINUOUS
  0
LAYER
  2
外形線
 70
     0
 62
    49
  6
CONTINUOUS
  0
LAYER
  2
部品
 70
     0
 62
    14
  6
CONTINUOUS
  0
LAYER
  2
サッシ芯
 70
     0
 62
    17
  6
DASHDOTX2
  0
LAYER
  2
寸法線
 70
     0
 62
    62
  6
CONTINUOUS
  0
LAYER
  2
姿図外形線
 70
     0
 62
    65
  6
CONTINUOUS
  0
LAYER
  2
姿補助線
 70
     0
 62
    30
  6
CONTINUOUS
  0
LAYER
  2
透視線
 70
     0
 62
    78
  6
DOT
  0
LAYER
  2
用紙
 70
     0
 62
    81
  6
CONTINUOUS
  0
LAYER
  2
実線図枠
 70
     0
 62
    94
  6
CONTINUOUS
  0
LAYER
  2
補助図枠
 70
     0
 62
    97
  6
CONTINUOUS
  0
LAYER
  2
建具記号
 70
     0
 62
   110
  6
CONTINUOUS
  0
LAYER
  2
補助文字
 70
     0
 62
   113
  6
CONTINUOUS
  0
ENDTAB
  0
TABLE
  2
STYLE
 70
    10
  0
STYLE
  2
STANDARD
 70
     0
 40
1.0
 41
1.0
 42
1.0
 50
0.0
 71
     0
  3
TXT
  4
BIGFONT
  0
STYLE
  2
TATE
 70
     4
 40
1.0
 41
1.0
 42
1.0
 50
0.0
 71
     0
  3
TXT
  4
BIGFONT
  0
STYLE
  2
TextStyle03
 70
     0
 40
1.0
 41
1.0
 42
1.0
 50
0.0
 71
     0
  3
MONOTXT
  4
BIGFONT
  0
STYLE
  2
TextStyle04
 70
     0
 40
1.0
 41
1.0
 42
1.0
 50
0.0
 71
     0
  3
MONOTXT
  4
BIGFONT
  0
STYLE
  2
TextStyle05
 70
     0
 40
1.0
 41
1.0
 42
1.0
 50
0.0
 71
     0
  3
MONOTXT
  4
BIGFONT
  0
STYLE
  2
TextStyle06
 70
     0
 40
1.0
 41
1.0
 42
1.0
 50
0.0
 71
     0
  3
MONOTXT
  4
BIGFONT
  0
STYLE
  2
TextStyle07
 70
     0
 40
1.0
 41
1.0
 42
1.0
 50
0.0
 71
     0
  3
MONOTXT
  4
BIGFONT
  0
STYLE
  2
TextStyle08
 70
     0
 40
1.0
 41
1.0
 42
1.0
 50
0.0
 71
     0
  3
MONOTXT
  4
BIGFONT
  0
STYLE
  2
TextStyle09
 70
     0
 40
1.0
 41
1.0
 42
1.0
 50
0.0
 71
     0
  3
MONOTXT
  4
BIGFONT
  0
STYLE
  2
TextStyle10
 70
     0
 40
1.0
 41
1.0
 42
1.0
 50
0.0
 71
     0
  3
MONOTXT
  4
BIGFONT
  0
ENDTAB
  0
ENDSEC
  0
SECTION
  2
BLOCKS
  0
BLOCK
  2
*GRP_0001
 70
    65
 10
0.0
 20
0.0
  0
LINE
  8
型材断面
  6
CONTINUOUS
 10
195.0
 20
133.5
 11
195.0
 21
-133.5
  0
LINE
  8
型材断面
  6
CONTINUOUS
 10
195.0
 20
-133.5
 11
-185.0
 21
-133.5
  0
LINE
  8
型材断面
  6
CONTINUOUS
 10
-185.0
 20
-133.5
 11
-185.0
 21
133.5
  0
LINE
  8
型材断面
  6
CONTINUOUS
 10
195.0
 20
133.5
 11
-185.0
 21
133.5
  0
LINE
  8
型材断面
  6
CONTINUOUS
 10
145.0
 20
-133.5
 11
145.0
 21
-118.5
  0
LINE
  8
型材断面
  6
CONTINUOUS
 10
195.0
 20
-118.5
 11
145.0
 21
-118.5
  0
ENDBLK
  0
BLOCK
  2
*DIM_0002
 70
    65
 10
0.0
 20
0.0
  0
LINE
  8
寸法
  6
BYBLOCK
 62
     0
 10
-78.66511
 20
9.76892
 11
-78.66511
 21
4.551973
  0
LINE
  8
寸法
  6
BYBLOCK
 62
     0
 10
4.668225
 20
9.76892
 11
4.668225
 21
4.551973
  0
LINE
  8
寸法
  6
BYBLOCK
 62
     0
 10
-78.66511
 20
4.551973
 11
4.668225
 21
4.551973
  0
POINT
  8
寸法
 62
     0
 10
-78.66511
 20
4.551973
  0
POINT
  8
寸法
 62
     0
 10
4.668225
 20
4.551973
  0
TEXT
  7
TextStyle03
  8
寸法
  6
CONTINUOUS
 62
     0
 10
-40.28125
 20
4.925
  1
2500
 40
3.0
 72
     5
 11
-33.71875
 21
4.925
  0
ENDBLK
  0
BLOCK
  2
*DIM_0003
 70
    65
 10
0.0
 20
0.0
  0
LINE
  8
寸法
  6
BYBLOCK
 62
     0
 10
22.33489
 20
56.732382
 11
32.059173
 21
56.732382
  0
LINE
  8
寸法
  6
BYBLOCK
 62
     0
 10
24.96502
 20
53.032382
 11
32.059173
 21
53.032382
  0
LINE
  8
寸法
  6
BYBLOCK
 62
     0
 10
32.059173
 20
56.732382
 11
32.059173
 21
53.032382
  0
POINT
  8
寸法
 62
     0
 10
32.059173
 20
56.732382
  0
POINT
  8
寸法
 62
     0
 10
32.059173
 20
53.032382
  0
TEXT
  7
TextStyle03
  8
寸法
  6
CONTINUOUS
 62
     0
 10
31.75
 20
57.7125
  1
111
 40
3.0
 50
90.0
 72
     5
 11
31.75
 21
62.5875
  0
ENDBLK
  0
BLOCK
  2
*DIM_0004
 70
    65
 10
0.0
 20
0.0
  0
LINE
  8
寸法
  6
BYBLOCK
 62
     0
 10
22.33489
 20
13.399048
 11
32.059173
 21
13.399045
  0
LINE
  8
寸法
  6
BYBLOCK
 62
     0
 10
24.96502
 20
17.099048
 11
32.059173
 21
17.099045
  0
LINE
  8
寸法
  6
BYBLOCK
 62
     0
 10
32.059173
 20
13.399045
 11
32.059173
 21
17.099045
  0
POINT
  8
寸法
 62
     0
 10
32.059173
 20
13.399045
  0
POINT
  8
寸法
 62
     0
 10
32.059173
 20
17.099045
  0
TEXT
  7
TextStyle03
  8
寸法
  6
CONTINUOUS
 62
     0
 10
31.725
 20
7.5375
  1
111
 40
3.0
 50
90.0
 72
     5
 11
31.725
 21
12.4125
  0
ENDBLK
  0
BLOCK
  2
*DIM_0005
 70
    65
 10
0.0
 20
0.0
  0
LINE
  8
寸法
  6
BYBLOCK
 62
     0
 10
-98.331778
 20
23.399048
 11
-127.276943
 21
23.399048
  0
LINE
  8
寸法
  6
BYBLOCK
 62
     0
 10
-98.331778
 20
46.732382
 11
-127.276943
 21
46.732382
  0
LINE
  8
寸法
  6
BYBLOCK
 62
     0
 10
-127.276943
 20
23.399048
 11
-127.276943
 21
46.732382
  0
POINT
  8
寸法
 62
     0
 10
-127.276943
 20
23.399048
  0
POINT
  8
寸法
 62
     0
 10
-127.276943
 20
46.732382
  0
TEXT
  7
TextStyle03
  8
寸法
  6
CONTINUOUS
 62
     0
 10
-127.7
 20
32.6125
  1
700
 40
3.0
 50
90.0
 72
     5
 11
-127.7
 21
37.4875
  0
ENDBLK
  0
BLOCK
  2
*DIM_0006
 70
    65
 10
0.0
 20
0.0
  0
LINE
  8
寸法
  6
BYBLOCK
 62
     0
 10
-90.331775
 20
59.73238
 11
-90.331775
 21
88.840452
  0
LINE
  8
寸法
  6
BYBLOCK
 62
     0
 10
-63.66511
 20
59.73238
 11
-63.66511
 21
88.840452
  0
LINE
  8
寸法
  6
BYBLOCK
 62
     0
 10
-90.331775
 20
88.840452
 11
-63.66511
 21
88.840452
  0
POINT
  8
寸法
 62
     0
 10
-90.331775
 20
88.840452
  0
POINT
  8
寸法
 62
     0
 10
-63.66511
 20
88.840452
  0
TEXT
  7
TextStyle03
  8
寸法
  6
CONTINUOUS
 62
     0
 10
-79.4375
 20
89.2
  1
800
 40
3.0
 72
     5
 11
-74.5625
 21
89.2
  0
ENDBLK
  0
BLOCK
  2
*DIM_0007
 70
    65
 10
0.0
 20
0.0
  0
LINE
  8
寸法
  6
BYBLOCK
 62
     0
 10
-36.998442
 20
59.73238
 11
-36.998442
 21
88.840452
  0
LINE
  8
寸法
  6
BYBLOCK
 62
     0
 10
-63.66511
 20
88.840452
 11
-36.998442
 21
88.840452
  0
POINT
  8
寸法
 62
     0
 10
-36.998442
 20
88.840452
  0
TEXT
  7
TextStyle03
  8
寸法
  6
CONTINUOUS
 62
     0
 10
-52.7875
 20
89.2
  1
800
 40
3.0
 72
     5
 11
-47.9125
 21
89.2
  0
ENDBLK
  0
BLOCK
  2
*DIM_0008
 70
    65
 10
0.0
 20
0.0
  0
LINE
  8
寸法
  6
BYBLOCK
 62
     0
 10
-10.331775
 20
59.73238
 11
-10.331775
 21
88.840452
  0
LINE
  8
寸法
  6
BYBLOCK
 62
     0
 10
-36.998442
 20
88.840452
 11
-10.331775
 21
88.840452
  0
POINT
  8
寸法
 62
     0
 10
-10.331775
 20
88.840452
  0
TEXT
  7
TextStyle03
  8
寸法
  6
CONTINUOUS
 62
     0
 10
-26.1125
 20
89.2
  1
800
 40
3.0
 72
     5
 11
-21.2375
 21
89.2
  0
ENDBLK
  0
BLOCK
  2
*DIM_0009
 70
    65
 10
0.0
 20
0.0
  0
LINE
  8
寸法
  6
BYBLOCK
 62
     0
 10
16.33489
 20
59.73238
 11
16.33489
 21
88.840452
  0
LINE
  8
寸法
  6
BYBLOCK
 62
     0
 10
-10.331775
 20
88.840452
 11
16.33489
 21
88.840452
  0
POINT
  8
寸法
 62
     0
 10
16.33489
 20
88.840452
  0
TEXT
  7
TextStyle03
  8
寸法
  6
CONTINUOUS
 62
     0
 10
0.5625
 20
89.2
  1
800
 40
3.0
 72
     5
 11
5.4375
 21
89.2
  0
ENDBLK
  0
BLOCK
  2
*DIM_0010
 70
    65
 10
0.0
 20
0.0
  0
LINE
  8
寸法
  6
CONTINUOUS
 10
51.370968
 20
59.495565
 11
51.370968
 21
56.73238
  0
POINT
  8
寸法
 10
51.370968
 20
59.495565
  0
POINT
  8
寸法
 10
51.370968
 20
56.73238
  0
TEXT
  7
TextStyle03
  8
寸法
  6
CONTINUOUS
 10
52.8
 20
60.54375
  1
82.9
 40
3.0
 50
90.0
 72
     5
 11
52.8
 21
67.10625
  0
ENDBLK
  0
BLOCK
  2
*DIM_0011
 70
    65
 10
0.0
 20
0.0
  0
LINE
  8
寸法
  6
CONTINUOUS
 10
51.370968
 20
13.399048
 11
51.370968
 21
10.63586
  0
POINT
  8
寸法
 10
51.370968
 20
13.399048
  0
POINT
  8
寸法
 10
51.370968
 20
10.63586
  0
TEXT
  7
TextStyle03
  8
寸法
  6
CONTINUOUS
 10
52.8
 20
2.99375
  1
82.9
 40
3.0
 50
90.0
 72
     5
 11
52.8
 21
9.55625
  0
ENDBLK
  0
BLOCK
  2
*DIM_0012
 70
    65
 10
0.0
 20
0.0
  0
LINE
  8
寸法
  6
CONTINUOUS
 10
51.370968
 20
56.73238
 11
51.370968
 21
13.399048
  0
POINT
  8
寸法
 10
51.370968
 20
56.73238
  0
POINT
  8
寸法
 10
51.370968
 20
13.399048
  0
TEXT
  7
TextStyle03
  8
寸法
  6
CONTINUOUS
 10
51.025
 20
24.175
  1
呼称寸法=1300
 40
3.0
 50
90.0
 72
     5
 11
51.025
 21
45.925
  0
ENDBLK
  0
BLOCK
  2
*DIM_0013
 70
    65
 10
0.0
 20
0.0
  0
LINE
  8
寸法
  6
CONTINUOUS
 10
-95.33178
 20
-22.024302
 11
-98.095112
 21
-22.024302
  0
POINT
  8
寸法
 10
-95.33178
 20
-22.024302
  0
POINT
  8
寸法
 10
-98.095112
 20
-22.024302
  0
TEXT
  7
TextStyle03
  8
寸法
  6
CONTINUOUS
 10
-102.68125
 20
-21.125
  1
82.9
 40
3.0
 72
     5
 11
-96.11875
 21
-21.125
  0
ENDBLK
  0
BLOCK
  2
*DIM_0014
 70
    65
 10
0.0
 20
0.0
  0
LINE
  8
寸法
  6
CONTINUOUS
 10
24.098225
 20
-22.024302
 11
21.33489
 21
-22.024302
  0
POINT
  8
寸法
 10
24.098225
 20
-22.024302
  0
POINT
  8
寸法
 10
21.33489
 20
-22.024302
  0
TEXT
  7
TextStyle03
  8
寸法
  6
CONTINUOUS
 10
22.39375
 20
-21.175
  1
82.9
 40
3.0
 72
     5
 11
28.95625
 21
-21.175
  0
ENDBLK
  0
BLOCK
  2
*DIM_0015
 70
    65
 10
0.0
 20
0.0
  0
LINE
  8
寸法
  6
CONTINUOUS
 10
-95.33178
 20
-22.024302
 11
21.334887
 21
-22.024302
  0
POINT
  8
寸法
 10
-95.33178
 20
-22.024302
  0
POINT
  8
寸法
 10
21.334887
 20
-22.024302
  0
TEXT
  7
TextStyle03
  8
寸法
  6
CONTINUOUS
 10
-48.71875
 20
-21.675
  1
呼称寸法　3500
 40
3.0
 72
     5
 11
-25.28125
 21
-21.675
  0
ENDBLK
  0
BLOCK
  2
*GRP_0016
 70
    65
 10
0.0
 20
0.0
  0
LINE
  8
補助線
  6
BYBLOCK
 62
    64
 10
-83.599165
 20
-84.017143
 11
-83.73105
 21
-84.119048
  0
LINE
  8
補助線
  6
BYBLOCK
 62
    64
 10
-83.71606
 20
-84.002153
 11
-83.614155
 21
-84.134037
  0
LINE
  8
補助線
  6
BYBLOCK
 62
    64
 10
-72.18854
 20
-75.200453
 11
-72.320425
 21
-75.302355
  0
LINE
  8
補助線
  6
BYBLOCK
 62
    64
 10
-72.305435
 20
-75.18546
 11
-72.203532
 21
-75.317345
  0
LINE
  8
補助線
  6
BYBLOCK
 62
    64
 10
-60.909797
 20
-66.485665
 11
-60.777917
 21
-66.38376
  0
LINE
  8
補助線
  6
BYBLOCK
 62
    64
 10
-60.89481
 20
-66.368768
 11
-60.792907
 21
-66.500655
  0
LINE
  8
型材断面
  6
CONTINUOUS
 10
-84.438393
 20
-83.61248
 11
-84.528335
 21
-84.313845
  0
LINE
  8
型材断面
  6
CONTINUOUS
 10
-84.528335
 20
-84.313845
 11
-84.12072
 21
-84.841382
  0
LINE
  8
型材断面
  6
CONTINUOUS
 10
-84.12072
 20
-84.841382
 11
-83.419358
 21
-84.931322
  0
LINE
  8
型材断面
  6
CONTINUOUS
 10
-61.089607
 20
-65.571485
 11
-60.388245
 21
-65.661427
  0
LINE
  8
型材断面
  6
CONTINUOUS
 10
-60.388245
 20
-65.661427
 11
-59.98063
 21
-66.188965
  0
LINE
  8
型材断面
  6
CONTINUOUS
 10
-59.98063
 20
-66.188965
 11
-60.070572
 21
-66.89033
  0
LINE
  8
型材断面
  6
CONTINUOUS
 10
-83.419358
 20
-84.931322
 11
-60.070572
 21
-66.89033
  0
LINE
  8
型材断面
  6
CONTINUOUS
 10
-84.438393
 20
-83.61248
 11
-61.089607
 21
-65.571485
  0
CIRCLE
  8
ボルト／ビス
  6
CONTINUOUS
 10
-83.665107
 20
-84.068095
 40
0.250185
  0
CIRCLE
  8
ボルト／ビス
  6
CONTINUOUS
 10
-83.665107
 20
-84.068095
 40
0.301025
  0
LINE
  8
ボルト／ビス
  6
CONTINUOUS
 62
    64
 10
-83.913043
 20
-84.101585
 11
-83.818077
 21
-83.870122
  0
LINE
  8
ボルト／ビス
  6
CONTINUOUS
 62
    64
 10
-83.570143
 20
-83.836632
 11
-83.818077
 21
-83.870122
  0
LINE
  8
ボルト／ビス
  6
CONTINUOUS
 62
    64
 10
-83.760073
 20
-84.299557
 11
-83.512137
 21
-84.266068
  0
LINE
  8
ボルト／ビス
  6
CONTINUOUS
 62
    64
 10
-83.417173
 20
-84.034605
 11
-83.512137
 21
-84.266068
  0
LINE
  8
ボルト／ビス
  6
CONTINUOUS
 62
    64
 10
-83.913043
 20
-84.101585
 11
-83.760073
 21
-84.299557
  0
LINE
  8
ボルト／ビス
  6
CONTINUOUS
 62
    64
 10
-83.570143
 20
-83.836632
 11
-83.417173
 21
-84.034605
  0
CIRCLE
  8
ボルト／ビス
  6
CONTINUOUS
 62
    64
 10
-83.665107
 20
-84.068095
 40
0.216668
  0
CIRCLE
  8
ボルト／ビス
  6
CONTINUOUS
 10
-72.254482
 20
-75.251405
 40
0.250185
  0
CIRCLE
  8
ボルト／ビス
  6
CONTINUOUS
 10
-72.254482
 20
-75.251405
 40
0.301025
  0
LINE
  8
ボルト／ビス
  6
CONTINUOUS
 62
    64
 10
-72.502417
 20
-75.284893
 11
-72.407453
 21
-75.053432
  0
LINE
  8
ボルト／ビス
  6
CONTINUOUS
 62
    64
 10
-72.159518
 20
-75.019942
 11
-72.407453
 21
-75.053432
  0
LINE
  8
ボルト／ビス
  6
CONTINUOUS
 62
    64
 10
-72.34945
 20
-75.482865
 11
-72.101515
 21
-75.449375
  0
LINE
  8
ボルト／ビス
  6
CONTINUOUS
 62
    64
 10
-72.006548
 20
-75.217915
 11
-72.101515
 21
-75.449375
  0
LINE
  8
ボルト／ビス
  6
CONTINUOUS
 62
    64
 10
-72.502417
 20
-75.284893
 11
-72.34945
 21
-75.482865
  0
LINE
  8
ボルト／ビス
  6
CONTINUOUS
 62
    64
 10
-72.159518
 20
-75.019942
 11
-72.006548
 21
-75.217915
  0
CIRCLE
  8
ボルト／ビス
  6
CONTINUOUS
 62
    64
 10
-72.254482
 20
-75.251405
 40
0.216668
  0
CIRCLE
  8
ボルト／ビス
  6
CONTINUOUS
 10
-60.84386
 20
-66.434713
 40
0.250185
  0
CIRCLE
  8
ボルト／ビス
  6
CONTINUOUS
 10
-60.84386
 20
-66.434713
 40
0.301025
  0
LINE
  8
ボルト／ビス
  6
CONTINUOUS
 62
    64
 10
-60.748892
 20
-66.20325
 11
-60.996825
 21
-66.23674
  0
LINE
  8
ボルト／ビス
  6
CONTINUOUS
 62
    64
 10
-61.09179
 20
-66.468203
 11
-60.996825
 21
-66.23674
  0
LINE
  8
ボルト／ビス
  6
CONTINUOUS
 62
    64
 10
-60.595925
 20
-66.401223
 11
-60.69089
 21
-66.632685
  0
LINE
  8
ボルト／ビス
  6
CONTINUOUS
 62
    64
 10
-60.938825
 20
-66.666175
 11
-60.69089
 21
-66.632685
  0
LINE
  8
ボルト／ビス
  6
CONTINUOUS
 62
    64
 10
-60.748892
 20
-66.20325
 11
-60.595925
 21
-66.401223
  0
LINE
  8
ボルト／ビス
  6
CONTINUOUS
 62
    64
 10
-61.09179
 20
-66.468203
 11
-60.938825
 21
-66.666175
  0
CIRCLE
  8
ボルト／ビス
  6
CONTINUOUS
 62
    64
 10
-60.84386
 20
-66.434713
 40
0.216668
  0
ENDBLK
  0
BLOCK
  2
*GRP_0017
 70
    65
 10
0.0
 20
0.0
  0
LINE
  8
補助線
  6
BYBLOCK
 62
    64
 10
-60.9098
 20
-84.017143
 11
-60.777915
 21
-84.119048
  0
LINE
  8
補助線
  6
BYBLOCK
 62
    64
 10
-60.792905
 20
-84.002153
 11
-60.89481
 21
-84.134037
  0
LINE
  8
補助線
  6
BYBLOCK
 62
    64
 10
-72.320425
 20
-75.200453
 11
-72.18854
 21
-75.302355
  0
LINE
  8
補助線
  6
BYBLOCK
 62
    64
 10
-72.20353
 20
-75.18546
 11
-72.305433
 21
-75.317345
  0
LINE
  8
補助線
  6
BYBLOCK
 62
    64
 10
-83.599168
 20
-66.485665
 11
-83.731048
 21
-66.38376
  0
LINE
  8
補助線
  6
BYBLOCK
 62
    64
 10
-83.614155
 20
-66.368768
 11
-83.716057
 21
-66.500655
  0
LINE
  8
型材断面
  6
CONTINUOUS
 10
-60.070572
 20
-83.61248
 11
-59.98063
 21
-84.313845
  0
LINE
  8
型材断面
  6
CONTINUOUS
 10
-59.98063
 20
-84.313845
 11
-60.388245
 21
-84.841382
  0
LINE
  8
型材断面
  6
CONTINUOUS
 10
-60.388245
 20
-84.841382
 11
-61.089607
 21
-84.931322
  0
LINE
  8
型材断面
  6
CONTINUOUS
 10
-83.419358
 20
-65.571485
 11
-84.12072
 21
-65.661427
  0
LINE
  8
型材断面
  6
CONTINUOUS
 10
-84.12072
 20
-65.661427
 11
-84.528335
 21
-66.188965
  0
LINE
  8
型材断面
  6
CONTINUOUS
 10
-84.528335
 20
-66.188965
 11
-84.438393
 21
-66.89033
  0
LINE
  8
型材断面
  6
CONTINUOUS
 10
-61.089607
 20
-84.931322
 11
-84.438393
 21
-66.89033
  0
LINE
  8
型材断面
  6
CONTINUOUS
 10
-60.070572
 20
-83.61248
 11
-83.419358
 21
-65.571485
  0
CIRCLE
  8
ボルト／ビス
  6
CONTINUOUS
 10
-60.843858
 20
-84.068095
 40
0.250185
  0
CIRCLE
  8
ボルト／ビス
  6
CONTINUOUS
 10
-60.843858
 20
-84.068095
 40
0.301025
  0
LINE
  8
ボルト／ビス
  6
CONTINUOUS
 62
    64
 10
-60.595922
 20
-84.101585
 11
-60.690888
 21
-83.870122
  0
LINE
  8
ボルト／ビス
  6
CONTINUOUS
 62
    64
 10
-60.938822
 20
-83.836632
 11
-60.690888
 21
-83.870122
  0
LINE
  8
ボルト／ビス
  6
CONTINUOUS
 62
    64
 10
-60.748892
 20
-84.299557
 11
-60.996828
 21
-84.266068
  0
LINE
  8
ボルト／ビス
  6
CONTINUOUS
 62
    64
 10
-61.091792
 20
-84.034605
 11
-60.996828
 21
-84.266068
  0
LINE
  8
ボルト／ビス
  6
CONTINUOUS
 62
    64
 10
-60.595922
 20
-84.101585
 11
-60.748892
 21
-84.299557
  0
LINE
  8
ボルト／ビス
  6
CONTINUOUS
 62
    64
 10
-60.938822
 20
-83.836632
 11
-61.091792
 21
-84.034605
  0
CIRCLE
  8
ボルト／ビス
  6
CONTINUOUS
 62
    64
 10
-60.843858
 20
-84.068095
 40
0.216668
  0
CIRCLE
  8
ボルト／ビス
  6
CONTINUOUS
 10
-72.254482
 20
-75.251405
 40
0.250185
  0
CIRCLE
  8
ボルト／ビス
  6
CONTINUOUS
 10
-72.254482
 20
-75.251405
 40
0.301025
  0
LINE
  8
ボルト／ビス
  6
CONTINUOUS
 62
    64
 10
-72.006548
 20
-75.284893
 11
-72.101512
 21
-75.053432
  0
LINE
  8
ボルト／ビス
  6
CONTINUOUS
 62
    64
 10
-72.349448
 20
-75.019942
 11
-72.101512
 21
-75.053432
  0
LINE
  8
ボルト／ビス
  6
CONTINUOUS
 62
    64
 10
-72.159515
 20
-75.482865
 11
-72.40745
 21
-75.449375
  0
LINE
  8
ボルト／ビス
  6
CONTINUOUS
 62
    64
 10
-72.502417
 20
-75.217915
 11
-72.40745
 21
-75.449375
  0
LINE
  8
ボルト／ビス
  6
CONTINUOUS
 62
    64
 10
-72.006548
 20
-75.284893
 11
-72.159515
 21
-75.482865
  0
LINE
  8
ボルト／ビス
  6
CONTINUOUS
 62
    64
 10
-72.349448
 20
-75.019942
 11
-72.502417
 21
-75.217915
  0
CIRCLE
  8
ボルト／ビス
  6
CONTINUOUS
 62
    64
 10
-72.254482
 20
-75.251405
 40
0.216668
  0
CIRCLE
  8
ボルト／ビス
  6
CONTINUOUS
 10
-83.665105
 20
-66.434713
 40
0.250185
  0
CIRCLE
  8
ボルト／ビス
  6
CONTINUOUS
 10
-83.665105
 20
-66.434713
 40
0.301025
  0
LINE
  8
ボルト／ビス
  6
CONTINUOUS
 62
    64
 10
-83.760073
 20
-66.20325
 11
-83.51214
 21
-66.23674
  0
LINE
  8
ボルト／ビス
  6
CONTINUOUS
 62
    64
 10
-83.417175
 20
-66.468203
 11
-83.51214
 21
-66.23674
  0
LINE
  8
ボルト／ビス
  6
CONTINUOUS
 62
    64
 10
-83.91304
 20
-66.401223
 11
-83.818075
 21
-66.632685
  0
LINE
  8
ボルト／ビス
  6
CONTINUOUS
 62
    64
 10
-83.57014
 20
-66.666175
 11
-83.818075
 21
-66.632685
  0
LINE
  8
ボルト／ビス
  6
CONTINUOUS
 62
    64
 10
-83.760073
 20
-66.20325
 11
-83.91304
 21
-66.401223
  0
LINE
  8
ボルト／ビス
  6
CONTINUOUS
 62
    64
 10
-83.417175
 20
-66.468203
 11
-83.57014
 21
-66.666175
  0
CIRCLE
  8
ボルト／ビス
  6
CONTINUOUS
 62
    64
 10
-83.665105
 20
-66.434713
 40
0.216668
  0
ENDBLK
  0
BLOCK
  2
*GRP_0018
 70
    65
 10
0.0
 20
0.0
  0
LINE
  8
補助線
  6
BYBLOCK
 62
    64
 10
9.602285
 20
-84.017143
 11
9.73417
 21
-84.119048
  0
LINE
  8
補助線
  6
BYBLOCK
 62
    64
 10
9.71918
 20
-84.002153
 11
9.617275
 21
-84.134037
  0
LINE
  8
補助線
  6
BYBLOCK
 62
    64
 10
-1.80834
 20
-75.200453
 11
-1.676455
 21
-75.302355
  0
LINE
  8
補助線
  6
BYBLOCK
 62
    64
 10
-1.691445
 20
-75.18546
 11
-1.793347
 21
-75.317345
  0
LINE
  8
補助線
  6
BYBLOCK
 62
    64
 10
-13.087082
 20
-66.485665
 11
-13.218962
 21
-66.38376
  0
LINE
  8
補助線
  6
BYBLOCK
 62
    64
 10
-13.10207
 20
-66.368768
 11
-13.203972
 21
-66.500655
  0
LINE
  8
型材断面
  6
CONTINUOUS
 10
10.441512
 20
-83.61248
 11
10.531455
 21
-84.313845
  0
LINE
  8
型材断面
  6
CONTINUOUS
 10
10.531455
 20
-84.313845
 11
10.12384
 21
-84.841382
  0
LINE
  8
型材断面
  6
CONTINUOUS
 10
10.12384
 20
-84.841382
 11
9.422478
 21
-84.931322
  0
LINE
  8
型材断面
  6
CONTINUOUS
 10
-12.907272
 20
-65.571485
 11
-13.608635
 21
-65.661427
  0
LINE
  8
型材断面
  6
CONTINUOUS
 10
-13.608635
 20
-65.661427
 11
-14.01625
 21
-66.188965
  0
LINE
  8
型材断面
  6
CONTINUOUS
 10
-14.01625
 20
-66.188965
 11
-13.926307
 21
-66.89033
  0
LINE
  8
型材断面
  6
CONTINUOUS
 10
9.422478
 20
-84.931322
 11
-13.926307
 21
-66.89033
  0
LINE
  8
型材断面
  6
CONTINUOUS
 10
10.441512
 20
-83.61248
 11
-12.907272
 21
-65.571485
  0
CIRCLE
  8
ボルト／ビス
  6
CONTINUOUS
 10
9.668227
 20
-84.068095
 40
0.250185
  0
CIRCLE
  8
ボルト／ビス
  6
CONTINUOUS
 10
9.668227
 20
-84.068095
 40
0.301025
  0
LINE
  8
ボルト／ビス
  6
CONTINUOUS
 62
    64
 10
9.916163
 20
-84.101585
 11
9.821198
 21
-83.870122
  0
LINE
  8
ボルト／ビス
  6
CONTINUOUS
 62
    64
 10
9.573263
 20
-83.836632
 11
9.821198
 21
-83.870122
  0
LINE
  8
ボルト／ビス
  6
CONTINUOUS
 62
    64
 10
9.763192
 20
-84.299557
 11
9.515258
 21
-84.266068
  0
LINE
  8
ボルト／ビス
  6
CONTINUOUS
 62
    64
 10
9.420292
 20
-84.034605
 11
9.515258
 21
-84.266068
  0
LINE
  8
ボルト／ビス
  6
CONTINUOUS
 62
    64
 10
9.916163
 20
-84.101585
 11
9.763192
 21
-84.299557
  0
LINE
  8
ボルト／ビス
  6
CONTINUOUS
 62
    64
 10
9.573263
 20
-83.836632
 11
9.420292
 21
-84.034605
  0
CIRCLE
  8
ボルト／ビス
  6
CONTINUOUS
 62
    64
 10
9.668227
 20
-84.068095
 40
0.216668
  0
CIRCLE
  8
ボルト／ビス
  6
CONTINUOUS
 10
-1.742397
 20
-75.251405
 40
0.250185
  0
CIRCLE
  8
ボルト／ビス
  6
CONTINUOUS
 10
-1.742397
 20
-75.251405
 40
0.301025
  0
LINE
  8
ボルト／ビス
  6
CONTINUOUS
 62
    64
 10
-1.494463
 20
-75.284893
 11
-1.589427
 21
-75.053432
  0
LINE
  8
ボルト／ビス
  6
CONTINUOUS
 62
    64
 10
-1.837363
 20
-75.019942
 11
-1.589427
 21
-75.053432
  0
LINE
  8
ボルト／ビス
  6
CONTINUOUS
 62
    64
 10
-1.64743
 20
-75.482865
 11
-1.895365
 21
-75.449375
  0
LINE
  8
ボルト／ビス
  6
CONTINUOUS
 62
    64
 10
-1.990333
 20
-75.217915
 11
-1.895365
 21
-75.449375
  0
LINE
  8
ボルト／ビス
  6
CONTINUOUS
 62
    64
 10
-1.494463
 20
-75.284893
 11
-1.64743
 21
-75.482865
  0
LINE
  8
ボルト／ビス
  6
CONTINUOUS
 62
    64
 10
-1.837363
 20
-75.019942
 11
-1.990333
 21
-75.217915
  0
CIRCLE
  8
ボルト／ビス
  6
CONTINUOUS
 62
    64
 10
-1.742397
 20
-75.251405
 40
0.216668
  0
CIRCLE
  8
ボルト／ビス
  6
CONTINUOUS
 10
-13.15302
 20
-66.434713
 40
0.250185
  0
CIRCLE
  8
ボルト／ビス
  6
CONTINUOUS
 10
-13.15302
 20
-66.434713
 40
0.301025
  0
LINE
  8
ボルト／ビス
  6
CONTINUOUS
 62
    64
 10
-13.247987
 20
-66.20325
 11
-13.000055
 21
-66.23674
  0
LINE
  8
ボルト／ビス
  6
CONTINUOUS
 62
    64
 10
-12.90509
 20
-66.468203
 11
-13.000055
 21
-66.23674
  0
LINE
  8
ボルト／ビス
  6
CONTINUOUS
 62
    64
 10
-13.400955
 20
-66.401223
 11
-13.30599
 21
-66.632685
  0
LINE
  8
ボルト／ビス
  6
CONTINUOUS
 62
    64
 10
-13.058055
 20
-66.666175
 11
-13.30599
 21
-66.632685
  0
LINE
  8
ボルト／ビス
  6
CONTINUOUS
 62
    64
 10
-13.247987
 20
-66.20325
 11
-13.400955
 21
-66.401223
  0
LINE
  8
ボルト／ビス
  6
CONTINUOUS
 62
    64
 10
-12.90509
 20
-66.468203
 11
-13.058055
 21
-66.666175
  0
CIRCLE
  8
ボルト／ビス
  6
CONTINUOUS
 62
    64
 10
-13.15302
 20
-66.434713
 40
0.216668
  0
ENDBLK
  0
BLOCK
  2
*GRP_0019
 70
    65
 10
0.0
 20
0.0
  0
LINE
  8
補助線
  6
BYBLOCK
 62
    64
 10
-13.08708
 20
-84.017143
 11
-13.218965
 21
-84.119048
  0
LINE
  8
補助線
  6
BYBLOCK
 62
    64
 10
-13.203975
 20
-84.002153
 11
-13.10207
 21
-84.134037
  0
LINE
  8
補助線
  6
BYBLOCK
 62
    64
 10
-1.676455
 20
-75.200453
 11
-1.80834
 21
-75.302355
  0
LINE
  8
補助線
  6
BYBLOCK
 62
    64
 10
-1.79335
 20
-75.18546
 11
-1.691447
 21
-75.317345
  0
LINE
  8
補助線
  6
BYBLOCK
 62
    64
 10
9.602288
 20
-66.485665
 11
9.734167
 21
-66.38376
  0
LINE
  8
補助線
  6
BYBLOCK
 62
    64
 10
9.617275
 20
-66.368768
 11
9.719177
 21
-66.500655
  0
LINE
  8
型材断面
  6
CONTINUOUS
 10
-13.926307
 20
-83.61248
 11
-14.01625
 21
-84.313845
  0
LINE
  8
型材断面
  6
CONTINUOUS
 10
-14.01625
 20
-84.313845
 11
-13.608635
 21
-84.841382
  0
LINE
  8
型材断面
  6
CONTINUOUS
 10
-13.608635
 20
-84.841382
 11
-12.907272
 21
-84.931322
  0
LINE
  8
型材断面
  6
CONTINUOUS
 10
9.422478
 20
-65.571485
 11
10.12384
 21
-65.661427
  0
LINE
  8
型材断面
  6
CONTINUOUS
 10
10.12384
 20
-65.661427
 11
10.531455
 21
-66.188965
  0
LINE
  8
型材断面
  6
CONTINUOUS
 10
10.531455
 20
-66.188965
 11
10.441512
 21
-66.89033
  0
LINE
  8
型材断面
  6
CONTINUOUS
 10
-12.907272
 20
-84.931322
 11
10.441512
 21
-66.89033
  0
LINE
  8
型材断面
  6
CONTINUOUS
 10
-13.926307
 20
-83.61248
 11
9.422478
 21
-65.571485
  0
CIRCLE
  8
ボルト／ビス
  6
CONTINUOUS
 10
-13.153023
 20
-84.068095
 40
0.250185
  0
CIRCLE
  8
ボルト／ビス
  6
CONTINUOUS
 10
-13.153023
 20
-84.068095
 40
0.301025
  0
LINE
  8
ボルト／ビス
  6
CONTINUOUS
 62
    64
 10
-13.400958
 20
-84.101585
 11
-13.305992
 21
-83.870122
  0
LINE
  8
ボルト／ビス
  6
CONTINUOUS
 62
    64
 10
-13.058057
 20
-83.836632
 11
-13.305992
 21
-83.870122
  0
LINE
  8
ボルト／ビス
  6
CONTINUOUS
 62
    64
 10
-13.247987
 20
-84.299557
 11
-13.000053
 21
-84.266068
  0
LINE
  8
ボルト／ビス
  6
CONTINUOUS
 62
    64
 10
-12.905087
 20
-84.034605
 11
-13.000053
 21
-84.266068
  0
LINE
  8
ボルト／ビス
  6
CONTINUOUS
 62
    64
 10
-13.400958
 20
-84.101585
 11
-13.247987
 21
-84.299557
  0
LINE
  8
ボルト／ビス
  6
CONTINUOUS
 62
    64
 10
-13.058057
 20
-83.836632
 11
-12.905087
 21
-84.034605
  0
CIRCLE
  8
ボルト／ビス
  6
CONTINUOUS
 62
    64
 10
-13.153023
 20
-84.068095
 40
0.216668
  0
CIRCLE
  8
ボルト／ビス
  6
CONTINUOUS
 10
-1.742397
 20
-75.251405
 40
0.250185
  0
CIRCLE
  8
ボルト／ビス
  6
CONTINUOUS
 10
-1.742397
 20
-75.251405
 40
0.301025
  0
LINE
  8
ボルト／ビス
  6
CONTINUOUS
 62
    64
 10
-1.990333
 20
-75.284893
 11
-1.895367
 21
-75.053432
  0
LINE
  8
ボルト／ビス
  6
CONTINUOUS
 62
    64
 10
-1.647433
 20
-75.019942
 11
-1.895367
 21
-75.053432
  0
LINE
  8
ボルト／ビス
  6
CONTINUOUS
 62
    64
 10
-1.837365
 20
-75.482865
 11
-1.58943
 21
-75.449375
  0
LINE
  8
ボルト／ビス
  6
CONTINUOUS
 62
    64
 10
-1.494463
 20
-75.217915
 11
-1.58943
 21
-75.449375
  0
LINE
  8
ボルト／ビス
  6
CONTINUOUS
 62
    64
 10
-1.990333
 20
-75.284893
 11
-1.837365
 21
-75.482865
  0
LINE
  8
ボルト／ビス
  6
CONTINUOUS
 62
    64
 10
-1.647433
 20
-75.019942
 11
-1.494463
 21
-75.217915
  0
CIRCLE
  8
ボルト／ビス
  6
CONTINUOUS
 62
    64
 10
-1.742397
 20
-75.251405
 40
0.216668
  0
CIRCLE
  8
ボルト／ビス
  6
CONTINUOUS
 10
9.668225
 20
-66.434713
 40
0.250185
  0
CIRCLE
  8
ボルト／ビス
  6
CONTINUOUS
 10
9.668225
 20
-66.434713
 40
0.301025
  0
LINE
  8
ボルト／ビス
  6
CONTINUOUS
 62
    64
 10
9.763192
 20
-66.20325
 11
9.51526
 21
-66.23674
  0
LINE
  8
ボルト／ビス
  6
CONTINUOUS
 62
    64
 10
9.420295
 20
-66.468203
 11
9.51526
 21
-66.23674
  0
LINE
  8
ボルト／ビス
  6
CONTINUOUS
 62
    64
 10
9.91616
 20
-66.401223
 11
9.821195
 21
-66.632685
  0
LINE
  8
ボルト／ビス
  6
CONTINUOUS
 62
    64
 10
9.57326
 20
-66.666175
 11
9.821195
 21
-66.632685
  0
LINE
  8
ボルト／ビス
  6
CONTINUOUS
 62
    64
 10
9.763192
 20
-66.20325
 11
9.91616
 21
-66.401223
  0
LINE
  8
ボルト／ビス
  6
CONTINUOUS
 62
    64
 10
9.420295
 20
-66.468203
 11
9.57326
 21
-66.666175
  0
CIRCLE
  8
ボルト／ビス
  6
CONTINUOUS
 62
    64
 10
9.668225
 20
-66.434713
 40
0.216668
  0
ENDBLK
  0
BLOCK
  2
*DIM_0020
 70
    65
 10
0.0
 20
0.0
  0
LINE
  8
寸法
  6
CONTINUOUS
 10
116.421445
 20
-40.431
 11
78.321445
 21
-40.431
  0
POINT
  8
寸法
 10
116.421445
 20
-40.431
  0
POINT
  8
寸法
 10
78.321445
 20
-40.431
  0
TEXT
  7
TextStyle03
  8
寸法
  6
CONTINUOUS
 10
94.06875
 20
-40.1
  1
1143
 40
3.0
 72
     5
 11
100.63125
 21
-40.1
  0
ENDBLK
  0
BLOCK
  2
*DIM_0021
 70
    65
 10
0.0
 20
0.0
  0
LINE
  8
寸法
  6
BYBLOCK
 62
     0
 10
40.511713
 20
-78.49138
 11
40.511713
 21
-63.49138
  0
POINT
  8
寸法
 62
     0
 10
40.511713
 20
-78.49138
  0
POINT
  8
寸法
 62
     0
 10
40.511713
 20
-63.49138
  0
TEXT
  7
TextStyle03
  8
寸法
  6
CONTINUOUS
 62
     0
 10
39.725
 20
-60.69375
  1
上昇410以上
 40
3.0
 50
90.0
 72
     5
 11
39.725
 21
-42.50625
  0
ENDBLK
  0
BLOCK
  2
*DIM_0022
 70
    65
 10
0.0
 20
0.0
  0
LINE
  8
寸法
  6
BYBLOCK
 62
     0
 10
106.268032
 20
65.733497
 11
91.268032
 21
65.733497
  0
POINT
  8
寸法
 62
     0
 10
106.268032
 20
65.733497
  0
POINT
  8
寸法
 62
     0
 10
91.268032
 20
65.733497
  0
TEXT
  7
TextStyle03
  8
寸法
  6
CONTINUOUS
 62
     0
 10
70.30625
 20
64.575
  1
上昇410以上
 40
3.0
 72
     5
 11
88.49375
 21
64.575
  0
ENDBLK
  0
BLOCK
  2
*DIM_0023
 70
    65
 10
0.0
 20
0.0
  0
LINE
  8
寸法
  6
CONTINUOUS
 10
121.421445
 20
-49.867045
 11
131.732205
 21
-49.867045
  0
LINE
  8
寸法
  6
CONTINUOUS
 10
121.421445
 20
-93.20038
 11
131.732205
 21
-93.20038
  0
LINE
  8
寸法
  6
CONTINUOUS
 10
131.732205
 20
-49.867045
 11
131.732205
 21
-93.20038
  0
POINT
  8
寸法
 10
131.732205
 20
-49.867045
  0
POINT
  8
寸法
 10
131.732205
 20
-93.20038
  0
TEXT
  7
TextStyle03
  8
寸法
  6
CONTINUOUS
 10
131.35
 20
-74.83125
  1
1300
 40
3.0
 50
90.0
 72
     5
 11
131.35
 21
-68.26875
  0
ENDBLK
  0
BLOCK
  2
*DIM_0024
 70
    65
 10
0.0
 20
0.0
  0
LINE
  8
寸法
  6
CONTINUOUS
 10
106.268032
 20
61.73238
 11
106.268032
 21
65.733497
  0
LINE
  8
寸法
  6
CONTINUOUS
 10
114.384585
 20
61.73238
 11
114.384585
 21
65.733497
  0
LINE
  8
寸法
  6
CONTINUOUS
 10
106.268032
 20
65.733497
 11
114.384585
 21
65.733497
  0
POINT
  8
寸法
 10
106.268032
 20
65.733497
  0
POINT
  8
寸法
 10
114.384585
 20
65.733497
  0
TEXT
  7
TextStyle03
  8
寸法
  6
CONTINUOUS
 10
106.225
 20
66.075
  1
243.5
 40
3.0
 72
     5
 11
114.475
 21
66.075
  0
ENDBLK
  0
BLOCK
  2
*DIM_0025
 70
    65
 10
0.0
 20
0.0
  0
LINE
  8
寸法
  6
CONTINUOUS
 10
28.010403
 20
-78.49138
 11
40.511713
 21
-78.49138
  0
LINE
  8
寸法
  6
CONTINUOUS
 10
29.098228
 20
-86.607932
 11
40.511713
 21
-86.607932
  0
LINE
  8
寸法
  6
CONTINUOUS
 10
40.511713
 20
-78.49138
 11
40.511713
 21
-86.607932
  0
POINT
  8
寸法
 10
40.511713
 20
-78.49138
  0
POINT
  8
寸法
 10
40.511713
 20
-86.607932
  0
TEXT
  7
TextStyle03
  8
寸法
  6
CONTINUOUS
 10
43.55
 20
-86.675
  1
243.5
 40
3.0
 50
90.0
 72
     5
 11
43.55
 21
-78.425
  0
ENDBLK
  0
ENDSEC
  0
SECTION
  2
ENTITIES
  0
POLYLINE
  8
通り芯
  6
CONTINUOUS
 66
     1
 70
     1
  0
VERTEX
  8
通り芯
 10
-210.0
 20
-148.5
  0
VERTEX
  8
通り芯
 10
210.0
 20
-148.5
  0
VERTEX
  8
通り芯
 10
210.0
 20
148.5
  0
VERTEX
  8
通り芯
 10
-210.0
 20
148.5
  0
SEQEND
  0
INSERT
  2
*GRP_0001
  8
型材断面
  6
CONTINUOUS
 10
0.0
 20
0.0
  0
LINE
  8
型材断面
  6
DASHDOT
 10
21.33489
 20
-87.251428
 11
21.33489
 21
56.73238
  0
LINE
  8
型材断面
  6
DASHDOT
 10
-36.998442
 20
-87.251428
 11
-36.998442
 21
56.73238
  0
LINE
  8
型材断面
  6
DASHDOT
 10
-95.331778
 20
-87.251428
 11
-95.331778
 21
56.73238
  0
LINE
  8
型材断面
  6
DASHDOT
 10
119.011652
 20
13.399048
 11
-95.331778
 21
13.399048
  0
LINE
  8
型材断面
  6
DASHDOT
 10
119.011652
 20
35.065715
 11
-95.331778
 21
35.065715
  0
LINE
  8
型材断面
  6
DASHDOT
 10
119.011652
 20
56.73238
 11
-95.331778
 21
56.73238
  0
POLYLINE
  8
型材断面
  6
CONTINUOUS
 66
     1
 70
     1
  0
VERTEX
  8
型材断面
 10
-27.464395
 20
66.508305
  0
VERTEX
  8
型材断面
 10
-46.236325
 20
66.508305
  0
VERTEX
  8
型材断面
 10
-46.236325
 20
71.245147
  0
VERTEX
  8
型材断面
 10
-27.464395
 20
71.245147
  0
SEQEND
  0
POLYLINE
  8
型材断面
  6
CONTINUOUS
 66
     1
 70
     1
  0
VERTEX
  8
型材断面
 10
-27.464395
 20
3.623125
  0
VERTEX
  8
型材断面
 10
-46.236325
 20
3.623125
  0
VERTEX
  8
型材断面
 10
-46.236325
 20
-1.113717
  0
VERTEX
  8
型材断面
 10
-27.464395
 20
-1.113717
  0
SEQEND
  0
LINE
  8
型材断面
  6
CONTINUOUS
 10
-136.183985
 20
94.709852
 11
-135.58793
 21
92.119345
  0
LINE
  8
型材断面
  6
CONTINUOUS
 10
-136.183985
 20
94.709852
 11
-136.780043
 21
92.119345
  0
LINE
  8
型材断面
  6
CONTINUOUS
 10
-136.780043
 20
92.119345
 11
-135.58793
 21
92.119345
  0
LINE
  8
型材断面
  6
CONTINUOUS
 10
-142.206573
 20
88.840452
 11
-95.964795
 21
88.840452
  0
LINE
  8
型材断面
  6
CONTINUOUS
 10
-136.183985
 20
101.239727
 11
-137.679615
 21
98.64922
  0
LINE
  8
型材断面
  6
CONTINUOUS
 10
-136.183985
 20
101.239727
 11
-134.688355
 21
98.64922
  0
LINE
  8
型材断面
  6
CONTINUOUS
 10
-134.688355
 20
98.64922
 11
-137.679615
 21
98.64922
  0
LINE
  8
型材断面
  6
CONTINUOUS
 10
-142.206573
 20
97.710625
 11
-95.964795
 21
97.710625
  0
LINE
  8
型材断面
  6
CONTINUOUS
 10
-142.206573
 20
83.05242
 11
-95.964795
 21
83.05242
  0
LINE
  8
型材断面
  6
CONTINUOUS
 10
-142.206573
 20
77.264387
 11
-95.964795
 21
77.264387
  0
INSERT
  2
*GRP_0016
  8
型材断面
  6
CONTINUOUS
 10
0.0
 20
0.0
  0
INSERT
  2
*GRP_0017
  8
型材断面
  6
CONTINUOUS
 10
0.0
 20
0.0
  0
INSERT
  2
*GRP_0018
  8
型材断面
  6
CONTINUOUS
 10
0.0
 20
0.0
  0
INSERT
  2
*GRP_0019
  8
型材断面
  6
CONTINUOUS
 10
0.0
 20
0.0
  0
LINE
  8
型材断面
  6
CONTINUOUS
 10
-98.095112
 20
10.63586
 11
24.098225
 21
10.63586
  0
LINE
  8
型材断面
  6
CONTINUOUS
 10
-98.095112
 20
59.495565
 11
24.098225
 21
59.495565
  0
LINE
  8
型材断面
  6
CONTINUOUS
 10
-98.095112
 20
35.065712
 11
-100.68562
 21
36.561342
  0
LINE
  8
型材断面
  6
CONTINUOUS
 10
-98.095112
 20
35.065712
 11
-100.68562
 21
33.570082
  0
LINE
  8
型材断面
  6
CONTINUOUS
 10
-100.68562
 20
33.570082
 11
-100.68562
 21
36.561342
  0
LINE
  8
型材断面
  6
CONTINUOUS
 10
-98.09511
 20
53.03238
 11
-100.68562
 21
52.436327
  0
LINE
  8
型材断面
  6
CONTINUOUS
 10
-98.09511
 20
53.03238
 11
-100.685617
 21
53.62844
  0
LINE
  8
型材断面
  6
CONTINUOUS
 10
-100.685617
 20
53.62844
 11
-100.68562
 21
52.436327
  0
LINE
  8
型材断面
  6
CONTINUOUS
 10
-98.09511
 20
17.099045
 11
-100.68562
 21
17.695097
  0
LINE
  8
型材断面
  6
CONTINUOUS
 10
-98.09511
 20
17.099045
 11
-100.685617
 21
16.502985
  0
LINE
  8
型材断面
  6
CONTINUOUS
 10
-100.685617
 20
16.502985
 11
-100.68562
 21
17.695097
  0
LINE
  8
型材断面
  6
CONTINUOUS
 10
-78.66511
 20
59.495565
 11
-80.16074
 21
62.086073
  0
LINE
  8
型材断面
  6
CONTINUOUS
 10
-78.66511
 20
59.495565
 11
-77.16948
 21
62.086073
  0
LINE
  8
型材断面
  6
CONTINUOUS
 10
-77.16948
 20
62.086073
 11
-80.16074
 21
62.086073
  0
LINE
  8
型材断面
  6
CONTINUOUS
 10
4.668225
 20
59.495565
 11
6.163855
 21
62.086073
  0
LINE
  8
型材断面
  6
CONTINUOUS
 10
4.668225
 20
59.495565
 11
3.172595
 21
62.086073
  0
LINE
  8
型材断面
  6
CONTINUOUS
 10
3.172595
 20
62.086073
 11
6.163855
 21
62.086073
  0
LINE
  8
型材断面
  6
CONTINUOUS
 10
-78.66511
 20
10.63586
 11
-80.16074
 21
8.045353
  0
LINE
  8
型材断面
  6
CONTINUOUS
 10
-78.66511
 20
10.63586
 11
-77.16948
 21
8.045353
  0
LINE
  8
型材断面
  6
CONTINUOUS
 10
-77.16948
 20
8.045353
 11
-80.16074
 21
8.045353
  0
LINE
  8
型材断面
  6
CONTINUOUS
 10
4.668225
 20
10.63586
 11
6.163855
 21
8.045353
  0
LINE
  8
型材断面
  6
CONTINUOUS
 10
4.668225
 20
10.63586
 11
3.172595
 21
8.045353
  0
LINE
  8
型材断面
  6
CONTINUOUS
 10
3.172595
 20
8.045353
 11
6.163855
 21
8.045353
  0
LINE
  8
型材断面
  6
CONTINUOUS
 10
24.098225
 20
34.932655
 11
26.688732
 21
36.428285
  0
LINE
  8
型材断面
  6
CONTINUOUS
 10
24.098225
 20
34.932655
 11
26.688732
 21
33.437025
  0
LINE
  8
型材断面
  6
CONTINUOUS
 10
26.688732
 20
33.437025
 11
26.688732
 21
36.428285
  0
LINE
  8
型材断面
  6
CONTINUOUS
 10
24.098222
 20
52.899323
 11
26.688732
 21
52.30327
  0
LINE
  8
型材断面
  6
CONTINUOUS
 10
24.098222
 20
52.899323
 11
26.68873
 21
53.495383
  0
LINE
  8
型材断面
  6
CONTINUOUS
 10
26.68873
 20
53.495383
 11
26.688732
 21
52.30327
  0
LINE
  8
型材断面
  6
CONTINUOUS
 10
24.098222
 20
16.965987
 11
26.688732
 21
17.56204
  0
LINE
  8
型材断面
  6
CONTINUOUS
 10
24.098222
 20
16.965987
 11
26.68873
 21
16.369928
  0
LINE
  8
型材断面
  6
CONTINUOUS
 10
26.68873
 20
16.369928
 11
26.688732
 21
17.56204
  0
LINE
  8
型材断面
  6
DASHDOT
 10
-56.638445
 20
13.399048
 11
-56.638445
 21
56.73238
  0
LINE
  8
型材断面
  6
DASHDOT
 10
-17.35844
 20
13.399048
 11
-17.35844
 21
56.73238
  0
LINE
  8
型材断面
  6
CONTINUOUS
 10
-16.10844
 20
14.899052
 11
-18.60844
 21
14.899055
  0
LINE
  8
型材断面
  6
CONTINUOUS
 10
-16.10844
 20
55.232378
 11
-18.60844
 21
55.232375
  0
LINE
  8
型材断面
  6
CONTINUOUS
 10
-16.10844
 20
14.899052
 11
-16.10844
 21
55.232378
  0
LINE
  8
型材断面
  6
CONTINUOUS
 10
-18.60844
 20
14.899055
 11
-18.60844
 21
55.232375
  0
LINE
  8
型材断面
  6
CONTINUOUS
 10
-57.888445
 20
14.899052
 11
-55.388445
 21
14.899055
  0
LINE
  8
型材断面
  6
CONTINUOUS
 10
-57.888445
 20
55.232378
 11
-55.388445
 21
55.232375
  0
LINE
  8
型材断面
  6
CONTINUOUS
 10
-57.888445
 20
14.899052
 11
-57.888445
 21
55.232378
  0
LINE
  8
型材断面
  6
CONTINUOUS
 10
-55.388445
 20
14.899055
 11
-55.388445
 21
55.232375
  0
LINE
  8
型材断面
  6
CONTINUOUS
 10
24.098228
 20
10.63586
 11
24.098228
 21
59.495565
  0
LINE
  8
型材断面
  6
CONTINUOUS
 10
22.932547
 20
11.565692
 11
23.168247
 21
11.801392
  0
LINE
  8
型材断面
  6
CONTINUOUS
 10
20.432545
 20
14.065692
 11
20.668245
 21
14.301392
  0
LINE
  8
型材断面
  6
CONTINUOUS
 10
20.668245
 20
14.301392
 11
23.168247
 21
11.801392
  0
LINE
  8
型材断面
  6
CONTINUOUS
 10
23.168217
 20
35.065715
 11
23.168247
 21
11.801392
  0
LINE
  8
型材断面
  6
CONTINUOUS
 10
20.432545
 20
14.065692
 11
22.932547
 21
11.565692
  0
LINE
  8
型材断面
  6
CONTINUOUS
 10
24.09808
 20
10.63586
 11
23.050395
 21
11.68354
  0
LINE
  8
型材断面
  6
CONTINUOUS
 10
20.668217
 20
34.649048
 11
23.168217
 21
34.649048
  0
LINE
  8
型材断面
  6
CONTINUOUS
 10
20.668217
 20
35.482382
 11
23.168217
 21
35.482382
  0
LINE
  8
型材断面
  6
CONTINUOUS
 10
20.668217
 20
34.649048
 11
20.668245
 21
14.301392
  0
LINE
  8
型材断面
  6
CONTINUOUS
 10
22.932547
 20
58.565738
 11
23.168247
 21
58.330038
  0
LINE
  8
型材断面
  6
CONTINUOUS
 10
20.432545
 20
56.065738
 11
20.668245
 21
55.830038
  0
LINE
  8
型材断面
  6
CONTINUOUS
 10
20.432545
 20
56.065738
 11
22.932547
 21
58.565738
  0
LINE
  8
型材断面
  6
CONTINUOUS
 10
24.09808
 20
59.49557
 11
23.050395
 21
58.44789
  0
LINE
  8
型材断面
  6
CONTINUOUS
 10
20.668245
 20
55.830038
 11
23.168247
 21
58.330038
  0
LINE
  8
型材断面
  6
CONTINUOUS
 10
23.168217
 20
35.065715
 11
23.168247
 21
58.330038
  0
LINE
  8
型材断面
  6
CONTINUOUS
 10
20.668217
 20
35.482382
 11
20.668245
 21
55.830038
  0
LINE
  8
型材断面
  6
CONTINUOUS
 10
-36.998442
 20
58.565692
 11
22.932547
 21
58.565738
  0
LINE
  8
型材断面
  6
CONTINUOUS
 10
-36.998442
 20
11.565738
 11
22.932547
 21
11.565692
  0
LINE
  8
型材断面
  6
CONTINUOUS
 10
1.571558
 20
14.065707
 11
1.571558
 21
11.565707
  0
LINE
  8
型材断面
  6
CONTINUOUS
 10
2.404892
 20
14.065705
 11
2.404892
 21
11.565707
  0
LINE
  8
型材断面
  6
CONTINUOUS
 10
-37.41511
 20
14.065707
 11
-37.41511
 21
11.565707
  0
LINE
  8
型材断面
  6
CONTINUOUS
 10
-36.581775
 20
14.065705
 11
-36.581775
 21
11.565707
  0
LINE
  8
型材断面
  6
CONTINUOUS
 10
1.571558
 20
56.065723
 11
1.571558
 21
58.565723
  0
LINE
  8
型材断面
  6
CONTINUOUS
 10
2.404892
 20
56.065725
 11
2.404892
 21
58.565723
  0
LINE
  8
型材断面
  6
CONTINUOUS
 10
-37.41511
 20
56.065723
 11
-37.41511
 21
58.565723
  0
LINE
  8
型材断面
  6
CONTINUOUS
 10
-36.581775
 20
56.065725
 11
-36.581775
 21
58.565723
  0
LINE
  8
型材断面
  6
CONTINUOUS
 10
-36.581775
 20
14.065735
 11
1.571558
 21
14.065707
  0
LINE
  8
型材断面
  6
CONTINUOUS
 10
2.404892
 20
14.065705
 11
20.432545
 21
14.065692
  0
LINE
  8
型材断面
  6
CONTINUOUS
 10
-36.581775
 20
56.065695
 11
1.571558
 21
56.065723
  0
LINE
  8
型材断面
  6
CONTINUOUS
 10
2.404892
 20
56.065725
 11
20.432545
 21
56.065738
  0
LINE
  8
型材断面
  6
DASHDOT
 10
-56.638445
 20
13.399048
 11
-56.638445
 21
56.73238
  0
LINE
  8
型材断面
  6
CONTINUOUS
 10
-57.888445
 20
14.899052
 11
-55.388445
 21
14.899055
  0
LINE
  8
型材断面
  6
CONTINUOUS
 10
-57.888445
 20
55.232378
 11
-55.388445
 21
55.232375
  0
LINE
  8
型材断面
  6
CONTINUOUS
 10
-57.888445
 20
14.899052
 11
-57.888445
 21
55.232378
  0
LINE
  8
型材断面
  6
CONTINUOUS
 10
-55.388445
 20
14.899055
 11
-55.388445
 21
55.232375
  0
LINE
  8
型材断面
  6
CONTINUOUS
 10
-98.095112
 20
10.63586
 11
-98.095112
 21
59.495565
  0
LINE
  8
型材断面
  6
CONTINUOUS
 10
-96.929432
 20
11.565692
 11
-97.165132
 21
11.801392
  0
LINE
  8
型材断面
  6
CONTINUOUS
 10
-94.42943
 20
14.065692
 11
-94.66513
 21
14.301392
  0
LINE
  8
型材断面
  6
CONTINUOUS
 10
-94.66513
 20
14.301392
 11
-97.165132
 21
11.801392
  0
LINE
  8
型材断面
  6
CONTINUOUS
 10
-97.165103
 20
35.065715
 11
-97.165132
 21
11.801392
  0
LINE
  8
型材断面
  6
CONTINUOUS
 10
-94.42943
 20
14.065692
 11
-96.929432
 21
11.565692
  0
LINE
  8
型材断面
  6
CONTINUOUS
 10
-98.094965
 20
10.63586
 11
-97.04728
 21
11.68354
  0
LINE
  8
型材断面
  6
CONTINUOUS
 10
-94.665103
 20
34.649048
 11
-97.165103
 21
34.649048
  0
LINE
  8
型材断面
  6
CONTINUOUS
 10
-94.665103
 20
35.482382
 11
-97.165103
 21
35.482382
  0
LINE
  8
型材断面
  6
CONTINUOUS
 10
-94.665103
 20
34.649048
 11
-94.66513
 21
14.301392
  0
LINE
  8
型材断面
  6
CONTINUOUS
 10
-96.929432
 20
58.565738
 11
-97.165132
 21
58.330038
  0
LINE
  8
型材断面
  6
CONTINUOUS
 10
-94.42943
 20
56.065738
 11
-94.66513
 21
55.830038
  0
LINE
  8
型材断面
  6
CONTINUOUS
 10
-94.42943
 20
56.065738
 11
-96.929432
 21
58.565738
  0
LINE
  8
型材断面
  6
CONTINUOUS
 10
-98.094965
 20
59.49557
 11
-97.04728
 21
58.44789
  0
LINE
  8
型材断面
  6
CONTINUOUS
 10
-94.66513
 20
55.830038
 11
-97.165132
 21
58.330038
  0
LINE
  8
型材断面
  6
CONTINUOUS
 10
-97.165103
 20
35.065715
 11
-97.165132
 21
58.330038
  0
LINE
  8
型材断面
  6
CONTINUOUS
 10
-94.665103
 20
35.482382
 11
-94.66513
 21
55.830038
  0
LINE
  8
型材断面
  6
CONTINUOUS
 10
-75.568443
 20
14.065707
 11
-75.568443
 21
11.565707
  0
LINE
  8
型材断面
  6
CONTINUOUS
 10
-76.401778
 20
14.065705
 11
-76.401778
 21
11.565707
  0
LINE
  8
型材断面
  6
CONTINUOUS
 10
-75.568443
 20
56.065723
 11
-75.568443
 21
58.565723
  0
LINE
  8
型材断面
  6
CONTINUOUS
 10
-76.401778
 20
56.065725
 11
-76.401778
 21
58.565723
  0
LINE
  8
型材断面
  6
CONTINUOUS
 10
-76.401778
 20
14.065705
 11
-94.42943
 21
14.065692
  0
LINE
  8
型材断面
  6
CONTINUOUS
 10
-76.401778
 20
56.065725
 11
-94.42943
 21
56.065738
  0
LINE
  8
型材断面
  6
CONTINUOUS
 10
-37.41511
 20
14.065735
 11
-75.568443
 21
14.065707
  0
LINE
  8
型材断面
  6
CONTINUOUS
 10
-37.41511
 20
56.065695
 11
-75.568443
 21
56.065723
  0
LINE
  8
型材断面
  6
CONTINUOUS
 10
-36.998442
 20
58.565692
 11
-96.929432
 21
58.565738
  0
LINE
  8
型材断面
  6
CONTINUOUS
 10
-36.998442
 20
11.565738
 11
-96.929432
 21
11.565692
  0
LINE
  8
型材断面
  6
CONTINUOUS
 10
114.384585
 20
58.995567
 11
114.72125
 21
58.995567
  0
LINE
  8
型材断面
  6
CONTINUOUS
 10
110.288035
 20
59.2989
 11
110.484702
 21
59.495567
  0
LINE
  8
型材断面
  6
CONTINUOUS
 10
110.484702
 20
59.495567
 11
114.384585
 21
59.495567
  0
LINE
  8
型材断面
  6
CONTINUOUS
 62
    47
 10
110.28808
 20
59.298942
 11
110.28808
 21
35.065715
  0
LINE
  8
型材断面
  6
CONTINUOUS
 10
110.484702
 20
59.495567
 11
110.484702
 21
35.065715
  0
LINE
  8
型材断面
  6
CONTINUOUS
 10
114.384585
 20
59.495567
 11
114.384585
 21
35.065715
  0
LINE
  8
型材断面
  6
CONTINUOUS
 10
114.72125
 20
58.995567
 11
114.72125
 21
35.065715
  0
LINE
  8
型材断面
  6
CONTINUOUS
 10
114.384585
 20
11.135863
 11
114.72125
 21
11.135863
  0
LINE
  8
型材断面
  6
CONTINUOUS
 10
110.288035
 20
10.83253
 11
110.484702
 21
10.635863
  0
LINE
  8
型材断面
  6
CONTINUOUS
 10
110.484702
 20
10.635863
 11
114.384585
 21
10.635863
  0
LINE
  8
型材断面
  6
CONTINUOUS
 62
    47
 10
110.28808
 20
10.832488
 11
110.28808
 21
35.065715
  0
LINE
  8
型材断面
  6
CONTINUOUS
 10
110.484702
 20
10.635863
 11
110.484702
 21
35.065715
  0
LINE
  8
型材断面
  6
CONTINUOUS
 10
114.384585
 20
10.635863
 11
114.384585
 21
35.065715
  0
LINE
  8
型材断面
  6
CONTINUOUS
 10
114.72125
 20
11.135863
 11
114.72125
 21
35.065715
  0
LINE
  8
型材断面
  6
CONTINUOUS
 10
23.598228
 20
-86.607932
 11
23.598228
 21
-86.944597
  0
LINE
  8
型材断面
  6
CONTINUOUS
 10
23.90156
 20
-82.511383
 11
24.098228
 21
-82.70805
  0
LINE
  8
型材断面
  6
CONTINUOUS
 10
24.098228
 20
-82.70805
 11
24.098228
 21
-86.607932
  0
LINE
  8
型材断面
  6
CONTINUOUS
 10
24.098228
 20
-86.607932
 11
-36.998442
 21
-86.607932
  0
LINE
  8
型材断面
  6
CONTINUOUS
 10
23.598228
 20
-86.944597
 11
-36.998442
 21
-86.944597
  0
LINE
  8
型材断面
  6
CONTINUOUS
 62
    47
 10
23.901603
 20
-82.511427
 11
-36.998442
 21
-82.511427
  0
LINE
  8
型材断面
  6
CONTINUOUS
 10
24.098228
 20
-82.70805
 11
-36.998442
 21
-82.70805
  0
LINE
  8
型材断面
  6
CONTINUOUS
 10
-97.595112
 20
-86.607932
 11
-97.595112
 21
-86.944597
  0
LINE
  8
型材断面
  6
CONTINUOUS
 10
-97.898445
 20
-82.511383
 11
-98.095112
 21
-82.70805
  0
LINE
  8
型材断面
  6
CONTINUOUS
 10
-98.095112
 20
-82.70805
 11
-98.095112
 21
-86.607932
  0
LINE
  8
型材断面
  6
CONTINUOUS
 10
-98.095112
 20
-86.607932
 11
-36.998442
 21
-86.607932
  0
LINE
  8
型材断面
  6
CONTINUOUS
 10
-97.595112
 20
-86.944597
 11
-36.998442
 21
-86.944597
  0
LINE
  8
型材断面
  6
CONTINUOUS
 62
    47
 10
-97.898488
 20
-82.511427
 11
-36.998442
 21
-82.511427
  0
LINE
  8
型材断面
  6
CONTINUOUS
 10
-98.095112
 20
-82.70805
 11
-36.998442
 21
-82.70805
  0
TEXT
  7
TextStyle03
  8
文字
  6
CONTINUOUS
 10
-45.175
 20
67.2
  1
可動装置側
 40
3.0
 72
     5
 11
-28.675
 21
67.2
  0
TEXT
  7
TextStyle03
  8
文字
  6
CONTINUOUS
 10
-45.175
 20
-0.075
  1
可動装置側
 40
3.0
 72
     5
 11
-28.675
 21
-0.075
  0
TEXT
  7
TextStyle03
  8
文字
  6
CONTINUOUS
 10
-133.4
 20
93.325
  1
はケーシング位置を示す
 40
3.0
 72
     5
 11
-96.65
 21
93.325
  0
TEXT
  7
TextStyle03
  8
文字
  6
CONTINUOUS
 10
-133.4
 20
89.95
  1
４ヶ所中1ヶ所に設定
 40
3.0
 72
     5
 11
-101.7125
 21
89.95
  0
TEXT
  7
TextStyle03
  8
文字
  6
CONTINUOUS
 10
-133.4
 20
98.85
  1
は排水穴位置を示す
 40
3.0
 72
     5
 11
-103.4
 21
98.85
  0
TEXT
  7
TextStyle03
  8
文字
  6
CONTINUOUS
 10
-132.9
 20
23.975
  1
アンカーピッチ
 40
3.0
 50
90.0
 72
     5
 11
-132.9
 21
47.225
  0
TEXT
  7
TextStyle03
  8
文字
  6
CONTINUOUS
 10
-84.175
 20
93.675
  1
アンカーピッチ
 40
3.0
 72
     5
 11
-60.925
 21
93.675
  0
TEXT
  7
TextStyle03
  8
文字
  6
CONTINUOUS
 10
-137.125
 20
83.975
  1
アンカー数量　１４ヶ所
 40
3.0
 72
     5
 11
-100.375
 21
83.975
  0
TEXT
  7
TextStyle03
  8
文字
  6
CONTINUOUS
 10
-137.125
 20
78.2
  1
アームユニット数　４ヶ所
 40
3.0
 72
     5
 11
-97.0
 21
78.2
  0
LINE
  8
文字
  6
CONTINUOUS
 10
108.480345
 20
59.495565
 11
51.370968
 21
59.495565
  0
LINE
  8
文字
  6
CONTINUOUS
 10
108.480345
 20
10.63586
 11
51.370968
 21
10.63586
  0
LINE
  8
文字
  6
CONTINUOUS
 10
91.268032
 20
65.733497
 11
91.268032
 21
60.820725
  0
LINE
  8
文字
  6
CONTINUOUS
 10
-98.095112
 20
-80.158047
 11
-98.095112
 21
-22.024302
  0
LINE
  8
文字
  6
CONTINUOUS
 10
24.098225
 20
-80.158047
 11
24.098225
 21
-22.024302
  0
LINE
  8
文字
  6
CONTINUOUS
 10
40.511713
 20
-63.49138
 11
26.908033
 21
-63.49138
  0
LINE
  8
文字
  6
CONTINUOUS
 10
116.421445
 20
-40.431
 11
116.421445
 21
-48.389
  0
LINE
  8
文字
  6
CONTINUOUS
 10
78.321445
 20
-40.431
 11
78.321445
 21
-48.389
  0
TEXT
  7
TextStyle03
  8
文字
  6
CONTINUOUS
 10
97.9
 20
-86.75
  1
網入り6.8t
 40
3.0
 72
     5
 11
114.5875
 21
-86.75
  0
TEXT
  7
TextStyle03
  8
文字
  6
CONTINUOUS
 10
104.575
 20
-91.425
  1
×３枚
 40
3.0
 72
     5
 11
114.325
 21
-91.425
  0
TEXT
  7
TextStyle03
  8
文字
  6
CONTINUOUS
 10
60.575
 20
125.25
  1
シリーズ：ＴＦＦＬ
 40
5.0
 72
     5
 11
110.575
 21
125.25
  0
TEXT
  7
TextStyle03
  8
文字
  6
CONTINUOUS
 10
60.575
 20
119.625
  1
　　　　　（上下可動）1300×3500タイプ
 40
5.0
 72
     5
 11
166.825
 21
119.625
  0
TEXT
  7
TextStyle03
  8
文字
  6
CONTINUOUS
 10
60.575
 20
114.0
  1
図面名　：外観姿図
 40
5.0
 72
     5
 11
110.575
 21
114.0
  0
TEXT
  7
TextStyle03
  8
文字
  6
CONTINUOUS
 10
60.575
 20
108.375
  1
　　　　　　
 40
5.0
 72
     5
 11
93.7
 21
108.375
  0
TEXT
  7
TextStyle03
  8
文字
  6
CONTINUOUS
 10
60.725
 20
104.525
  1
ＮＳコード：ＮＳＦＬ
 40
5.0
 72
     5
 11
116.35
 21
104.525
  0
INSERT
  2
*DIM_0002
  8
寸法
  6
CONTINUOUS
 10
0.0
 20
0.0
  0
INSERT
  2
*DIM_0003
  8
寸法
  6
CONTINUOUS
 10
0.0
 20
0.0
  0
INSERT
  2
*DIM_0004
  8
寸法
  6
CONTINUOUS
 10
0.0
 20
0.0
  0
INSERT
  2
*DIM_0005
  8
寸法
  6
CONTINUOUS
 10
0.0
 20
0.0
  0
INSERT
  2
*DIM_0006
  8
寸法
  6
CONTINUOUS
 10
0.0
 20
0.0
  0
INSERT
  2
*DIM_0007
  8
寸法
  6
CONTINUOUS
 10
0.0
 20
0.0
  0
INSERT
  2
*DIM_0008
  8
寸法
  6
CONTINUOUS
 10
0.0
 20
0.0
  0
INSERT
  2
*DIM_0009
  8
寸法
  6
CONTINUOUS
 10
0.0
 20
0.0
  0
INSERT
  2
*DIM_0010
  8
寸法
  6
CONTINUOUS
 10
0.0
 20
0.0
  0
INSERT
  2
*DIM_0011
  8
寸法
  6
CONTINUOUS
 10
0.0
 20
0.0
  0
INSERT
  2
*DIM_0012
  8
寸法
  6
CONTINUOUS
 10
0.0
 20
0.0
  0
INSERT
  2
*DIM_0013
  8
寸法
  6
CONTINUOUS
 10
0.0
 20
0.0
  0
INSERT
  2
*DIM_0014
  8
寸法
  6
CONTINUOUS
 10
0.0
 20
0.0
  0
INSERT
  2
*DIM_0015
  8
寸法
  6
CONTINUOUS
 10
0.0
 20
0.0
  0
INSERT
  2
*DIM_0020
  8
寸法
  6
CONTINUOUS
 10
0.0
 20
0.0
  0
INSERT
  2
*DIM_0021
  8
寸法
  6
CONTINUOUS
 10
0.0
 20
0.0
  0
INSERT
  2
*DIM_0022
  8
寸法
  6
CONTINUOUS
 10
0.0
 20
0.0
  0
INSERT
  2
*DIM_0023
  8
寸法
  6
CONTINUOUS
 10
0.0
 20
0.0
  0
INSERT
  2
*DIM_0024
  8
寸法
  6
CONTINUOUS
 10
0.0
 20
0.0
  0
INSERT
  2
*DIM_0025
  8
寸法
  6
CONTINUOUS
 10
0.0
 20
0.0
  0
LINE
  8
別途部材
  6
CONTINUOUS
 62
    47
 10
106.368032
 20
58.565568
 11
106.4347
 21
58.565568
  0
ARC
  8
別途部材
  6
CONTINUOUS
 62
    47
 10
106.368034
 20
58.465567
 40
0.1
 50
90.0
 51
180.0
  0
LINE
  8
別途部材
  6
CONTINUOUS
 62
    47
 10
106.4347
 20
58.409045
 11
107.9347
 21
58.409045
  0
LINE
  8
別途部材
  6
CONTINUOUS
 62
    47
 10
106.368032
 20
11.565857
 11
106.4347
 21
11.565857
  0
ARC
  8
別途部材
  6
CONTINUOUS
 62
    47
 10
106.368034
 20
11.665857
 40
0.1
 50
180.0
 51
270.0
  0
LINE
  8
別途部材
  6
CONTINUOUS
 62
    47
 10
106.4347
 20
11.72238
 11
107.9347
 21
11.72238
  0
LINE
  8
別途部材
  6
CONTINUOUS
 62
    47
 10
106.4347
 20
11.565857
 11
106.4347
 21
35.198768
  0
LINE
  8
別途部材
  6
CONTINUOUS
 62
    47
 10
106.268032
 20
11.665857
 11
106.268032
 21
35.198768
  0
LINE
  8
別途部材
  6
CONTINUOUS
 62
    47
 10
107.9347
 20
11.72238
 11
107.9347
 21
35.198768
  0
LINE
  8
別途部材
  6
CONTINUOUS
 62
    47
 10
109.084702
 20
10.63586
 11
109.084702
 21
35.198768
  0
LINE
  8
別途部材
  6
CONTINUOUS
 62
    47
 10
110.251368
 20
10.63586
 11
110.251368
 21
35.198768
  0
LINE
  8
別途部材
  6
CONTINUOUS
 62
    47
 10
110.251368
 20
59.495565
 11
110.251368
 21
35.198768
  0
LINE
  8
別途部材
  6
CONTINUOUS
 62
    47
 10
109.084702
 20
59.495565
 11
109.084702
 21
35.198768
  0
LINE
  8
別途部材
  6
CONTINUOUS
 62
    47
 10
107.9347
 20
58.409045
 11
107.9347
 21
35.198768
  0
LINE
  8
別途部材
  6
CONTINUOUS
 62
    47
 10
106.4347
 20
58.565568
 11
106.4347
 21
35.198768
  0
LINE
  8
別途部材
  6
CONTINUOUS
 62
    47
 10
106.268032
 20
58.465567
 11
106.268032
 21
35.198768
  0
LINE
  8
別途部材
  6
DOT
 62
    47
 10
91.368032
 20
58.565568
 11
91.4347
 21
58.565568
  0
ARC
  8
別途部材
  6
DOT
 62
    47
 10
91.368034
 20
58.465567
 40
0.1
 50
90.0
 51
180.0
  0
LINE
  8
別途部材
  6
DOT
 62
    47
 10
91.4347
 20
58.409045
 11
92.9347
 21
58.409045
  0
LINE
  8
別途部材
  6
DOT
 62
    47
 10
91.368032
 20
11.565857
 11
91.4347
 21
11.565857
  0
ARC
  8
別途部材
  6
DOT
 62
    47
 10
91.368034
 20
11.665857
 40
0.1
 50
180.0
 51
270.0
  0
LINE
  8
別途部材
  6
DOT
 62
    47
 10
91.4347
 20
11.72238
 11
92.9347
 21
11.72238
  0
LINE
  8
別途部材
  6
DOT
 62
    47
 10
94.084702
 20
10.63586
 11
94.084702
 21
35.198768
  0
LINE
  8
別途部材
  6
DOT
 62
    47
 10
91.268032
 20
11.665857
 11
91.268032
 21
35.198768
  0
LINE
  8
別途部材
  6
DOT
 62
    47
 10
92.9347
 20
11.72238
 11
92.9347
 21
35.198768
  0
LINE
  8
別途部材
  6
DOT
 62
    47
 10
95.251368
 20
10.63586
 11
95.251368
 21
35.198768
  0
LINE
  8
別途部材
  6
DOT
 62
    47
 10
91.4347
 20
11.565857
 11
91.4347
 21
35.198768
  0
LINE
  8
別途部材
  6
DOT
 62
    47
 10
95.251368
 20
59.495565
 11
95.251368
 21
35.198768
  0
LINE
  8
別途部材
  6
DOT
 62
    47
 10
94.084702
 20
59.495565
 11
94.084702
 21
35.198768
  0
LINE
  8
別途部材
  6
DOT
 62
    47
 10
92.9347
 20
58.409045
 11
92.9347
 21
35.198768
  0
LINE
  8
別途部材
  6
DOT
 62
    47
 10
91.268032
 20
58.465567
 11
91.268032
 21
35.198768
  0
LINE
  8
別途部材
  6
DOT
 62
    47
 10
91.4347
 20
58.565568
 11
91.4347
 21
35.198768
  0
LINE
  8
別途部材
  6
CONTINUOUS
 62
    47
 10
-97.165115
 20
-78.59138
 11
-97.165115
 21
-78.658047
  0
ARC
  8
別途部材
  6
CONTINUOUS
 62
    47
 10
-97.065113
 20
-78.591386
 40
0.1
 50
90.0
 51
180.0
  0
LINE
  8
別途部材
  6
CONTINUOUS
 62
    47
 10
-97.008593
 20
-78.658047
 11
-97.008593
 21
-80.158047
  0
LINE
  8
別途部材
  6
CONTINUOUS
 62
    47
 10
23.168227
 20
-78.59138
 11
23.168227
 21
-78.658047
  0
ARC
  8
別途部材
  6
CONTINUOUS
 62
    47
 10
23.068223
 20
-78.591386
 40
0.1
 50
0.0
 51
90.0
  0
LINE
  8
別途部材
  6
CONTINUOUS
 62
    47
 10
23.011705
 20
-78.658047
 11
23.011705
 21
-80.158047
  0
LINE
  8
別途部材
  6
CONTINUOUS
 62
    47
 10
-97.065115
 20
-78.49138
 11
-36.998442
 21
-78.49138
  0
LINE
  8
別途部材
  6
CONTINUOUS
 62
    47
 10
-97.165115
 20
-78.658047
 11
-36.998442
 21
-78.658047
  0
LINE
  8
別途部材
  6
CONTINUOUS
 62
    47
 10
-97.008593
 20
-80.158047
 11
-36.998442
 21
-80.158047
  0
LINE
  8
別途部材
  6
CONTINUOUS
 62
    47
 10
-98.095112
 20
-81.30805
 11
-36.998442
 21
-81.30805
  0
LINE
  8
別途部材
  6
CONTINUOUS
 62
    47
 10
-98.095112
 20
-82.474715
 11
-36.998442
 21
-82.474715
  0
LINE
  8
別途部材
  6
CONTINUOUS
 62
    47
 10
24.098225
 20
-82.474715
 11
-36.998442
 21
-82.474715
  0
LINE
  8
別途部材
  6
CONTINUOUS
 62
    47
 10
24.098225
 20
-81.30805
 11
-36.998442
 21
-81.30805
  0
LINE
  8
別途部材
  6
CONTINUOUS
 62
    47
 10
23.011705
 20
-80.158047
 11
-36.998442
 21
-80.158047
  0
LINE
  8
別途部材
  6
CONTINUOUS
 62
    47
 10
23.168227
 20
-78.658047
 11
-36.998442
 21
-78.658047
  0
LINE
  8
別途部材
  6
CONTINUOUS
 62
    47
 10
23.068227
 20
-78.49138
 11
-36.998442
 21
-78.49138
  0
LINE
  8
別途部材
  6
DOT
 62
    47
 10
-97.165115
 20
-63.59138
 11
-97.165115
 21
-63.658047
  0
ARC
  8
別途部材
  6
DOT
 62
    47
 10
-97.065114
 20
-63.591384
 40
0.1
 50
90.0
 51
180.0
  0
LINE
  8
別途部材
  6
DOT
 62
    47
 10
-97.008593
 20
-63.658047
 11
-97.008593
 21
-65.158047
  0
LINE
  8
別途部材
  6
DOT
 62
    47
 10
23.168227
 20
-63.59138
 11
23.168227
 21
-63.658047
  0
ARC
  8
別途部材
  6
DOT
 62
    47
 10
23.068222
 20
-63.591384
 40
0.1
 50
0.0
 51
90.0
  0
LINE
  8
別途部材
  6
DOT
 62
    47
 10
23.011705
 20
-63.658047
 11
23.011705
 21
-65.158047
  0
LINE
  8
別途部材
  6
DOT
 62
    47
 10
-97.008593
 20
-65.158047
 11
-36.998442
 21
-65.158047
  0
LINE
  8
別途部材
  6
DOT
 62
    47
 10
-97.165115
 20
-63.658047
 11
-36.998442
 21
-63.658047
  0
LINE
  8
別途部材
  6
DOT
 62
    47
 10
-97.065115
 20
-63.49138
 11
-36.998442
 21
-63.49138
  0
LINE
  8
別途部材
  6
DOT
 62
    47
 10
-98.095112
 20
-66.30805
 11
-36.998442
 21
-66.30805
  0
LINE
  8
別途部材
  6
DOT
 62
    47
 10
-98.095112
 20
-67.474715
 11
-36.998442
 21
-67.474715
  0
LINE
  8
別途部材
  6
DOT
 62
    47
 10
24.098225
 20
-67.474715
 11
-36.998442
 21
-67.474715
  0
LINE
  8
別途部材
  6
DOT
 62
    47
 10
24.098225
 20
-66.30805
 11
-36.998442
 21
-66.30805
  0
LINE
  8
別途部材
  6
DOT
 62
    47
 10
23.011705
 20
-65.158047
 11
-36.998442
 21
-65.158047
  0
LINE
  8
別途部材
  6
DOT
 62
    47
 10
23.068227
 20
-63.49138
 11
-36.998442
 21
-63.49138
  0
LINE
  8
別途部材
  6
DOT
 62
    47
 10
23.168227
 20
-63.658047
 11
-36.998442
 21
-63.658047
  0
LINE
  8
別途部材
  6
CONTINUOUS
 10
78.321445
 20
-49.867045
 11
78.321445
 21
-93.20038
  0
LINE
  8
曲げ物
  6
CONTINUOUS
 10
6.06062
 20
37.022003
 11
2.365308
 21
33.32669
  0
LINE
  8
曲げ物
  6
CONTINUOUS
 10
5.35715
 20
35.485893
 11
3.90142
 21
34.030163
  0
LINE
  8
曲げ物
  6
CONTINUOUS
 10
4.52451
 20
36.318533
 11
3.06878
 21
34.862803
  0
LINE
  8
曲げ物
  6
CONTINUOUS
 10
-35.178425
 20
37.022003
 11
-38.873737
 21
33.32669
  0
LINE
  8
曲げ物
  6
CONTINUOUS
 10
-35.881895
 20
35.485893
 11
-37.337625
 21
34.030163
  0
LINE
  8
曲げ物
  6
CONTINUOUS
 10
-36.714535
 20
36.318533
 11
-38.170265
 21
34.862803
  0
LINE
  8
曲げ物
  6
CONTINUOUS
 10
-73.979577
 20
37.022003
 11
-77.67489
 21
33.32669
  0
LINE
  8
曲げ物
  6
CONTINUOUS
 10
-74.683047
 20
35.485893
 11
-76.138778
 21
34.030163
  0
LINE
  8
曲げ物
  6
CONTINUOUS
 10
-75.515687
 20
36.318533
 11
-76.971418
 21
34.862803
  0
LINE
  8
曲げ物
  6
CONTINUOUS
 10
116.421445
 20
-49.867045
 11
78.321445
 21
-49.867045
  0
LINE
  8
曲げ物
  6
CONTINUOUS
 10
116.421445
 20
-93.20038
 11
78.468112
 21
-93.20038
  0
LINE
  8
曲げ物
  6
CONTINUOUS
 10
116.421445
 20
-49.867045
 11
116.421445
 21
-93.20038
  0
LINE
  8
鉄骨等
  6
CONTINUOUS
 62
    47
 10
110.251368
 20
59.495565
 11
109.084702
 21
59.495565
  0
LINE
  8
鉄骨等
  6
CONTINUOUS
 62
    47
 10
109.084702
 20
59.495565
 11
107.934702
 21
58.092377
  0
LINE
  8
鉄骨等
  6
CONTINUOUS
 62
    47
 10
110.251368
 20
10.63586
 11
109.084702
 21
10.63586
  0
LINE
  8
鉄骨等
  6
CONTINUOUS
 62
    47
 10
109.084702
 20
10.63586
 11
107.934702
 21
12.039045
  0
LINE
  8
鉄骨等
  6
DOT
 62
    47
 10
95.251368
 20
59.495565
 11
94.084702
 21
59.495565
  0
LINE
  8
鉄骨等
  6
DOT
 62
    47
 10
94.084702
 20
59.495565
 11
92.934702
 21
58.092377
  0
LINE
  8
鉄骨等
  6
DOT
 62
    47
 10
95.251368
 20
10.63586
 11
94.084702
 21
10.63586
  0
LINE
  8
鉄骨等
  6
DOT
 62
    47
 10
94.084702
 20
10.63586
 11
92.934702
 21
12.039045
  0
LINE
  8
鉄骨等
  6
CONTINUOUS
 62
    47
 10
-98.095112
 20
-82.474715
 11
-98.095112
 21
-81.30805
  0
LINE
  8
鉄骨等
  6
CONTINUOUS
 62
    47
 10
-98.095112
 20
-81.30805
 11
-96.691928
 21
-80.15805
  0
LINE
  8
鉄骨等
  6
CONTINUOUS
 62
    47
 10
24.098225
 20
-82.474715
 11
24.098225
 21
-81.30805
  0
LINE
  8
鉄骨等
  6
CONTINUOUS
 62
    47
 10
24.098225
 20
-81.30805
 11
22.69504
 21
-80.15805
  0
LINE
  8
鉄骨等
  6
DOT
 62
    47
 10
-98.095112
 20
-67.474715
 11
-98.095112
 21
-66.30805
  0
LINE
  8
鉄骨等
  6
DOT
 62
    47
 10
-98.095112
 20
-66.30805
 11
-96.691928
 21
-65.15805
  0
LINE
  8
鉄骨等
  6
DOT
 62
    47
 10
24.098225
 20
-67.474715
 11
24.098225
 21
-66.30805
  0
LINE
  8
鉄骨等
  6
DOT
 62
    47
 10
24.098225
 20
-66.30805
 11
22.69504
 21
-65.15805
  0
ENDSEC
  0
EOF
