  0
SECTION
  2
HEADER
  9
$EXTMIN
 10
-210.0
 20
-148.5
  9
$EXTMAX
 10
210.0
 20
148.5
  9
$PDMODE
 70
    32
  9
$PDSIZE
 40
1.5
  9
$LTSCALE
 40
10.0
  0
ENDSEC
  0
SECTION
  2
TABLES
  0
TABLE
  2
LTYPE
 70
    15
  0
LTYPE
  2
CONTINUOUS
 70
    64
  3
実線
 72
    65
 73
     0
 40
0.0
  0
LTYPE
  2
DASHED
 70
    64
  3
破線A
 72
    65
 73
     2
 40
0.6
 49
0.4
 49
-0.2
  0
LTYPE
  2
DASHEDX2
 70
    64
  3
破線B
 72
    65
 73
     2
 40
1.3
 49
0.9
 49
-0.4
  0
LTYPE
  2
DASHDOT
 70
    64
  3
１点鎖線A
 72
    65
 73
     4
 40
0.5375
 49
0.375
 49
-0.05
 49
0.0625
 49
-0.05
  0
LTYPE
  2
DASHDOTX2
 70
    64
  3
１点鎖線B
 72
    65
 73
     4
 40
1.075
 49
0.75
 49
-0.1
 49
0.125
 49
-0.1
  0
LTYPE
  2
DIVIDE2
 70
    64
  3
２点鎖線A
 72
    65
 73
     6
 40
0.5125
 49
0.3
 49
-0.0375
 49
0.05
 49
-0.0375
 49
0.05
 49
-0.0375
  0
LTYPE
  2
DIVIDE
 70
    64
  3
２点鎖線B
 72
    65
 73
     6
 40
1.05
 49
0.55
 49
-0.1
 49
0.1
 49
-0.1
 49
0.1
 49
-0.1
  0
LTYPE
  2
DOT
 70
    64
  3
点線A
 72
    65
 73
     2
 40
0.1125
 49
0.0625
 49
-0.05
  0
LTYPE
  2
DOTX2
 70
    64
  3
点線B
 72
    65
 73
     2
 40
0.275
 49
0.15
 49
-0.125
  0
LTYPE
  2
CONTINUOUS
 70
    64
  3
実線
 72
    65
 73
     0
 40
0.0
  0
LTYPE
  2
CONTINUOUS
 70
    64
  3
実線
 72
    65
 73
     0
 40
0.0
  0
LTYPE
  2
CONTINUOUS
 70
    64
  3
実線
 72
    65
 73
     0
 40
0.0
  0
LTYPE
  2
CONTINUOUS
 70
    64
  3
実線
 72
    65
 73
     0
 40
0.0
  0
LTYPE
  2
CONTINUOUS
 70
    64
  3
実線
 72
    65
 73
     0
 40
0.0
  0
LTYPE
  2
CONTINUOUS
 70
    64
  3
実線
 72
    65
 73
     0
 40
0.0
  0
ENDTAB
  0
TABLE
  2
LAYER
 70
    34
  0
LAYER
  2
通り芯
 70
     0
 62
    15
  6
CONTINUOUS
  0
LAYER
  2
補助線
 70
     0
 62
    16
  6
DOT
  0
LAYER
  2
躯体
 70
     0
 62
    31
  6
CONTINUOUS
  0
LAYER
  2
型材
 70
     0
 62
    32
  6
CONTINUOUS
  0
LAYER
  2
型材断面
 70
     0
 62
    47
  6
CONTINUOUS
  0
LAYER
  2
ガラス
 70
     0
 62
    48
  6
CONTINUOUS
  0
LAYER
  2
ゴム等
 70
     0
 62
    63
  6
CONTINUOUS
  0
LAYER
  2
ボルト／ビス
 70
     0
 62
    64
  6
CONTINUOUS
  0
LAYER
  2
文字
 70
     0
 62
    79
  6
CONTINUOUS
  0
LAYER
  2
寸法
 70
     0
 62
    80
  6
CONTINUOUS
  0
LAYER
  2
ﾊｯﾁﾝｸﾞ
 70
     0
 62
    95
  6
CONTINUOUS
  0
LAYER
  2
別途部材
 70
     0
 62
    96
  6
CONTINUOUS
  0
LAYER
  2
曲げ物
 70
     0
 62
   111
  6
CONTINUOUS
  0
LAYER
  2
鉄骨等
 70
     0
 62
   112
  6
CONTINUOUS
  0
LAYER
  2
St
 70
     0
 62
   127
  6
CONTINUOUS
  0
LAYER
  2
その他部品等
 70
     0
 62
   128
  6
CONTINUOUS
  0
LAYER
  2
ｶﾞｽｹｯﾄ
 70
     0
 62
   143
  6
CONTINUOUS
  0
LAYER
  2
ｽｹｯﾁ
 70
     0
 62
    14
  6
CONTINUOUS
  0
LAYER
  2
0
 70
     0
 62
    17
  6
CONTINUOUS
  0
LAYER
  2
1
 70
     0
 62
    30
  6
CONTINUOUS
  0
LAYER
  2
4
 70
     0
 62
    33
  6
CONTINUOUS
  0
LAYER
  2
ﾚｲﾔ3
 70
     0
 62
    46
  6
CONTINUOUS
  0
LAYER
  2
外形線
 70
     0
 62
    49
  6
CONTINUOUS
  0
LAYER
  2
部品
 70
     0
 62
    14
  6
CONTINUOUS
  0
LAYER
  2
サッシ芯
 70
     0
 62
    17
  6
DASHDOTX2
  0
LAYER
  2
寸法線
 70
     0
 62
    62
  6
CONTINUOUS
  0
LAYER
  2
姿図外形線
 70
     0
 62
    65
  6
CONTINUOUS
  0
LAYER
  2
姿補助線
 70
     0
 62
    30
  6
CONTINUOUS
  0
LAYER
  2
透視線
 70
     0
 62
    78
  6
DOT
  0
LAYER
  2
用紙
 70
     0
 62
    81
  6
CONTINUOUS
  0
LAYER
  2
実線図枠
 70
     0
 62
    94
  6
CONTINUOUS
  0
LAYER
  2
補助図枠
 70
     0
 62
    97
  6
CONTINUOUS
  0
LAYER
  2
建具記号
 70
     0
 62
   110
  6
CONTINUOUS
  0
LAYER
  2
補助文字
 70
     0
 62
   113
  6
CONTINUOUS
  0
ENDTAB
  0
TABLE
  2
STYLE
 70
    10
  0
STYLE
  2
STANDARD
 70
     0
 40
1.0
 41
1.0
 42
1.0
 50
0.0
 71
     0
  3
TXT
  4
BIGFONT
  0
STYLE
  2
TATE
 70
     4
 40
1.0
 41
1.0
 42
1.0
 50
0.0
 71
     0
  3
TXT
  4
BIGFONT
  0
STYLE
  2
TextStyle03
 70
     0
 40
1.0
 41
1.0
 42
1.0
 50
0.0
 71
     0
  3
MONOTXT
  4
BIGFONT
  0
STYLE
  2
TextStyle04
 70
     0
 40
1.0
 41
1.0
 42
1.0
 50
0.0
 71
     0
  3
MONOTXT
  4
BIGFONT
  0
STYLE
  2
TextStyle05
 70
     0
 40
1.0
 41
1.0
 42
1.0
 50
0.0
 71
     0
  3
MONOTXT
  4
BIGFONT
  0
STYLE
  2
TextStyle06
 70
     0
 40
1.0
 41
1.0
 42
1.0
 50
0.0
 71
     0
  3
MONOTXT
  4
BIGFONT
  0
STYLE
  2
TextStyle07
 70
     0
 40
1.0
 41
1.0
 42
1.0
 50
0.0
 71
     0
  3
MONOTXT
  4
BIGFONT
  0
STYLE
  2
TextStyle08
 70
     0
 40
1.0
 41
1.0
 42
1.0
 50
0.0
 71
     0
  3
MONOTXT
  4
BIGFONT
  0
STYLE
  2
TextStyle09
 70
     0
 40
1.0
 41
1.0
 42
1.0
 50
0.0
 71
     0
  3
MONOTXT
  4
BIGFONT
  0
STYLE
  2
TextStyle10
 70
     0
 40
1.0
 41
1.0
 42
1.0
 50
0.0
 71
     0
  3
MONOTXT
  4
BIGFONT
  0
ENDTAB
  0
ENDSEC
  0
SECTION
  2
BLOCKS
  0
BLOCK
  2
*HAT_0001
 70
    65
 10
0.0
 20
0.0
  0
LINE
  8
ゴム等
 10
-80.55
 20
-26.35
 11
-82.125
 21
-27.925
  0
LINE
  8
ゴム等
 10
-83.1
 20
-28.825
 11
-84.45
 21
-30.175
  0
LINE
  8
ゴム等
 10
-79.2
 20
-26.35
 11
-84.45
 21
-31.6
  0
LINE
  8
ゴム等
 10
-77.775
 20
-26.35
 11
-84.45
 21
-33.025
  0
LINE
  8
ゴム等
 10
-76.95
 20
-26.875
 11
-83.85
 21
-33.85
  0
LINE
  8
ゴム等
 10
-76.65
 20
-28.075
 11
-82.425
 21
-33.85
  0
LINE
  8
ゴム等
 10
-76.05
 20
-28.825
 11
-81.0
 21
-33.85
  0
LINE
  8
ゴム等
 10
-74.625
 20
-28.825
 11
-79.275
 21
-33.475
  0
LINE
  8
ゴム等
 10
-74.4
 20
-30.1
 11
-78.225
 21
-33.85
  0
LINE
  8
ゴム等
 10
-74.4
 20
-31.45
 11
-76.8
 21
-33.85
  0
LINE
  8
ゴム等
 10
-74.4
 20
-32.875
 11
-75.375
 21
-33.85
  0
ENDBLK
  0
BLOCK
  2
*HAT_0002
 70
    65
 10
0.0
 20
0.0
  0
LINE
  8
ゴム等
  6
DOT
 10
16.75
 20
-61.925
 11
18.325
 21
-60.35
  0
LINE
  8
ゴム等
  6
DOT
 10
19.3
 20
-59.45
 11
20.65
 21
-58.1
  0
LINE
  8
ゴム等
  6
DOT
 10
15.4
 20
-61.925
 11
20.65
 21
-56.675
  0
LINE
  8
ゴム等
  6
DOT
 10
13.975
 20
-61.925
 11
20.65
 21
-55.25
  0
LINE
  8
ゴム等
  6
DOT
 10
13.15
 20
-61.325
 11
20.05
 21
-54.425
  0
LINE
  8
ゴム等
  6
DOT
 10
12.85
 20
-60.2
 11
18.625
 21
-54.425
  0
LINE
  8
ゴム等
  6
DOT
 10
12.25
 20
-59.45
 11
17.2
 21
-54.425
  0
LINE
  8
ゴム等
  6
DOT
 10
10.825
 20
-59.45
 11
15.475
 21
-54.725
  0
LINE
  8
ゴム等
  6
DOT
 10
10.6
 20
-58.175
 11
14.425
 21
-54.425
  0
LINE
  8
ゴム等
  6
DOT
 10
10.6
 20
-56.75
 11
13.0
 21
-54.425
  0
LINE
  8
ゴム等
  6
DOT
 10
10.6
 20
-55.325
 11
11.575
 21
-54.425
  0
ENDBLK
  0
BLOCK
  2
*HAT_0003
 70
    65
 10
0.0
 20
0.0
  0
LINE
  8
ゴム等
  6
DOT
 10
113.125
 20
-40.55
 11
111.55
 21
-42.125
  0
LINE
  8
ゴム等
  6
DOT
 10
110.575
 20
-43.1
 11
109.225
 21
-44.45
  0
LINE
  8
ゴム等
  6
DOT
 10
113.125
 20
-39.2
 11
107.8
 21
-44.45
  0
LINE
  8
ゴム等
  6
DOT
 10
113.125
 20
-37.775
 11
106.45
 21
-44.45
  0
LINE
  8
ゴム等
  6
DOT
 10
112.525
 20
-36.95
 11
105.625
 21
-43.85
  0
LINE
  8
ゴム等
  6
DOT
 10
111.325
 20
-36.65
 11
105.625
 21
-42.425
  0
LINE
  8
ゴム等
  6
DOT
 10
110.575
 20
-36.05
 11
105.625
 21
-41.0
  0
LINE
  8
ゴム等
  6
DOT
 10
110.575
 20
-34.625
 11
105.925
 21
-39.275
  0
LINE
  8
ゴム等
  6
DOT
 10
109.375
 20
-34.4
 11
105.625
 21
-38.225
  0
LINE
  8
ゴム等
  6
DOT
 10
107.95
 20
-34.4
 11
105.625
 21
-36.8
  0
LINE
  8
ゴム等
  6
DOT
 10
106.525
 20
-34.4
 11
105.625
 21
-35.375
  0
ENDBLK
  0
BLOCK
  2
*HAT_0004
 70
    65
 10
0.0
 20
0.0
  0
LINE
  8
ゴム等
 10
7.6
 20
-44.15
 11
6.625
 21
-43.25
  0
LINE
  8
ゴム等
 10
7.6
 20
-46.025
 11
4.225
 21
-42.65
  0
LINE
  8
ゴム等
 10
1.6
 20
-40.025
 11
1.0
 21
-39.425
  0
LINE
  8
ゴム等
 10
7.6
 20
-47.9
 11
3.1
 21
-43.4
  0
LINE
  8
ゴム等
 10
1.6
 20
-41.9
 11
-0.875
 21
-39.425
  0
LINE
  8
ゴム等
 10
7.6
 20
-49.775
 11
6.025
 21
-48.2
  0
LINE
  8
ゴム等
 10
3.775
 20
-45.95
 11
-2.075
 21
-40.1
  0
LINE
  8
ゴム等
 10
7.375
 20
-51.5
 11
4.825
 21
-48.95
  0
LINE
  8
ゴム等
 10
2.05
 20
-46.1
 11
-2.6
 21
-41.45
  0
LINE
  8
ゴム等
 10
5.875
 20
-51.8
 11
2.95
 21
-48.95
  0
LINE
  8
ゴム等
 10
1.6
 20
-47.6
 11
-2.6
 21
-43.4
  0
LINE
  8
ゴム等
 10
4.375
 20
-52.175
 11
3.775
 21
-51.65
  0
LINE
  8
ゴム等
 10
3.625
 20
-51.425
 11
-2.6
 21
-45.2
  0
LINE
  8
ゴム等
 10
1.675
 20
-51.425
 11
-2.6
 21
-47.15
  0
LINE
  8
ゴム等
 10
1.6
 20
-53.225
 11
-2.6
 21
-49.025
  0
LINE
  8
ゴム等
 10
-0.125
 20
-53.45
 11
-2.6
 21
-50.9
  0
LINE
  8
ゴム等
 10
-1.1
 20
-54.275
 11
-2.6
 21
-52.775
  0
LINE
  8
ゴム等
 10
-1.325
 20
-55.925
 11
-2.6
 21
-54.65
  0
ENDBLK
  0
BLOCK
  2
*HAT_0005
 70
    65
 10
0.0
 20
0.0
  0
LINE
  8
ゴム等
 10
4.45
 20
-56.825
 11
3.4
 21
-55.85
  0
LINE
  8
ゴム等
 10
1.45
 20
-53.825
 11
1.375
 21
-53.825
  0
LINE
  8
ゴム等
 10
7.9
 20
-62.225
 11
6.55
 21
-60.875
  0
LINE
  8
ゴム等
 10
4.45
 20
-58.775
 11
1.525
 21
-55.85
  0
LINE
  8
ゴム等
 10
1.45
 20
-55.775
 11
-0.5
 21
-53.825
  0
LINE
  8
ゴム等
 10
7.9
 20
-64.175
 11
5.65
 21
-61.85
  0
LINE
  8
ゴム等
 10
4.45
 20
-60.65
 11
-1.1
 21
-55.175
  0
LINE
  8
ゴム等
 10
7.9
 20
-65.975
 11
-1.1
 21
-56.975
  0
LINE
  8
ゴム等
 10
7.3
 20
-67.325
 11
-1.1
 21
-58.925
  0
LINE
  8
ゴム等
 10
4.975
 20
-66.875
 11
-1.7
 21
-60.125
  0
LINE
  8
ゴム等
 10
4.45
 20
-68.15
 11
-2.15
 21
-61.625
  0
LINE
  8
ゴム等
 10
4.45
 20
-70.025
 11
-2.45
 21
-63.125
  0
LINE
  8
ゴム等
 10
3.325
 20
-70.85
 11
-2.6
 21
-64.925
  0
LINE
  8
ゴム等
 10
1.45
 20
-70.85
 11
-2.375
 21
-67.025
  0
LINE
  8
ゴム等
 10
-0.5
 20
-70.85
 11
-1.625
 21
-69.65
  0
ENDBLK
  0
BLOCK
  2
*HAT_0006
 70
    65
 10
0.0
 20
0.0
  0
LINE
  8
別途部材
  6
DOT
 10
126.1
 20
-75.875
 11
125.875
 21
-76.1
  0
LINE
  8
別途部材
  6
DOT
 10
126.1
 20
-73.4
 11
123.325
 21
-76.1
  0
LINE
  8
別途部材
  6
DOT
 10
126.1
 20
-70.85
 11
120.775
 21
-76.1
  0
LINE
  8
別途部材
  6
DOT
 10
126.1
 20
-68.3
 11
118.225
 21
-76.1
  0
LINE
  8
別途部材
  6
DOT
 10
125.725
 20
-66.125
 11
116.05
 21
-75.725
  0
LINE
  8
別途部材
  6
DOT
 10
123.175
 20
-66.125
 11
116.05
 21
-73.175
  0
LINE
  8
別途部材
  6
DOT
 10
120.625
 20
-66.125
 11
116.05
 21
-70.7
  0
LINE
  8
別途部材
  6
DOT
 10
118.075
 20
-66.125
 11
116.05
 21
-68.15
  0
ENDBLK
  0
BLOCK
  2
*HAT_0007
 70
    65
 10
0.0
 20
0.0
  0
LINE
  8
ﾊｯﾁﾝｸﾞ
 10
-101.95
 20
23.75
 11
-103.6
 21
25.4
  0
LINE
  8
ﾊｯﾁﾝｸﾞ
 10
-101.95
 20
20.9
 11
-106.45
 21
25.4
  0
LINE
  8
ﾊｯﾁﾝｸﾞ
 10
-101.95
 20
18.05
 11
-109.3
 21
25.4
  0
LINE
  8
ﾊｯﾁﾝｸﾞ
 10
-104.125
 20
17.45
 11
-112.075
 21
25.4
  0
LINE
  8
ﾊｯﾁﾝｸﾞ
 10
-106.9
 20
17.45
 11
-112.75
 21
23.225
  0
LINE
  8
ﾊｯﾁﾝｸﾞ
 10
-109.75
 20
17.45
 11
-112.75
 21
20.375
  0
LINE
  8
ﾊｯﾁﾝｸﾞ
 10
-112.525
 20
17.45
 11
-112.75
 21
17.6
  0
LINE
  8
ﾊｯﾁﾝｸﾞ
 10
-101.95
 20
17.375
 11
-101.95
 21
17.45
  0
LINE
  8
ﾊｯﾁﾝｸﾞ
 10
-104.8
 20
17.375
 11
-101.95
 21
20.225
  0
LINE
  8
ﾊｯﾁﾝｸﾞ
 10
-107.65
 20
17.375
 11
-101.95
 21
23.075
  0
LINE
  8
ﾊｯﾁﾝｸﾞ
 10
-110.425
 20
17.375
 11
-102.475
 21
25.4
  0
LINE
  8
ﾊｯﾁﾝｸﾞ
 10
-112.75
 20
17.9
 11
-105.25
 21
25.4
  0
LINE
  8
ﾊｯﾁﾝｸﾞ
 10
-112.75
 20
20.75
 11
-108.1
 21
25.4
  0
LINE
  8
ﾊｯﾁﾝｸﾞ
 10
-112.75
 20
23.6
 11
-110.875
 21
25.4
  0
ENDBLK
  0
BLOCK
  2
*GRP_0001
 70
    65
 10
0.0
 20
0.0
  0
LINE
  8
型材断面
  6
CONTINUOUS
 10
195.0
 20
133.5
 11
195.0
 21
-133.5
  0
LINE
  8
型材断面
  6
CONTINUOUS
 10
195.0
 20
-133.5
 11
-185.0
 21
-133.5
  0
LINE
  8
型材断面
  6
CONTINUOUS
 10
-185.0
 20
-133.5
 11
-185.0
 21
133.5
  0
LINE
  8
型材断面
  6
CONTINUOUS
 10
195.0
 20
133.5
 11
-185.0
 21
133.5
  0
LINE
  8
型材断面
  6
CONTINUOUS
 10
145.0
 20
-133.5
 11
145.0
 21
-118.5
  0
LINE
  8
型材断面
  6
CONTINUOUS
 10
195.0
 20
-118.5
 11
145.0
 21
-118.5
  0
ENDBLK
  0
BLOCK
  2
*GRP_0002
 70
    65
 10
0.0
 20
0.0
  0
LINE
  8
通り芯
  6
CONTINUOUS
 10
-71.660985
 20
-14.50494
 11
-61.560945
 21
-14.50494
  0
LINE
  8
通り芯
  6
CONTINUOUS
 10
-71.660985
 20
3.39066
 11
-73.960988
 21
3.39066
  0
LINE
  8
通り芯
  6
CONTINUOUS
 10
-89.16099
 20
-1.609343
 11
-87.66099
 21
-1.609343
  0
LINE
  8
通り芯
  6
CONTINUOUS
 10
-87.66099
 20
-3.80934
 11
-87.66099
 21
-1.609343
  0
LINE
  8
通り芯
  6
CONTINUOUS
 10
-71.660985
 20
3.39066
 11
-71.660985
 21
-3.80934
  0
LINE
  8
通り芯
  6
CONTINUOUS
 10
-89.16099
 20
-1.609343
 11
-89.16099
 21
-3.80934
  0
LINE
  8
通り芯
  6
CONTINUOUS
 10
-71.660985
 20
-3.80934
 11
-87.66099
 21
-3.80934
  0
LINE
  8
通り芯
  6
CONTINUOUS
 10
-89.16099
 20
-3.80934
 11
-91.461007
 21
-3.80934
  0
LINE
  8
通り芯
  6
CONTINUOUS
 10
-91.461007
 20
-5.30934
 11
-91.461007
 21
-3.80934
  0
LINE
  8
通り芯
  6
CONTINUOUS
 10
-71.660985
 20
-14.50494
 11
-71.660985
 21
-5.30934
  0
LINE
  8
通り芯
  6
CONTINUOUS
 10
-69.660945
 20
-13.00494
 11
-69.661013
 21
25.190655
  0
LINE
  8
通り芯
  6
CONTINUOUS
 10
-71.66097
 20
4.89066
 11
-71.661023
 21
23.990647
  0
LINE
  8
通り芯
  6
CONTINUOUS
 10
-69.661013
 20
25.190655
 11
-73.661025
 21
25.19064
  0
LINE
  8
通り芯
  6
CONTINUOUS
 10
-73.661025
 20
25.19064
 11
-73.661025
 21
23.990647
  0
LINE
  8
通り芯
  6
CONTINUOUS
 10
-71.661023
 20
23.990647
 11
-73.661025
 21
23.990647
  0
LINE
  8
通り芯
  6
CONTINUOUS
 10
-71.660985
 20
4.89066
 11
-75.460988
 21
4.89066
  0
LINE
  8
通り芯
  6
CONTINUOUS
 10
-75.460988
 20
4.89066
 11
-75.460988
 21
0.890662
  0
LINE
  8
通り芯
  6
CONTINUOUS
 10
-75.460988
 20
0.890662
 11
-73.960988
 21
0.890662
  0
LINE
  8
通り芯
  6
CONTINUOUS
 10
-73.960988
 20
3.39066
 11
-73.960988
 21
0.890662
  0
LINE
  8
通り芯
  6
CONTINUOUS
 10
-64.560945
 20
-13.30494
 11
-64.860945
 21
-13.00494
  0
LINE
  8
通り芯
  6
CONTINUOUS
 10
-64.560945
 20
-13.30494
 11
-64.260945
 21
-13.00494
  0
LINE
  8
通り芯
  6
CONTINUOUS
 10
-66.860948
 20
-13.00494
 11
-66.860948
 21
-11.80494
  0
LINE
  8
通り芯
  6
CONTINUOUS
 10
-62.260942
 20
-11.80494
 11
-61.560945
 21
-11.80494
  0
LINE
  8
通り芯
  6
CONTINUOUS
 10
-64.260945
 20
-13.00494
 11
-62.260942
 21
-13.00494
  0
LINE
  8
通り芯
  6
CONTINUOUS
 10
-62.260942
 20
-11.80494
 11
-62.260942
 21
-13.00494
  0
LINE
  8
通り芯
  6
CONTINUOUS
 10
-66.860948
 20
-13.00494
 11
-64.860945
 21
-13.00494
  0
LINE
  8
通り芯
  6
CONTINUOUS
 10
-66.860948
 20
-11.80494
 11
-67.560945
 21
-11.80494
  0
LINE
  8
通り芯
  6
CONTINUOUS
 10
-67.560945
 20
-11.80494
 11
-67.560945
 21
-13.00494
  0
LINE
  8
通り芯
  6
CONTINUOUS
 10
-69.660945
 20
-13.00494
 11
-67.560945
 21
-13.00494
  0
LINE
  8
通り芯
  6
CONTINUOUS
 10
-61.560945
 20
-14.50494
 11
-61.560945
 21
-11.80494
  0
LINE
  8
通り芯
  6
CONTINUOUS
 10
-84.46101
 20
-8.60934
 11
-84.46101
 21
-5.30934
  0
LINE
  8
通り芯
  6
CONTINUOUS
 10
-71.660985
 20
-5.30934
 11
-84.46101
 21
-5.30934
  0
LINE
  8
通り芯
  6
CONTINUOUS
 10
-85.96101
 20
-7.10934
 11
-85.96101
 21
-5.30934
  0
LINE
  8
通り芯
  6
CONTINUOUS
 10
-91.461007
 20
-5.30934
 11
-85.96101
 21
-5.30934
  0
LINE
  8
通り芯
  6
CONTINUOUS
 10
-84.46101
 20
-8.60934
 11
-88.96101
 21
-8.60934
  0
LINE
  8
通り芯
  6
CONTINUOUS
 10
-88.96101
 20
-8.60934
 11
-88.96101
 21
-7.10934
  0
LINE
  8
通り芯
  6
CONTINUOUS
 10
-85.96101
 20
-7.10934
 11
-88.96101
 21
-7.10934
  0
ENDBLK
  0
BLOCK
  2
*GRP_0003
 70
    65
 10
0.0
 20
0.0
  0
LINE
  8
通り芯
  6
CONTINUOUS
 10
-16.61423
 20
-75.904933
 11
-16.61423
 21
-73.90493
  0
LINE
  8
通り芯
  6
CONTINUOUS
 10
-20.114225
 20
-75.904933
 11
-20.114225
 21
-73.90493
  0
LINE
  8
通り芯
  6
CONTINUOUS
 10
-20.114225
 20
-75.40493
 11
-16.61423
 21
-75.40493
  0
LINE
  8
通り芯
  6
CONTINUOUS
 10
-20.114225
 20
-74.904928
 11
-16.61423
 21
-74.904928
  0
LINE
  8
通り芯
  6
CONTINUOUS
 10
-20.114225
 20
-74.404933
 11
-16.61423
 21
-74.404933
  0
INSERT
  2
*GRP_0081
  8
通り芯
  6
CONTINUOUS
 10
0.0
 20
0.0
  0
LINE
  8
型材断面
  6
CONTINUOUS
 10
-20.114225
 20
-76.904937
 11
-16.614222
 21
-76.904937
  0
LINE
  8
型材断面
  6
CONTINUOUS
 10
-20.114225
 20
-76.404935
 11
-16.614222
 21
-76.404935
  0
LINE
  8
型材断面
  6
CONTINUOUS
 10
-20.114225
 20
-75.904933
 11
-20.114225
 21
-77.404943
  0
LINE
  8
型材断面
  6
CONTINUOUS
 10
-16.614222
 20
-75.904933
 11
-16.614222
 21
-77.404943
  0
LINE
  8
型材断面
  6
CONTINUOUS
 10
-18.364228
 20
-70.47608
 11
-18.364228
 21
-80.895388
  0
ENDBLK
  0
BLOCK
  2
*GRP_0004
 70
    65
 10
0.0
 20
0.0
  0
LINE
  8
通り芯
  6
CONTINUOUS
 10
-38.69973
 20
-66.206125
 11
-37.152862
 21
-64.93837
  0
LINE
  8
通り芯
  6
CONTINUOUS
 10
-40.9183
 20
-63.499112
 11
-39.37143
 21
-62.231358
  0
LINE
  8
通り芯
  6
CONTINUOUS
 10
-40.53158
 20
-63.182172
 11
-38.313012
 21
-65.889185
  0
LINE
  8
通り芯
  6
CONTINUOUS
 10
-40.144863
 20
-62.865233
 11
-37.926293
 21
-65.572245
  0
LINE
  8
通り芯
  6
CONTINUOUS
 10
-39.75815
 20
-62.548297
 11
-37.53958
 21
-65.25531
  0
INSERT
  2
*GRP_0082
  8
通り芯
  6
CONTINUOUS
 10
0.0
 20
0.0
  0
LINE
  8
型材断面
  6
CONTINUOUS
 10
-41.691735
 20
-64.132995
 11
-39.473163
 21
-66.840013
  0
LINE
  8
型材断面
  6
CONTINUOUS
 10
-41.305018
 20
-63.816053
 11
-39.086445
 21
-66.523073
  0
LINE
  8
型材断面
  6
CONTINUOUS
 10
-40.9183
 20
-63.499112
 11
-42.078457
 21
-64.449935
  0
LINE
  8
型材断面
  6
CONTINUOUS
 10
-38.699725
 20
-66.206132
 11
-39.859883
 21
-67.156955
  0
LINE
  8
型材断面
  6
CONTINUOUS
 10
-35.61016
 20
-61.411392
 11
-43.6688
 21
-68.015957
  0
ENDBLK
  0
BLOCK
  2
*GRP_0005
 70
    65
 10
0.0
 20
0.0
  0
LINE
  8
通り芯
  6
CONTINUOUS
 10
-57.3528
 20
-43.446357
 11
-55.805933
 21
-42.178603
  0
LINE
  8
通り芯
  6
CONTINUOUS
 10
-59.57137
 20
-40.739345
 11
-58.0245
 21
-39.47159
  0
LINE
  8
通り芯
  6
CONTINUOUS
 10
-59.18465
 20
-40.422405
 11
-56.966082
 21
-43.129418
  0
LINE
  8
通り芯
  6
CONTINUOUS
 10
-58.797933
 20
-40.105465
 11
-56.579363
 21
-42.812478
  0
LINE
  8
通り芯
  6
CONTINUOUS
 10
-58.41122
 20
-39.78853
 11
-56.19265
 21
-42.495543
  0
INSERT
  2
*GRP_0083
  8
通り芯
  6
CONTINUOUS
 10
0.0
 20
0.0
  0
LINE
  8
型材断面
  6
CONTINUOUS
 10
-60.344805
 20
-41.373228
 11
-58.126232
 21
-44.080245
  0
LINE
  8
型材断面
  6
CONTINUOUS
 10
-59.958087
 20
-41.056285
 11
-57.739515
 21
-43.763305
  0
LINE
  8
型材断面
  6
CONTINUOUS
 10
-59.57137
 20
-40.739345
 11
-60.731527
 21
-41.690168
  0
LINE
  8
型材断面
  6
CONTINUOUS
 10
-57.352795
 20
-43.446365
 11
-58.512953
 21
-44.397188
  0
LINE
  8
型材断面
  6
CONTINUOUS
 10
-54.26323
 20
-38.651625
 11
-62.32187
 21
-45.25619
  0
ENDBLK
  0
BLOCK
  2
*GRP_0006
 70
    65
 10
0.0
 20
0.0
  0
LINE
  8
通り芯
  6
CONTINUOUS
 10
-16.61423
 20
-75.904933
 11
-16.61423
 21
-73.90493
  0
LINE
  8
通り芯
  6
CONTINUOUS
 10
-20.114225
 20
-75.904933
 11
-20.114225
 21
-73.90493
  0
LINE
  8
通り芯
  6
CONTINUOUS
 10
-20.114225
 20
-75.40493
 11
-16.61423
 21
-75.40493
  0
LINE
  8
通り芯
  6
CONTINUOUS
 10
-20.114225
 20
-74.904928
 11
-16.61423
 21
-74.904928
  0
LINE
  8
通り芯
  6
CONTINUOUS
 10
-20.114225
 20
-74.404933
 11
-16.61423
 21
-74.404933
  0
INSERT
  2
*GRP_0084
  8
通り芯
  6
CONTINUOUS
 10
0.0
 20
0.0
  0
LINE
  8
型材断面
  6
CONTINUOUS
 10
-20.114225
 20
-76.904937
 11
-16.614222
 21
-76.904937
  0
LINE
  8
型材断面
  6
CONTINUOUS
 10
-20.114225
 20
-76.404935
 11
-16.614222
 21
-76.404935
  0
LINE
  8
型材断面
  6
CONTINUOUS
 10
-20.114225
 20
-75.904933
 11
-20.114225
 21
-77.404943
  0
LINE
  8
型材断面
  6
CONTINUOUS
 10
-16.614222
 20
-75.904933
 11
-16.614222
 21
-77.404943
  0
LINE
  8
型材断面
  6
CONTINUOUS
 10
-18.364228
 20
-70.47608
 11
-18.364228
 21
-80.895388
  0
ENDBLK
  0
BLOCK
  2
*GRP_0007
 70
    65
 10
0.0
 20
0.0
  0
POLYLINE
  8
寸法
  6
BYBLOCK
 62
     0
 66
     1
  0
VERTEX
  8
寸法
 10
-60.060945
 20
-9.206865
  0
VERTEX
  8
寸法
 10
-61.560945
 20
-11.80494
  0
VERTEX
  8
寸法
 10
-58.96287
 20
-10.30494
  0
SEQEND
  0
POLYLINE
  8
寸法
  6
BYBLOCK
 62
     0
 66
     1
  0
VERTEX
  8
寸法
 10
-61.560945
 20
-11.80494
  0
VERTEX
  8
寸法
 10
-54.733975
 20
-4.97797
  0
VERTEX
  8
寸法
 10
-54.733975
 20
15.389378
  0
SEQEND
  0
ENDBLK
  0
BLOCK
  2
*GRP_0008
 70
    65
 10
0.0
 20
0.0
  0
LINE
  8
通り芯
  6
CONTINUOUS
 10
11.83905
 20
-75.90495
 11
11.83905
 21
-73.904947
  0
LINE
  8
通り芯
  6
CONTINUOUS
 10
11.83905
 20
-73.904947
 11
124.13904
 21
-73.904947
  0
LINE
  8
通り芯
  6
CONTINUOUS
 10
11.83905
 20
-75.90495
 11
124.13904
 21
-75.90495
  0
ARC
  8
通り芯
  6
CONTINUOUS
 10
124.139045
 20
-73.904952
 40
2.0
 50
-90.0
 51
0.0
  0
INSERT
  2
*GRP_0085
  8
通り芯
  6
DOT
 10
0.0
 20
0.0
  0
INSERT
  2
*GRP_0086
  8
通り芯
  6
DOT
 10
0.0
 20
0.0
  0
LINE
  8
通り芯
  6
CONTINUOUS
 10
126.139042
 20
-73.904947
 11
126.139042
 21
-46.404958
  0
LINE
  8
通り芯
  6
CONTINUOUS
 10
124.13904
 20
-73.904947
 11
124.13904
 21
-46.404958
  0
LINE
  8
通り芯
  6
CONTINUOUS
 10
126.139042
 20
-46.404958
 11
124.13904
 21
-46.404958
  0
ENDBLK
  0
BLOCK
  2
*GRP_0009
 70
    65
 10
0.0
 20
0.0
  0
ARC
  8
型材断面
  6
CONTINUOUS
 62
    47
 10
-73.661032
 20
18.690633
 40
1.0
 50
89.999795
 51
269.999795
  0
ARC
  8
型材断面
  6
CONTINUOUS
 62
    47
 10
-72.661039
 20
16.69063
 40
1.0
 50
359.999795
 51
449.999795
  0
ARC
  8
型材断面
  6
CONTINUOUS
 62
    47
 10
-72.661025
 20
20.69063
 40
1.0
 50
269.999795
 51
359.999795
  0
LINE
  8
型材断面
  6
CONTINUOUS
 62
    47
 10
-76.161045
 20
13.69065
 11
-76.161007
 21
23.690647
  0
LINE
  8
型材断面
  6
CONTINUOUS
 62
    47
 10
-72.66102
 20
19.690635
 11
-73.661025
 21
19.690635
  0
LINE
  8
型材断面
  6
CONTINUOUS
 62
    47
 10
-72.661028
 20
17.690632
 11
-73.661025
 21
17.69064
  0
LINE
  8
型材断面
  6
CONTINUOUS
 62
    47
 10
-74.661045
 20
12.190635
 11
-74.66103
 21
16.19064
  0
LINE
  8
型材断面
  6
CONTINUOUS
 62
    47
 10
-74.661015
 20
21.190635
 11
-74.661
 21
25.19064
  0
LINE
  8
型材断面
  6
CONTINUOUS
 62
    47
 10
-74.66103
 20
16.19064
 11
-73.16103
 21
16.190632
  0
LINE
  8
型材断面
  6
CONTINUOUS
 62
    47
 10
-73.161038
 20
14.690632
 11
-73.16103
 21
16.190632
  0
LINE
  8
型材断面
  6
CONTINUOUS
 62
    47
 10
-73.161007
 20
22.690635
 11
-73.161015
 21
21.190635
  0
LINE
  8
型材断面
  6
CONTINUOUS
 62
    47
 10
-74.661015
 20
21.190635
 11
-73.161015
 21
21.190635
  0
LINE
  8
型材断面
  6
CONTINUOUS
 62
    47
 10
-74.661
 20
25.19064
 11
-81.161002
 21
25.190662
  0
LINE
  8
型材断面
  6
CONTINUOUS
 62
    47
 10
-79.661017
 20
21.190658
 11
-79.66101
 21
23.690655
  0
LINE
  8
型材断面
  6
CONTINUOUS
 62
    47
 10
-79.661032
 20
16.190655
 11
-79.66104
 21
13.690658
  0
LINE
  8
型材断面
  6
CONTINUOUS
 62
    47
 10
-81.161048
 20
12.190665
 11
-81.16104
 21
15.590662
  0
LINE
  8
型材断面
  6
CONTINUOUS
 62
    47
 10
-80.561032
 20
16.190662
 11
-79.661032
 21
16.190655
  0
LINE
  8
型材断面
  6
CONTINUOUS
 62
    47
 10
-81.16104
 20
15.590662
 11
-80.561032
 21
16.190662
  0
LINE
  8
型材断面
  6
CONTINUOUS
 62
    47
 10
-80.561017
 20
21.190665
 11
-79.661017
 21
21.190658
  0
LINE
  8
型材断面
  6
CONTINUOUS
 62
    47
 10
-81.16101
 20
21.790665
 11
-81.161002
 21
25.190662
  0
LINE
  8
型材断面
  6
CONTINUOUS
 62
    47
 10
-80.561017
 20
21.190665
 11
-81.16101
 21
21.790665
  0
LINE
  8
型材断面
  6
CONTINUOUS
 62
    47
 10
-76.161007
 20
23.690647
 11
-79.66101
 21
23.690655
  0
LINE
  8
型材断面
  6
CONTINUOUS
 62
    47
 10
-76.161045
 20
13.69065
 11
-79.66104
 21
13.690658
  0
LINE
  8
型材断面
  6
CONTINUOUS
 62
    47
 10
-74.661045
 20
12.190635
 11
-81.161048
 21
12.190665
  0
LINE
  8
型材断面
  6
CONTINUOUS
 62
    47
 10
-72.16101
 20
22.690635
 11
-73.161007
 21
22.690635
  0
LINE
  8
型材断面
  6
CONTINUOUS
 62
    47
 10
-71.661015
 20
20.690625
 11
-71.661015
 21
22.190625
  0
LINE
  8
型材断面
  6
CONTINUOUS
 62
    47
 10
-72.16101
 20
22.690635
 11
-71.661015
 21
22.190625
  0
LINE
  8
型材断面
  6
CONTINUOUS
 62
    47
 10
-72.16104
 20
14.690632
 11
-73.161038
 21
14.690632
  0
LINE
  8
型材断面
  6
CONTINUOUS
 62
    47
 10
-71.661038
 20
15.190627
 11
-71.66103
 21
16.690627
  0
LINE
  8
型材断面
  6
CONTINUOUS
 62
    47
 10
-72.16104
 20
14.690632
 11
-71.661038
 21
15.190627
  0
ENDBLK
  0
BLOCK
  2
*GRP_0010
 70
    65
 10
0.0
 20
0.0
  0
LINE
  8
型材断面
  6
CONTINUOUS
 62
    47
 10
110.839042
 20
-36.405045
 11
110.839042
 21
-34.405043
  0
LINE
  8
型材断面
  6
CONTINUOUS
 62
    47
 10
110.839042
 20
-34.405043
 11
112.339042
 21
-34.405043
  0
LINE
  8
型材断面
  6
CONTINUOUS
 62
    47
 10
114.837593
 20
-39.405045
 11
115.137593
 21
-39.105045
  0
LINE
  8
型材断面
  6
CONTINUOUS
 62
    47
 10
114.837593
 20
-39.405045
 11
115.137593
 21
-39.705045
  0
LINE
  8
型材断面
  6
CONTINUOUS
 62
    47
 10
110.839042
 20
-36.405045
 11
113.637593
 21
-36.964747
  0
LINE
  8
型材断面
  6
CONTINUOUS
 62
    47
 10
112.339042
 20
-34.405043
 11
112.339042
 21
-35.405048
  0
LINE
  8
型材断面
  6
CONTINUOUS
 62
    47
 10
112.339042
 20
-35.405048
 11
115.137593
 21
-35.405048
  0
LINE
  8
型材断面
  6
CONTINUOUS
 62
    47
 10
115.137593
 20
-39.105045
 11
115.137593
 21
-35.405048
  0
LINE
  8
型材断面
  6
CONTINUOUS
 62
    47
 10
5.239042
 20
-61.809893
 11
4.639042
 21
-61.209893
  0
LINE
  8
型材断面
  6
CONTINUOUS
 62
    47
 10
4.639042
 20
-59.504993
 11
4.639042
 21
-61.209893
  0
LINE
  8
型材断面
  6
CONTINUOUS
 62
    47
 10
5.239042
 20
-61.809893
 11
5.839042
 21
-61.809893
  0
LINE
  8
型材断面
  6
CONTINUOUS
 62
    47
 10
5.239042
 20
-66.909893
 11
5.839042
 21
-66.909893
  0
LINE
  8
型材断面
  6
CONTINUOUS
 62
    47
 10
5.239042
 20
-66.909893
 11
4.639042
 21
-67.509893
  0
LINE
  8
型材断面
  6
CONTINUOUS
 62
    47
 10
5.839042
 20
-61.809893
 11
5.839042
 21
-60.704993
  0
LINE
  8
型材断面
  6
CONTINUOUS
 62
    47
 10
5.839042
 20
-60.704993
 11
8.339048
 21
-60.704993
  0
LINE
  8
型材断面
  6
CONTINUOUS
 62
    47
 10
5.839042
 20
-66.909893
 11
5.839042
 21
-68.009895
  0
LINE
  8
型材断面
  6
CONTINUOUS
 62
    47
 10
5.839042
 20
-68.009895
 11
8.339048
 21
-68.009895
  0
LINE
  8
型材断面
  6
CONTINUOUS
 62
    47
 10
8.339048
 20
-60.704993
 11
8.339048
 21
-68.009895
  0
LINE
  8
型材断面
  6
CONTINUOUS
 62
    47
 10
9.839048
 20
-61.504995
 11
9.839048
 21
-69.509895
  0
LINE
  8
型材断面
  6
CONTINUOUS
 62
    47
 10
9.839048
 20
-69.509895
 11
6.139042
 21
-69.509895
  0
LINE
  8
型材断面
  6
CONTINUOUS
 62
    47
 10
4.639042
 20
-67.509893
 11
4.639042
 21
-71.504993
  0
LINE
  8
型材断面
  6
CONTINUOUS
 62
    47
 10
6.139042
 20
-69.509895
 11
6.139042
 21
-70.883692
  0
LINE
  8
型材断面
  6
CONTINUOUS
 62
    47
 10
4.639042
 20
-71.504993
 11
10.539045
 21
-77.405047
  0
LINE
  8
型材断面
  6
CONTINUOUS
 62
    47
 10
18.837548
 20
-59.504993
 11
20.837543
 21
-59.504993
  0
LINE
  8
型材断面
  6
CONTINUOUS
 62
    47
 10
20.837543
 20
-61.004993
 11
20.067293
 21
-61.004993
  0
LINE
  8
型材断面
  6
CONTINUOUS
 62
    47
 10
20.837543
 20
-59.504993
 11
20.837543
 21
-61.004993
  0
LINE
  8
型材断面
  6
CONTINUOUS
 62
    47
 10
13.437548
 20
-64.304993
 11
18.237548
 21
-64.304993
  0
LINE
  8
型材断面
  6
CONTINUOUS
 62
    47
 10
12.937545
 20
-63.804997
 11
13.437548
 21
-64.304993
  0
LINE
  8
型材断面
  6
CONTINUOUS
 62
    47
 10
18.737543
 20
-63.804997
 11
18.237548
 21
-64.304993
  0
LINE
  8
型材断面
  6
CONTINUOUS
 62
    47
 10
12.937545
 20
-63.804997
 11
12.167843
 21
-63.804997
  0
LINE
  8
型材断面
  6
CONTINUOUS
 62
    47
 10
18.837548
 20
-59.504993
 11
18.277545
 21
-62.304997
  0
LINE
  8
型材断面
  6
CONTINUOUS
 62
    47
 10
18.737543
 20
-63.804997
 11
19.507245
 21
-63.804997
  0
LINE
  8
型材断面
  6
CONTINUOUS
 62
    47
 10
20.067293
 20
-61.004993
 11
19.507245
 21
-63.804997
  0
LINE
  8
型材断面
  6
CONTINUOUS
 62
    47
 10
15.837548
 20
-62.604997
 11
15.537548
 21
-62.304997
  0
LINE
  8
型材断面
  6
CONTINUOUS
 62
    47
 10
15.837548
 20
-62.604997
 11
16.137548
 21
-62.304997
  0
LINE
  8
型材断面
  6
CONTINUOUS
 62
    47
 10
13.397543
 20
-62.304997
 11
15.537548
 21
-62.304997
  0
LINE
  8
型材断面
  6
CONTINUOUS
 62
    47
 10
16.137548
 20
-62.304997
 11
18.277545
 21
-62.304997
  0
LINE
  8
型材断面
  6
CONTINUOUS
 62
    47
 10
9.839048
 20
-61.504995
 11
11.707845
 21
-61.504995
  0
LINE
  8
型材断面
  6
CONTINUOUS
 62
    47
 10
12.167843
 20
-63.804997
 11
11.707845
 21
-61.504995
  0
LINE
  8
型材断面
  6
CONTINUOUS
 62
    47
 10
4.639042
 20
-59.504993
 11
12.837548
 21
-59.504993
  0
LINE
  8
型材断面
  6
CONTINUOUS
 62
    47
 10
13.397543
 20
-62.304997
 11
12.837548
 21
-59.504993
  0
LINE
  8
型材断面
  6
CONTINUOUS
 62
    47
 10
6.139042
 20
-70.883692
 11
7.160392
 21
-71.905043
  0
LINE
  8
型材断面
  6
CONTINUOUS
 62
    47
 10
8.660347
 20
-73.405043
 11
11.160345
 21
-75.905047
  0
LINE
  8
型材断面
  6
CONTINUOUS
 62
    47
 10
7.160392
 20
-71.905043
 11
13.337543
 21
-71.905043
  0
LINE
  8
型材断面
  6
CONTINUOUS
 62
    47
 10
13.337543
 20
-71.905043
 11
13.337543
 21
-73.405043
  0
LINE
  8
型材断面
  6
CONTINUOUS
 62
    47
 10
8.660347
 20
-73.405043
 11
13.337543
 21
-73.405043
  0
LINE
  8
型材断面
  6
CONTINUOUS
 62
    47
 10
112.339042
 20
-43.454745
 11
113.637593
 21
-43.454745
  0
LINE
  8
型材断面
  6
CONTINUOUS
 62
    47
 10
113.637593
 20
-41.845342
 11
110.839042
 21
-42.405045
  0
LINE
  8
型材断面
  6
CONTINUOUS
 62
    47
 10
113.637593
 20
-36.964747
 11
113.637593
 21
-41.845342
  0
LINE
  8
型材断面
  6
CONTINUOUS
 62
    47
 10
122.139045
 20
-77.105047
 11
122.439045
 21
-77.405047
  0
LINE
  8
型材断面
  6
CONTINUOUS
 62
    47
 10
127.639042
 20
-77.405047
 11
122.439045
 21
-77.405047
  0
LINE
  8
型材断面
  6
CONTINUOUS
 62
    47
 10
122.139045
 20
-77.105047
 11
121.839045
 21
-77.405047
  0
LINE
  8
型材断面
  6
CONTINUOUS
 62
    47
 10
10.539045
 20
-77.405047
 11
121.839045
 21
-77.405047
  0
LINE
  8
型材断面
  6
CONTINUOUS
 62
    47
 10
11.160345
 20
-75.905047
 11
126.139042
 21
-75.905047
  0
LINE
  8
型材断面
  6
CONTINUOUS
 62
    47
 10
126.139042
 20
-75.905047
 11
126.139042
 21
-45.905048
  0
LINE
  8
型材断面
  6
CONTINUOUS
 62
    47
 10
115.137593
 20
-44.405048
 11
127.639042
 21
-44.405048
  0
LINE
  8
型材断面
  6
CONTINUOUS
 62
    47
 10
137.739045
 20
-50.405048
 11
137.739045
 21
-52.405043
  0
LINE
  8
型材断面
  6
CONTINUOUS
 62
    47
 10
137.739045
 20
-50.405048
 11
127.639042
 21
-50.405048
  0
LINE
  8
型材断面
  6
CONTINUOUS
 62
    47
 10
127.639042
 20
-44.405048
 11
127.639042
 21
-50.405048
  0
LINE
  8
型材断面
  6
CONTINUOUS
 62
    47
 10
137.739045
 20
-52.405043
 11
127.639042
 21
-52.405043
  0
LINE
  8
型材断面
  6
CONTINUOUS
 62
    47
 10
127.639042
 20
-77.405047
 11
127.639042
 21
-52.405043
  0
LINE
  8
型材断面
  6
CONTINUOUS
 62
    47
 10
110.839042
 20
-42.405045
 11
110.839042
 21
-44.405048
  0
LINE
  8
型材断面
  6
CONTINUOUS
 62
    47
 10
110.839042
 20
-44.405048
 11
112.339042
 21
-44.405048
  0
LINE
  8
型材断面
  6
CONTINUOUS
 62
    47
 10
112.339042
 20
-43.454745
 11
112.339042
 21
-44.405048
  0
LINE
  8
型材断面
  6
CONTINUOUS
 62
    47
 10
117.137595
 20
-49.905045
 11
117.137595
 21
-48.405045
  0
LINE
  8
型材断面
  6
CONTINUOUS
 62
    47
 10
117.137595
 20
-49.905045
 11
113.637593
 21
-49.905045
  0
LINE
  8
型材断面
  6
CONTINUOUS
 62
    47
 10
113.637593
 20
-43.454745
 11
113.637593
 21
-49.905045
  0
LINE
  8
型材断面
  6
CONTINUOUS
 62
    47
 10
126.139042
 20
-45.905048
 11
115.137593
 21
-45.905048
  0
LINE
  8
型材断面
  6
CONTINUOUS
 62
    47
 10
115.137593
 20
-39.705045
 11
115.137593
 21
-44.405048
  0
LINE
  8
型材断面
  6
CONTINUOUS
 62
    47
 10
115.137593
 20
-45.905048
 11
115.137593
 21
-48.405045
  0
LINE
  8
型材断面
  6
CONTINUOUS
 62
    47
 10
117.137595
 20
-48.405045
 11
115.137593
 21
-48.405045
  0
ENDBLK
  0
BLOCK
  2
*GRP_0011
 70
    65
 10
0.0
 20
0.0
  0
LINE
  8
型材断面
  6
DOT
 10
126.139042
 20
-75.905047
 11
126.139042
 21
-77.405047
  0
LINE
  8
型材断面
  6
DOT
 10
118.13904
 20
-75.905047
 11
118.13904
 21
-77.405047
  0
LINE
  8
型材断面
  6
DOT
 10
118.13904
 20
-77.030047
 11
126.139042
 21
-77.030047
  0
LINE
  8
型材断面
  6
DOT
 10
118.13904
 20
-76.655047
 11
126.139042
 21
-76.655047
  0
LINE
  8
型材断面
  6
DOT
 10
118.13904
 20
-76.280047
 11
126.139042
 21
-76.280047
  0
ENDBLK
  0
BLOCK
  2
*GRP_0012
 70
    65
 10
0.0
 20
0.0
  0
ARC
  8
型材断面
  6
CONTINUOUS
 62
    47
 10
105.089044
 20
22.745025
 40
0.75
 50
180.0
 51
270.0
  0
LINE
  8
型材断面
  6
CONTINUOUS
 62
    47
 10
105.089048
 20
21.995062
 11
105.089048
 21
21.995062
  0
ARC
  8
型材断面
  6
CONTINUOUS
 62
    47
 10
105.089044
 20
22.745025
 40
0.75
 50
270.0
 51
360.0
  0
LINE
  8
型材断面
  6
CONTINUOUS
 62
    47
 10
99.339
 20
27.995062
 11
104.339048
 21
27.995062
  0
LINE
  8
型材断面
  6
CONTINUOUS
 62
    47
 10
104.339048
 20
22.745062
 11
104.339048
 21
27.995062
  0
LINE
  8
型材断面
  6
CONTINUOUS
 62
    47
 10
105.839048
 20
22.745062
 11
105.839048
 21
29.995065
  0
LINE
  8
型材断面
  6
CONTINUOUS
 62
    47
 10
99.339
 20
29.995065
 11
105.839048
 21
29.995065
  0
LINE
  8
型材断面
  6
CONTINUOUS
 62
    47
 10
99.339
 20
29.995065
 11
99.339
 21
62.995065
  0
LINE
  8
型材断面
  6
CONTINUOUS
 62
    47
 10
85.338998
 20
62.995065
 11
99.339
 21
62.995065
  0
LINE
  8
型材断面
  6
CONTINUOUS
 62
    47
 10
85.338998
 20
62.995065
 11
85.338998
 21
60.99501
  0
ARC
  8
型材断面
  6
CONTINUOUS
 62
    47
 10
105.089044
 20
-25.754975
 40
0.75
 50
90.0
 51
180.0
  0
LINE
  8
型材断面
  6
CONTINUOUS
 62
    47
 10
105.089048
 20
-25.00494
 11
105.089048
 21
-25.00494
  0
ARC
  8
型材断面
  6
CONTINUOUS
 62
    47
 10
105.089044
 20
-25.754975
 40
0.75
 50
0.0
 51
90.0
  0
LINE
  8
型材断面
  6
CONTINUOUS
 62
    47
 10
104.339048
 20
-44.404987
 11
105.839048
 21
-44.404987
  0
LINE
  8
型材断面
  6
CONTINUOUS
 62
    47
 10
103.33905
 20
-41.90499
 11
104.339048
 21
-42.904987
  0
LINE
  8
型材断面
  6
CONTINUOUS
 62
    47
 10
104.339048
 20
-44.404987
 11
104.339048
 21
-42.904987
  0
LINE
  8
型材断面
  6
CONTINUOUS
 62
    47
 10
105.839048
 20
-25.75494
 11
105.839048
 21
-39.104985
  0
LINE
  8
型材断面
  6
CONTINUOUS
 62
    47
 10
105.839048
 20
-39.704985
 11
105.839048
 21
-44.404987
  0
LINE
  8
型材断面
  6
CONTINUOUS
 62
    47
 10
105.539048
 20
-39.404985
 11
105.839048
 21
-39.104985
  0
LINE
  8
型材断面
  6
CONTINUOUS
 62
    47
 10
105.539048
 20
-39.404985
 11
105.839048
 21
-39.704985
  0
LINE
  8
型材断面
  6
CONTINUOUS
 62
    47
 10
99.339
 20
-35.90499
 11
103.33905
 21
-35.90499
  0
LINE
  8
型材断面
  6
CONTINUOUS
 62
    47
 10
103.33905
 20
-41.90499
 11
103.33905
 21
-35.90499
  0
LINE
  8
型材断面
  6
CONTINUOUS
 62
    47
 10
99.339
 20
27.995062
 11
99.339
 21
-33.904987
  0
LINE
  8
型材断面
  6
CONTINUOUS
 62
    47
 10
104.339048
 20
-25.75494
 11
104.339048
 21
-33.904987
  0
LINE
  8
型材断面
  6
CONTINUOUS
 62
    47
 10
99.339
 20
-33.904987
 11
104.339048
 21
-33.904987
  0
LINE
  8
型材断面
  6
CONTINUOUS
 62
    47
 10
3.837495
 20
-52.504935
 11
8.337495
 21
-52.504935
  0
LINE
  8
型材断面
  6
CONTINUOUS
 62
    47
 10
99.339
 20
-35.90499
 11
99.339
 21
-52.504935
  0
LINE
  8
型材断面
  6
CONTINUOUS
 62
    47
 10
1.8375
 20
-54.50499
 11
1.8375
 21
-52.052437
  0
LINE
  8
型材断面
  6
CONTINUOUS
 62
    47
 10
1.8375
 20
-39.50499
 11
1.8375
 21
-42.904935
  0
LINE
  8
型材断面
  6
CONTINUOUS
 62
    47
 10
2.4375
 20
-43.504935
 11
1.8375
 21
-42.904935
  0
LINE
  8
型材断面
  6
CONTINUOUS
 62
    47
 10
2.4375
 20
-43.504935
 11
3.837495
 21
-43.504935
  0
LINE
  8
型材断面
  6
CONTINUOUS
 62
    47
 10
3.837495
 20
-41.00499
 11
3.837495
 21
-43.504935
  0
LINE
  8
型材断面
  6
CONTINUOUS
 62
    47
 10
2.4375
 20
-51.50499
 11
3.837495
 21
-51.50499
  0
LINE
  8
型材断面
  6
CONTINUOUS
 62
    47
 10
3.837495
 20
-52.557488
 11
3.837495
 21
-51.50499
  0
LINE
  8
型材断面
  6
CONTINUOUS
 62
    47
 10
2.4375
 20
-51.50499
 11
1.8375
 21
-52.10499
  0
LINE
  8
型材断面
  6
CONTINUOUS
 62
    47
 10
3.837495
 20
-41.00499
 11
8.337495
 21
-41.00499
  0
LINE
  8
型材断面
  6
CONTINUOUS
 62
    47
 10
8.337495
 20
-52.504935
 11
8.337495
 21
-41.00499
  0
LINE
  8
型材断面
  6
CONTINUOUS
 62
    47
 10
97.338998
 20
-16.00494
 11
97.338998
 21
-52.504935
  0
LINE
  8
型材断面
  6
CONTINUOUS
 62
    47
 10
85.338998
 20
60.99501
 11
97.338998
 21
60.99501
  0
LINE
  8
型材断面
  6
CONTINUOUS
 62
    47
 10
97.338998
 20
-14.50494
 11
97.338998
 21
60.99501
  0
LINE
  8
型材断面
  6
CONTINUOUS
 62
    47
 10
22.839
 20
-52.504935
 11
22.839
 21
-16.00494
  0
LINE
  8
型材断面
  6
CONTINUOUS
 62
    47
 10
97.338998
 20
-14.50494
 11
18.339
 21
-14.50494
  0
LINE
  8
型材断面
  6
CONTINUOUS
 62
    47
 10
18.339
 20
-14.50494
 11
18.339
 21
-16.00494
  0
LINE
  8
型材断面
  6
CONTINUOUS
 62
    47
 10
21.339
 20
-52.504935
 11
21.339
 21
-16.00494
  0
LINE
  8
型材断面
  6
CONTINUOUS
 62
    47
 10
21.339
 20
-16.00494
 11
18.339
 21
-16.00494
  0
LINE
  8
型材断面
  6
CONTINUOUS
 62
    47
 10
93.339
 20
-54.20499
 11
93.039
 21
-54.50499
  0
LINE
  8
型材断面
  6
CONTINUOUS
 62
    47
 10
93.339
 20
-54.20499
 11
93.639
 21
-54.50499
  0
LINE
  8
型材断面
  6
CONTINUOUS
 62
    47
 10
93.639
 20
-54.50499
 11
105.839048
 21
-54.50499
  0
LINE
  8
型材断面
  6
CONTINUOUS
 62
    47
 10
105.839048
 20
-53.50494
 11
105.839048
 21
-54.50499
  0
LINE
  8
型材断面
  6
CONTINUOUS
 62
    47
 10
99.339
 20
-52.504935
 11
104.83905
 21
-52.504935
  0
LINE
  8
型材断面
  6
CONTINUOUS
 62
    47
 10
105.839048
 20
-53.50494
 11
104.83905
 21
-52.504935
  0
ARC
  8
型材断面
  6
CONTINUOUS
 62
    47
 10
17.367418
 20
-48.355157
 40
0.5
 50
149.998835
 51
227.160733
  0
LINE
  8
型材断面
  6
CONTINUOUS
 62
    47
 10
16.9344
 20
-48.105135
 11
17.189647
 21
-47.663085
  0
ARC
  8
型材断面
  6
CONTINUOUS
 62
    47
 10
17.622635
 20
-47.913125
 40
0.5
 50
49.52439
 51
149.998682
  0
ARC
  8
型材断面
  6
CONTINUOUS
 62
    47
 10
15.837544
 20
-50.005001
 40
1.75
 50
132.839267
 51
407.160733
  0
ARC
  8
型材断面
  6
CONTINUOUS
 62
    47
 10
14.30767
 20
-48.355157
 40
0.5
 50
-47.160734
 51
30.001165
  0
LINE
  8
型材断面
  6
CONTINUOUS
 62
    47
 10
14.740695
 20
-48.105135
 11
14.485448
 21
-47.663085
  0
ARC
  8
型材断面
  6
CONTINUOUS
 62
    47
 10
14.052452
 20
-47.913125
 40
0.5
 50
30.001318
 51
130.47561
  0
LINE
  8
型材断面
  6
CONTINUOUS
 62
    47
 10
12.665347
 20
-52.504935
 11
9.837495
 21
-52.504935
  0
ARC
  8
型材断面
  6
CONTINUOUS
 62
    47
 10
15.837544
 20
-50.005001
 40
3.25
 50
130.47561
 51
212.23005
  0
ARC
  8
型材断面
  6
CONTINUOUS
 62
    47
 10
12.665368
 20
-52.004951
 40
0.5
 50
-90.0
 51
32.230049
  0
LINE
  8
型材断面
  6
CONTINUOUS
 62
    47
 10
19.009748
 20
-52.504935
 11
21.339
 21
-52.504935
  0
ARC
  8
型材断面
  6
CONTINUOUS
 62
    47
 10
15.837544
 20
-50.005001
 40
3.25
 50
327.76995
 51
409.52439
  0
ARC
  8
型材断面
  6
CONTINUOUS
 62
    47
 10
19.009719
 20
-52.004951
 40
0.5
 50
147.76995
 51
270.0
  0
ARC
  8
型材断面
  6
CONTINUOUS
 62
    47
 10
85.868868
 20
-48.355157
 40
0.5
 50
149.998835
 51
227.160733
  0
LINE
  8
型材断面
  6
CONTINUOUS
 62
    47
 10
85.435845
 20
-48.105135
 11
85.6911
 21
-47.663085
  0
ARC
  8
型材断面
  6
CONTINUOUS
 62
    47
 10
86.124085
 20
-47.913125
 40
0.5
 50
49.52439
 51
149.998682
  0
ARC
  8
型材断面
  6
CONTINUOUS
 62
    47
 10
84.338994
 20
-50.005001
 40
1.75
 50
132.839267
 51
407.160733
  0
ARC
  8
型材断面
  6
CONTINUOUS
 62
    47
 10
82.80912
 20
-48.355157
 40
0.5
 50
-47.160734
 51
30.001165
  0
LINE
  8
型材断面
  6
CONTINUOUS
 62
    47
 10
83.242147
 20
-48.105135
 11
82.9869
 21
-47.663085
  0
ARC
  8
型材断面
  6
CONTINUOUS
 62
    47
 10
82.553902
 20
-47.913125
 40
0.5
 50
30.001318
 51
130.47561
  0
LINE
  8
型材断面
  6
CONTINUOUS
 62
    47
 10
97.338998
 20
-52.504935
 11
87.5112
 21
-52.504935
  0
ARC
  8
型材断面
  6
CONTINUOUS
 62
    47
 10
84.338994
 20
-50.005001
 40
3.25
 50
327.76995
 51
409.52439
  0
ARC
  8
型材断面
  6
CONTINUOUS
 62
    47
 10
87.511169
 20
-52.004951
 40
0.5
 50
147.769951
 51
270.0
  0
LINE
  8
型材断面
  6
CONTINUOUS
 62
    47
 10
81.1668
 20
-52.504935
 11
22.839
 21
-52.504935
  0
ARC
  8
型材断面
  6
CONTINUOUS
 62
    47
 10
84.338994
 20
-50.005001
 40
3.25
 50
130.47561
 51
212.23005
  0
ARC
  8
型材断面
  6
CONTINUOUS
 62
    47
 10
81.166818
 20
-52.004951
 40
0.5
 50
-90.0
 51
32.23005
  0
LINE
  8
型材断面
  6
CONTINUOUS
 62
    47
 10
97.338998
 20
-16.00494
 11
87.5112
 21
-16.00494
  0
ARC
  8
型材断面
  6
CONTINUOUS
 62
    47
 10
37.868868
 20
-20.154745
 40
0.5
 50
132.839267
 51
210.001165
  0
ARC
  8
型材断面
  6
CONTINUOUS
 62
    47
 10
36.338994
 20
-18.504901
 40
1.75
 50
312.839267
 51
587.160733
  0
ARC
  8
型材断面
  6
CONTINUOUS
 62
    47
 10
34.80912
 20
-20.154745
 40
0.5
 50
-30.001165
 51
47.160734
  0
LINE
  8
型材断面
  6
CONTINUOUS
 62
    47
 10
35.242147
 20
-20.40474
 11
34.9869
 21
-20.84679
  0
ARC
  8
型材断面
  6
CONTINUOUS
 62
    47
 10
34.553902
 20
-20.596778
 40
0.5
 50
229.52439
 51
329.998682
  0
LINE
  8
型材断面
  6
CONTINUOUS
 62
    47
 10
33.1668
 20
-16.00494
 11
22.839
 21
-16.00494
  0
ARC
  8
型材断面
  6
CONTINUOUS
 62
    47
 10
36.338994
 20
-18.504901
 40
3.25
 50
147.76995
 51
229.52439
  0
ARC
  8
型材断面
  6
CONTINUOUS
 62
    47
 10
33.166818
 20
-16.504951
 40
0.5
 50
327.769951
 51
450.0
  0
LINE
  8
型材断面
  6
CONTINUOUS
 62
    47
 10
81.1668
 20
-16.00494
 11
39.5112
 21
-16.00494
  0
ARC
  8
型材断面
  6
CONTINUOUS
 62
    47
 10
39.511169
 20
-16.504951
 40
0.5
 50
90.0
 51
212.23005
  0
LINE
  8
型材断面
  6
CONTINUOUS
 62
    47
 10
37.435845
 20
-20.40474
 11
37.782397
 21
-21.004935
  0
LINE
  8
型材断面
  6
CONTINUOUS
 62
    47
 10
37.782397
 20
-21.004935
 11
41.139
 21
-21.004935
  0
LINE
  8
型材断面
  6
CONTINUOUS
 62
    47
 10
41.139
 20
-21.004935
 11
41.139
 21
-19.504935
  0
ARC
  8
型材断面
  6
CONTINUOUS
 62
    47
 10
36.338994
 20
-18.504901
 40
3.25
 50
342.078861
 51
392.230049
  0
LINE
  8
型材断面
  6
CONTINUOUS
 62
    47
 10
39.431295
 20
-19.504935
 11
41.139
 21
-19.504935
  0
ARC
  8
型材断面
  6
CONTINUOUS
 62
    47
 10
82.80912
 20
-20.154745
 40
0.5
 50
329.998835
 51
407.160733
  0
ARC
  8
型材断面
  6
CONTINUOUS
 62
    47
 10
84.338994
 20
-18.504901
 40
1.75
 50
312.839267
 51
587.160733
  0
ARC
  8
型材断面
  6
CONTINUOUS
 62
    47
 10
85.868868
 20
-20.154745
 40
0.5
 50
132.839266
 51
210.001165
  0
LINE
  8
型材断面
  6
CONTINUOUS
 62
    47
 10
85.435845
 20
-20.40474
 11
85.6911
 21
-20.84679
  0
ARC
  8
型材断面
  6
CONTINUOUS
 62
    47
 10
86.124085
 20
-20.596778
 40
0.5
 50
210.001318
 51
310.47561
  0
ARC
  8
型材断面
  6
CONTINUOUS
 62
    47
 10
84.338994
 20
-18.504901
 40
3.25
 50
310.47561
 51
392.23005
  0
ARC
  8
型材断面
  6
CONTINUOUS
 62
    47
 10
87.511169
 20
-16.504951
 40
0.5
 50
90.0
 51
212.230049
  0
ARC
  8
型材断面
  6
CONTINUOUS
 62
    47
 10
81.166818
 20
-16.504951
 40
0.5
 50
-32.23005
 51
90.0
  0
LINE
  8
型材断面
  6
CONTINUOUS
 62
    47
 10
83.242147
 20
-20.40474
 11
82.895595
 21
-21.004935
  0
LINE
  8
型材断面
  6
CONTINUOUS
 62
    47
 10
82.895595
 20
-21.004935
 11
79.539
 21
-21.004935
  0
LINE
  8
型材断面
  6
CONTINUOUS
 62
    47
 10
79.539
 20
-21.004935
 11
79.539
 21
-19.504935
  0
ARC
  8
型材断面
  6
CONTINUOUS
 62
    47
 10
84.338994
 20
-18.504901
 40
3.25
 50
147.769951
 51
197.921139
  0
LINE
  8
型材断面
  6
CONTINUOUS
 62
    47
 10
81.246697
 20
-19.504935
 11
79.539
 21
-19.504935
  0
LINE
  8
型材断面
  6
CONTINUOUS
 62
    47
 10
9.837495
 20
-52.504935
 11
9.837495
 21
-39.50499
  0
LINE
  8
型材断面
  6
CONTINUOUS
 62
    47
 10
1.8375
 20
-39.50499
 11
9.837495
 21
-39.50499
  0
LINE
  8
型材断面
  6
CONTINUOUS
 62
    47
 10
24.838995
 20
-54.20499
 11
24.538995
 21
-54.50499
  0
LINE
  8
型材断面
  6
CONTINUOUS
 62
    47
 10
24.838995
 20
-54.20499
 11
25.138995
 21
-54.50499
  0
LINE
  8
型材断面
  6
CONTINUOUS
 62
    47
 10
90.538995
 20
-54.20499
 11
90.238995
 21
-54.50499
  0
LINE
  8
型材断面
  6
CONTINUOUS
 62
    47
 10
90.538995
 20
-54.20499
 11
90.838995
 21
-54.50499
  0
LINE
  8
型材断面
  6
CONTINUOUS
 62
    47
 10
90.838995
 20
-54.50499
 11
93.039
 21
-54.50499
  0
LINE
  8
型材断面
  6
CONTINUOUS
 62
    47
 10
1.8375
 20
-54.50499
 11
24.538995
 21
-54.50499
  0
LINE
  8
型材断面
  6
CONTINUOUS
 62
    47
 10
25.138995
 20
-54.50499
 11
90.238995
 21
-54.50499
  0
ENDBLK
  0
BLOCK
  2
*GRP_0013
 70
    65
 10
0.0
 20
0.0
  0
POLYLINE
  8
ガラス
  6
CONTINUOUS
 66
     1
 70
     4
  0
VERTEX
  8
ガラス
 10
127.825
 20
-80.475
 70
     8
  0
VERTEX
  8
ガラス
 10
127.75
 20
-80.45
 70
     8
  0
VERTEX
  8
ガラス
 10
127.675
 20
-80.4
 70
     8
  0
VERTEX
  8
ガラス
 10
127.575
 20
-80.375
 70
     8
  0
VERTEX
  8
ガラス
 10
127.5
 20
-80.325
 70
     8
  0
VERTEX
  8
ガラス
 10
127.4
 20
-80.3
 70
     8
  0
VERTEX
  8
ガラス
 10
127.325
 20
-80.25
 70
     8
  0
VERTEX
  8
ガラス
 10
127.25
 20
-80.225
 70
     8
  0
VERTEX
  8
ガラス
 10
127.15
 20
-80.175
 70
     8
  0
VERTEX
  8
ガラス
 10
127.075
 20
-80.125
 70
     8
  0
VERTEX
  8
ガラス
 10
127.0
 20
-80.1
 70
     8
  0
VERTEX
  8
ガラス
 10
126.925
 20
-80.05
 70
     8
  0
VERTEX
  8
ガラス
 10
126.85
 20
-80.0
 70
     8
  0
VERTEX
  8
ガラス
 10
126.775
 20
-79.95
 70
     8
  0
VERTEX
  8
ガラス
 10
126.7
 20
-79.9
 70
     8
  0
VERTEX
  8
ガラス
 10
126.625
 20
-79.85
 70
     8
  0
VERTEX
  8
ガラス
 10
126.575
 20
-79.8
 70
     8
  0
VERTEX
  8
ガラス
 10
126.5
 20
-79.75
 70
     8
  0
VERTEX
  8
ガラス
 10
126.45
 20
-79.7
 70
     8
  0
VERTEX
  8
ガラス
 10
126.375
 20
-79.65
 70
     8
  0
VERTEX
  8
ガラス
 10
126.325
 20
-79.575
 70
     8
  0
VERTEX
  8
ガラス
 10
126.275
 20
-79.525
 70
     8
  0
VERTEX
  8
ガラス
 10
126.225
 20
-79.45
 70
     8
  0
VERTEX
  8
ガラス
 10
126.175
 20
-79.375
 70
     8
  0
VERTEX
  8
ガラス
 10
126.125
 20
-79.3
 70
     8
  0
VERTEX
  8
ガラス
 10
126.1
 20
-79.225
 70
     8
  0
VERTEX
  8
ガラス
 10
126.05
 20
-79.15
 70
     8
  0
VERTEX
  8
ガラス
 10
126.025
 20
-79.075
 70
     8
  0
VERTEX
  8
ガラス
 10
125.975
 20
-79.0
 70
     8
  0
VERTEX
  8
ガラス
 10
125.95
 20
-78.925
 70
     8
  0
VERTEX
  8
ガラス
 10
125.925
 20
-78.825
 70
     8
  0
VERTEX
  8
ガラス
 10
125.9
 20
-78.75
 70
     8
  0
VERTEX
  8
ガラス
 10
125.875
 20
-78.675
 70
     8
  0
VERTEX
  8
ガラス
 10
125.85
 20
-78.575
 70
     8
  0
VERTEX
  8
ガラス
 10
125.825
 20
-78.5
 70
     8
  0
VERTEX
  8
ガラス
 10
125.8
 20
-78.4
 70
     8
  0
VERTEX
  8
ガラス
 10
125.775
 20
-78.325
 70
     8
  0
VERTEX
  8
ガラス
 10
125.775
 20
-78.225
 70
     8
  0
VERTEX
  8
ガラス
 10
125.75
 20
-78.125
 70
     8
  0
VERTEX
  8
ガラス
 10
125.725
 20
-78.05
 70
     8
  0
VERTEX
  8
ガラス
 10
125.7
 20
-77.95
 70
     8
  0
SEQEND
  0
POLYLINE
  8
ガラス
  6
CONTINUOUS
 66
     1
 70
     4
  0
VERTEX
  8
ガラス
 10
125.7
 20
-77.95
 70
     8
  0
VERTEX
  8
ガラス
 10
125.775
 20
-77.975
 70
     8
  0
VERTEX
  8
ガラス
 10
125.825
 20
-78.0
 70
     8
  0
VERTEX
  8
ガラス
 10
125.875
 20
-78.025
 70
     8
  0
VERTEX
  8
ガラス
 10
125.925
 20
-78.05
 70
     8
  0
VERTEX
  8
ガラス
 10
126.0
 20
-78.075
 70
     8
  0
VERTEX
  8
ガラス
 10
126.05
 20
-78.1
 70
     8
  0
VERTEX
  8
ガラス
 10
126.1
 20
-78.125
 70
     8
  0
VERTEX
  8
ガラス
 10
126.15
 20
-78.15
 70
     8
  0
VERTEX
  8
ガラス
 10
126.225
 20
-78.15
 70
     8
  0
VERTEX
  8
ガラス
 10
126.275
 20
-78.175
 70
     8
  0
VERTEX
  8
ガラス
 10
126.325
 20
-78.2
 70
     8
  0
VERTEX
  8
ガラス
 10
126.4
 20
-78.225
 70
     8
  0
VERTEX
  8
ガラス
 10
126.45
 20
-78.25
 70
     8
  0
VERTEX
  8
ガラス
 10
126.5
 20
-78.275
 70
     8
  0
VERTEX
  8
ガラス
 10
126.575
 20
-78.3
 70
     8
  0
VERTEX
  8
ガラス
 10
126.625
 20
-78.3
 70
     8
  0
VERTEX
  8
ガラス
 10
126.675
 20
-78.325
 70
     8
  0
VERTEX
  8
ガラス
 10
126.75
 20
-78.35
 70
     8
  0
VERTEX
  8
ガラス
 10
126.8
 20
-78.35
 70
     8
  0
VERTEX
  8
ガラス
 10
126.85
 20
-78.375
 70
     8
  0
VERTEX
  8
ガラス
 10
126.925
 20
-78.4
 70
     8
  0
VERTEX
  8
ガラス
 10
126.975
 20
-78.4
 70
     8
  0
VERTEX
  8
ガラス
 10
127.025
 20
-78.425
 70
     8
  0
VERTEX
  8
ガラス
 10
127.1
 20
-78.425
 70
     8
  0
VERTEX
  8
ガラス
 10
127.15
 20
-78.45
 70
     8
  0
VERTEX
  8
ガラス
 10
127.225
 20
-78.45
 70
     8
  0
VERTEX
  8
ガラス
 10
127.275
 20
-78.475
 70
     8
  0
VERTEX
  8
ガラス
 10
127.325
 20
-78.475
 70
     8
  0
VERTEX
  8
ガラス
 10
127.4
 20
-78.5
 70
     8
  0
VERTEX
  8
ガラス
 10
127.45
 20
-78.5
 70
     8
  0
VERTEX
  8
ガラス
 10
127.525
 20
-78.5
 70
     8
  0
VERTEX
  8
ガラス
 10
127.575
 20
-78.525
 70
     8
  0
VERTEX
  8
ガラス
 10
127.625
 20
-78.525
 70
     8
  0
VERTEX
  8
ガラス
 10
127.7
 20
-78.525
 70
     8
  0
VERTEX
  8
ガラス
 10
127.75
 20
-78.55
 70
     8
  0
VERTEX
  8
ガラス
 10
127.825
 20
-78.55
 70
     8
  0
VERTEX
  8
ガラス
 10
127.875
 20
-78.55
 70
     8
  0
VERTEX
  8
ガラス
 10
127.95
 20
-78.575
 70
     8
  0
VERTEX
  8
ガラス
 10
128.0
 20
-78.575
 70
     8
  0
VERTEX
  8
ガラス
 10
128.075
 20
-78.575
 70
     8
  0
SEQEND
  0
ARC
  8
ガラス
  6
CONTINUOUS
 10
127.962528
 20
-79.515269
 40
0.955135
 50
263.117442
 51
443.117442
  0
ENDBLK
  0
BLOCK
  2
*GRP_0014
 70
    65
 10
0.0
 20
0.0
  0
POLYLINE
  8
ガラス
  6
CONTINUOUS
 66
     1
 70
     4
  0
VERTEX
  8
ガラス
 10
123.425
 20
-67.55
 70
     8
  0
VERTEX
  8
ガラス
 10
123.425
 20
-67.45
 70
     8
  0
VERTEX
  8
ガラス
 10
123.4
 20
-67.35
 70
     8
  0
VERTEX
  8
ガラス
 10
123.4
 20
-67.275
 70
     8
  0
VERTEX
  8
ガラス
 10
123.4
 20
-67.175
 70
     8
  0
VERTEX
  8
ガラス
 10
123.375
 20
-67.075
 70
     8
  0
VERTEX
  8
ガラス
 10
123.375
 20
-67.0
 70
     8
  0
VERTEX
  8
ガラス
 10
123.375
 20
-66.9
 70
     8
  0
VERTEX
  8
ガラス
 10
123.35
 20
-66.8
 70
     8
  0
VERTEX
  8
ガラス
 10
123.35
 20
-66.725
 70
     8
  0
VERTEX
  8
ガラス
 10
123.35
 20
-66.625
 70
     8
  0
VERTEX
  8
ガラス
 10
123.35
 20
-66.55
 70
     8
  0
VERTEX
  8
ガラス
 10
123.35
 20
-66.45
 70
     8
  0
VERTEX
  8
ガラス
 10
123.375
 20
-66.375
 70
     8
  0
VERTEX
  8
ガラス
 10
123.375
 20
-66.275
 70
     8
  0
VERTEX
  8
ガラス
 10
123.375
 20
-66.2
 70
     8
  0
VERTEX
  8
ガラス
 10
123.4
 20
-66.1
 70
     8
  0
VERTEX
  8
ガラス
 10
123.4
 20
-66.025
 70
     8
  0
VERTEX
  8
ガラス
 10
123.425
 20
-65.95
 70
     8
  0
VERTEX
  8
ガラス
 10
123.45
 20
-65.875
 70
     8
  0
VERTEX
  8
ガラス
 10
123.475
 20
-65.8
 70
     8
  0
VERTEX
  8
ガラス
 10
123.5
 20
-65.7
 70
     8
  0
VERTEX
  8
ガラス
 10
123.55
 20
-65.625
 70
     8
  0
VERTEX
  8
ガラス
 10
123.575
 20
-65.55
 70
     8
  0
VERTEX
  8
ガラス
 10
123.625
 20
-65.5
 70
     8
  0
VERTEX
  8
ガラス
 10
123.675
 20
-65.425
 70
     8
  0
VERTEX
  8
ガラス
 10
123.725
 20
-65.35
 70
     8
  0
VERTEX
  8
ガラス
 10
123.775
 20
-65.275
 70
     8
  0
VERTEX
  8
ガラス
 10
123.825
 20
-65.2
 70
     8
  0
VERTEX
  8
ガラス
 10
123.875
 20
-65.15
 70
     8
  0
VERTEX
  8
ガラス
 10
123.925
 20
-65.075
 70
     8
  0
VERTEX
  8
ガラス
 10
124.0
 20
-65.025
 70
     8
  0
VERTEX
  8
ガラス
 10
124.05
 20
-64.95
 70
     8
  0
VERTEX
  8
ガラス
 10
124.125
 20
-64.9
 70
     8
  0
VERTEX
  8
ガラス
 10
124.175
 20
-64.825
 70
     8
  0
VERTEX
  8
ガラス
 10
124.25
 20
-64.75
 70
     8
  0
VERTEX
  8
ガラス
 10
124.325
 20
-64.7
 70
     8
  0
VERTEX
  8
ガラス
 10
124.4
 20
-64.65
 70
     8
  0
VERTEX
  8
ガラス
 10
124.45
 20
-64.575
 70
     8
  0
VERTEX
  8
ガラス
 10
124.525
 20
-64.525
 70
     8
  0
VERTEX
  8
ガラス
 10
124.6
 20
-64.45
 70
     8
  0
SEQEND
  0
POLYLINE
  8
ガラス
  6
CONTINUOUS
 66
     1
 70
     4
  0
VERTEX
  8
ガラス
 10
124.6
 20
-64.45
 70
     8
  0
VERTEX
  8
ガラス
 10
124.6
 20
-64.525
 70
     8
  0
VERTEX
  8
ガラス
 10
124.625
 20
-64.575
 70
     8
  0
VERTEX
  8
ガラス
 10
124.625
 20
-64.65
 70
     8
  0
VERTEX
  8
ガラス
 10
124.625
 20
-64.7
 70
     8
  0
VERTEX
  8
ガラス
 10
124.625
 20
-64.75
 70
     8
  0
VERTEX
  8
ガラス
 10
124.65
 20
-64.825
 70
     8
  0
VERTEX
  8
ガラス
 10
124.65
 20
-64.875
 70
     8
  0
VERTEX
  8
ガラス
 10
124.65
 20
-64.95
 70
     8
  0
VERTEX
  8
ガラス
 10
124.675
 20
-65.0
 70
     8
  0
VERTEX
  8
ガラス
 10
124.675
 20
-65.075
 70
     8
  0
VERTEX
  8
ガラス
 10
124.675
 20
-65.125
 70
     8
  0
VERTEX
  8
ガラス
 10
124.7
 20
-65.2
 70
     8
  0
VERTEX
  8
ガラス
 10
124.7
 20
-65.25
 70
     8
  0
VERTEX
  8
ガラス
 10
124.7
 20
-65.3
 70
     8
  0
VERTEX
  8
ガラス
 10
124.725
 20
-65.375
 70
     8
  0
VERTEX
  8
ガラス
 10
124.725
 20
-65.425
 70
     8
  0
VERTEX
  8
ガラス
 10
124.75
 20
-65.5
 70
     8
  0
VERTEX
  8
ガラス
 10
124.75
 20
-65.55
 70
     8
  0
VERTEX
  8
ガラス
 10
124.775
 20
-65.6
 70
     8
  0
VERTEX
  8
ガラス
 10
124.775
 20
-65.675
 70
     8
  0
VERTEX
  8
ガラス
 10
124.8
 20
-65.725
 70
     8
  0
VERTEX
  8
ガラス
 10
124.825
 20
-65.775
 70
     8
  0
VERTEX
  8
ガラス
 10
124.825
 20
-65.85
 70
     8
  0
VERTEX
  8
ガラス
 10
124.85
 20
-65.9
 70
     8
  0
VERTEX
  8
ガラス
 10
124.875
 20
-65.95
 70
     8
  0
VERTEX
  8
ガラス
 10
124.9
 20
-66.025
 70
     8
  0
VERTEX
  8
ガラス
 10
124.9
 20
-66.075
 70
     8
  0
VERTEX
  8
ガラス
 10
124.925
 20
-66.125
 70
     8
  0
VERTEX
  8
ガラス
 10
124.95
 20
-66.2
 70
     8
  0
VERTEX
  8
ガラス
 10
124.975
 20
-66.25
 70
     8
  0
VERTEX
  8
ガラス
 10
125.0
 20
-66.3
 70
     8
  0
VERTEX
  8
ガラス
 10
125.025
 20
-66.375
 70
     8
  0
VERTEX
  8
ガラス
 10
125.025
 20
-66.425
 70
     8
  0
VERTEX
  8
ガラス
 10
125.05
 20
-66.475
 70
     8
  0
VERTEX
  8
ガラス
 10
125.075
 20
-66.525
 70
     8
  0
VERTEX
  8
ガラス
 10
125.1
 20
-66.6
 70
     8
  0
VERTEX
  8
ガラス
 10
125.125
 20
-66.65
 70
     8
  0
VERTEX
  8
ガラス
 10
125.15
 20
-66.7
 70
     8
  0
VERTEX
  8
ガラス
 10
125.175
 20
-66.775
 70
     8
  0
VERTEX
  8
ガラス
 10
125.2
 20
-66.825
 70
     8
  0
SEQEND
  0
ARC
  8
ガラス
  6
CONTINUOUS
 10
124.327247
 20
-67.170623
 40
0.955135
 50
202.264587
 51
382.264587
  0
ENDBLK
  0
BLOCK
  2
*GRP_0015
 70
    65
 10
0.0
 20
0.0
  0
POLYLINE
  8
ガラス
  6
CONTINUOUS
 66
     1
 70
     4
  0
VERTEX
  8
ガラス
 10
114.9
 20
-62.725
 70
     8
  0
VERTEX
  8
ガラス
 10
114.8
 20
-62.7
 70
     8
  0
VERTEX
  8
ガラス
 10
114.725
 20
-62.65
 70
     8
  0
VERTEX
  8
ガラス
 10
114.625
 20
-62.625
 70
     8
  0
VERTEX
  8
ガラス
 10
114.55
 20
-62.575
 70
     8
  0
VERTEX
  8
ガラス
 10
114.475
 20
-62.55
 70
     8
  0
VERTEX
  8
ガラス
 10
114.375
 20
-62.5
 70
     8
  0
VERTEX
  8
ガラス
 10
114.3
 20
-62.475
 70
     8
  0
VERTEX
  8
ガラス
 10
114.225
 20
-62.425
 70
     8
  0
VERTEX
  8
ガラス
 10
114.125
 20
-62.375
 70
     8
  0
VERTEX
  8
ガラス
 10
114.05
 20
-62.35
 70
     8
  0
VERTEX
  8
ガラス
 10
113.975
 20
-62.3
 70
     8
  0
VERTEX
  8
ガラス
 10
113.9
 20
-62.25
 70
     8
  0
VERTEX
  8
ガラス
 10
113.825
 20
-62.2
 70
     8
  0
VERTEX
  8
ガラス
 10
113.75
 20
-62.175
 70
     8
  0
VERTEX
  8
ガラス
 10
113.7
 20
-62.125
 70
     8
  0
VERTEX
  8
ガラス
 10
113.625
 20
-62.05
 70
     8
  0
VERTEX
  8
ガラス
 10
113.55
 20
-62.0
 70
     8
  0
VERTEX
  8
ガラス
 10
113.5
 20
-61.95
 70
     8
  0
VERTEX
  8
ガラス
 10
113.425
 20
-61.9
 70
     8
  0
VERTEX
  8
ガラス
 10
113.375
 20
-61.825
 70
     8
  0
VERTEX
  8
ガラス
 10
113.325
 20
-61.775
 70
     8
  0
VERTEX
  8
ガラス
 10
113.275
 20
-61.7
 70
     8
  0
VERTEX
  8
ガラス
 10
113.225
 20
-61.625
 70
     8
  0
VERTEX
  8
ガラス
 10
113.2
 20
-61.55
 70
     8
  0
VERTEX
  8
ガラス
 10
113.15
 20
-61.475
 70
     8
  0
VERTEX
  8
ガラス
 10
113.125
 20
-61.4
 70
     8
  0
VERTEX
  8
ガラス
 10
113.075
 20
-61.325
 70
     8
  0
VERTEX
  8
ガラス
 10
113.05
 20
-61.25
 70
     8
  0
VERTEX
  8
ガラス
 10
113.025
 20
-61.175
 70
     8
  0
VERTEX
  8
ガラス
 10
112.975
 20
-61.1
 70
     8
  0
VERTEX
  8
ガラス
 10
112.95
 20
-61.0
 70
     8
  0
VERTEX
  8
ガラス
 10
112.925
 20
-60.925
 70
     8
  0
VERTEX
  8
ガラス
 10
112.9
 20
-60.825
 70
     8
  0
VERTEX
  8
ガラス
 10
112.875
 20
-60.75
 70
     8
  0
VERTEX
  8
ガラス
 10
112.875
 20
-60.65
 70
     8
  0
VERTEX
  8
ガラス
 10
112.85
 20
-60.575
 70
     8
  0
VERTEX
  8
ガラス
 10
112.825
 20
-60.475
 70
     8
  0
VERTEX
  8
ガラス
 10
112.8
 20
-60.375
 70
     8
  0
VERTEX
  8
ガラス
 10
112.775
 20
-60.3
 70
     8
  0
VERTEX
  8
ガラス
 10
112.775
 20
-60.2
 70
     8
  0
SEQEND
  0
POLYLINE
  8
ガラス
  6
CONTINUOUS
 66
     1
 70
     4
  0
VERTEX
  8
ガラス
 10
112.775
 20
-60.2
 70
     8
  0
VERTEX
  8
ガラス
 10
112.825
 20
-60.225
 70
     8
  0
VERTEX
  8
ガラス
 10
112.875
 20
-60.25
 70
     8
  0
VERTEX
  8
ガラス
 10
112.925
 20
-60.275
 70
     8
  0
VERTEX
  8
ガラス
 10
113.0
 20
-60.3
 70
     8
  0
VERTEX
  8
ガラス
 10
113.05
 20
-60.325
 70
     8
  0
VERTEX
  8
ガラス
 10
113.1
 20
-60.35
 70
     8
  0
VERTEX
  8
ガラス
 10
113.175
 20
-60.375
 70
     8
  0
VERTEX
  8
ガラス
 10
113.225
 20
-60.4
 70
     8
  0
VERTEX
  8
ガラス
 10
113.275
 20
-60.425
 70
     8
  0
VERTEX
  8
ガラス
 10
113.325
 20
-60.425
 70
     8
  0
VERTEX
  8
ガラス
 10
113.4
 20
-60.45
 70
     8
  0
VERTEX
  8
ガラス
 10
113.45
 20
-60.475
 70
     8
  0
VERTEX
  8
ガラス
 10
113.5
 20
-60.5
 70
     8
  0
VERTEX
  8
ガラス
 10
113.575
 20
-60.525
 70
     8
  0
VERTEX
  8
ガラス
 10
113.625
 20
-60.55
 70
     8
  0
VERTEX
  8
ガラス
 10
113.675
 20
-60.55
 70
     8
  0
VERTEX
  8
ガラス
 10
113.75
 20
-60.575
 70
     8
  0
VERTEX
  8
ガラス
 10
113.8
 20
-60.6
 70
     8
  0
VERTEX
  8
ガラス
 10
113.85
 20
-60.625
 70
     8
  0
VERTEX
  8
ガラス
 10
113.925
 20
-60.625
 70
     8
  0
VERTEX
  8
ガラス
 10
113.975
 20
-60.65
 70
     8
  0
VERTEX
  8
ガラス
 10
114.025
 20
-60.65
 70
     8
  0
VERTEX
  8
ガラス
 10
114.1
 20
-60.675
 70
     8
  0
VERTEX
  8
ガラス
 10
114.15
 20
-60.675
 70
     8
  0
VERTEX
  8
ガラス
 10
114.2
 20
-60.7
 70
     8
  0
VERTEX
  8
ガラス
 10
114.275
 20
-60.7
 70
     8
  0
VERTEX
  8
ガラス
 10
114.325
 20
-60.725
 70
     8
  0
VERTEX
  8
ガラス
 10
114.4
 20
-60.725
 70
     8
  0
VERTEX
  8
ガラス
 10
114.45
 20
-60.75
 70
     8
  0
VERTEX
  8
ガラス
 10
114.525
 20
-60.75
 70
     8
  0
VERTEX
  8
ガラス
 10
114.575
 20
-60.75
 70
     8
  0
VERTEX
  8
ガラス
 10
114.625
 20
-60.775
 70
     8
  0
VERTEX
  8
ガラス
 10
114.7
 20
-60.775
 70
     8
  0
VERTEX
  8
ガラス
 10
114.75
 20
-60.775
 70
     8
  0
VERTEX
  8
ガラス
 10
114.825
 20
-60.8
 70
     8
  0
VERTEX
  8
ガラス
 10
114.875
 20
-60.8
 70
     8
  0
VERTEX
  8
ガラス
 10
114.95
 20
-60.8
 70
     8
  0
VERTEX
  8
ガラス
 10
115.0
 20
-60.825
 70
     8
  0
VERTEX
  8
ガラス
 10
115.05
 20
-60.825
 70
     8
  0
VERTEX
  8
ガラス
 10
115.125
 20
-60.825
 70
     8
  0
SEQEND
  0
ARC
  8
ガラス
  6
CONTINUOUS
 10
115.020955
 20
-61.766286
 40
0.955135
 50
263.117442
 51
443.117442
  0
ENDBLK
  0
BLOCK
  2
*GRP_0016
 70
    65
 10
0.0
 20
0.0
  0
POLYLINE
  8
ガラス
  6
CONTINUOUS
 66
     1
 70
     4
  0
VERTEX
  8
ガラス
 10
95.275
 20
-20.625
 70
     8
  0
VERTEX
  8
ガラス
 10
95.275
 20
-20.55
 70
     8
  0
VERTEX
  8
ガラス
 10
95.25
 20
-20.45
 70
     8
  0
VERTEX
  8
ガラス
 10
95.25
 20
-20.35
 70
     8
  0
VERTEX
  8
ガラス
 10
95.225
 20
-20.275
 70
     8
  0
VERTEX
  8
ガラス
 10
95.225
 20
-20.175
 70
     8
  0
VERTEX
  8
ガラス
 10
95.225
 20
-20.075
 70
     8
  0
VERTEX
  8
ガラス
 10
95.2
 20
-20.0
 70
     8
  0
VERTEX
  8
ガラス
 10
95.2
 20
-19.9
 70
     8
  0
VERTEX
  8
ガラス
 10
95.2
 20
-19.8
 70
     8
  0
VERTEX
  8
ガラス
 10
95.2
 20
-19.725
 70
     8
  0
VERTEX
  8
ガラス
 10
95.2
 20
-19.625
 70
     8
  0
VERTEX
  8
ガラス
 10
95.2
 20
-19.55
 70
     8
  0
VERTEX
  8
ガラス
 10
95.2
 20
-19.45
 70
     8
  0
VERTEX
  8
ガラス
 10
95.225
 20
-19.375
 70
     8
  0
VERTEX
  8
ガラス
 10
95.225
 20
-19.275
 70
     8
  0
VERTEX
  8
ガラス
 10
95.225
 20
-19.2
 70
     8
  0
VERTEX
  8
ガラス
 10
95.25
 20
-19.125
 70
     8
  0
VERTEX
  8
ガラス
 10
95.275
 20
-19.025
 70
     8
  0
VERTEX
  8
ガラス
 10
95.3
 20
-18.95
 70
     8
  0
VERTEX
  8
ガラス
 10
95.325
 20
-18.875
 70
     8
  0
VERTEX
  8
ガラス
 10
95.35
 20
-18.8
 70
     8
  0
VERTEX
  8
ガラス
 10
95.375
 20
-18.725
 70
     8
  0
VERTEX
  8
ガラス
 10
95.425
 20
-18.65
 70
     8
  0
VERTEX
  8
ガラス
 10
95.475
 20
-18.575
 70
     8
  0
VERTEX
  8
ガラス
 10
95.5
 20
-18.5
 70
     8
  0
VERTEX
  8
ガラス
 10
95.55
 20
-18.45
 70
     8
  0
VERTEX
  8
ガラス
 10
95.6
 20
-18.375
 70
     8
  0
VERTEX
  8
ガラス
 10
95.65
 20
-18.3
 70
     8
  0
VERTEX
  8
ガラス
 10
95.725
 20
-18.225
 70
     8
  0
VERTEX
  8
ガラス
 10
95.775
 20
-18.175
 70
     8
  0
VERTEX
  8
ガラス
 10
95.825
 20
-18.1
 70
     8
  0
VERTEX
  8
ガラス
 10
95.9
 20
-18.05
 70
     8
  0
VERTEX
  8
ガラス
 10
95.975
 20
-17.975
 70
     8
  0
VERTEX
  8
ガラス
 10
96.025
 20
-17.925
 70
     8
  0
VERTEX
  8
ガラス
 10
96.1
 20
-17.85
 70
     8
  0
VERTEX
  8
ガラス
 10
96.175
 20
-17.8
 70
     8
  0
VERTEX
  8
ガラス
 10
96.225
 20
-17.725
 70
     8
  0
VERTEX
  8
ガラス
 10
96.3
 20
-17.675
 70
     8
  0
VERTEX
  8
ガラス
 10
96.375
 20
-17.6
 70
     8
  0
VERTEX
  8
ガラス
 10
96.45
 20
-17.55
 70
     8
  0
SEQEND
  0
POLYLINE
  8
ガラス
  6
CONTINUOUS
 66
     1
 70
     4
  0
VERTEX
  8
ガラス
 10
96.45
 20
-17.55
 70
     8
  0
VERTEX
  8
ガラス
 10
96.45
 20
-17.6
 70
     8
  0
VERTEX
  8
ガラス
 10
96.45
 20
-17.675
 70
     8
  0
VERTEX
  8
ガラス
 10
96.475
 20
-17.725
 70
     8
  0
VERTEX
  8
ガラス
 10
96.475
 20
-17.8
 70
     8
  0
VERTEX
  8
ガラス
 10
96.475
 20
-17.85
 70
     8
  0
VERTEX
  8
ガラス
 10
96.475
 20
-17.9
 70
     8
  0
VERTEX
  8
ガラス
 10
96.5
 20
-17.975
 70
     8
  0
VERTEX
  8
ガラス
 10
96.5
 20
-18.025
 70
     8
  0
VERTEX
  8
ガラス
 10
96.5
 20
-18.1
 70
     8
  0
VERTEX
  8
ガラス
 10
96.525
 20
-18.15
 70
     8
  0
VERTEX
  8
ガラス
 10
96.525
 20
-18.225
 70
     8
  0
VERTEX
  8
ガラス
 10
96.525
 20
-18.275
 70
     8
  0
VERTEX
  8
ガラス
 10
96.55
 20
-18.35
 70
     8
  0
VERTEX
  8
ガラス
 10
96.55
 20
-18.4
 70
     8
  0
VERTEX
  8
ガラス
 10
96.575
 20
-18.45
 70
     8
  0
VERTEX
  8
ガラス
 10
96.575
 20
-18.525
 70
     8
  0
VERTEX
  8
ガラス
 10
96.6
 20
-18.575
 70
     8
  0
VERTEX
  8
ガラス
 10
96.6
 20
-18.65
 70
     8
  0
VERTEX
  8
ガラス
 10
96.625
 20
-18.7
 70
     8
  0
VERTEX
  8
ガラス
 10
96.625
 20
-18.75
 70
     8
  0
VERTEX
  8
ガラス
 10
96.65
 20
-18.825
 70
     8
  0
VERTEX
  8
ガラス
 10
96.65
 20
-18.875
 70
     8
  0
VERTEX
  8
ガラス
 10
96.675
 20
-18.925
 70
     8
  0
VERTEX
  8
ガラス
 10
96.7
 20
-19.0
 70
     8
  0
VERTEX
  8
ガラス
 10
96.7
 20
-19.05
 70
     8
  0
VERTEX
  8
ガラス
 10
96.725
 20
-19.1
 70
     8
  0
VERTEX
  8
ガラス
 10
96.75
 20
-19.175
 70
     8
  0
VERTEX
  8
ガラス
 10
96.775
 20
-19.225
 70
     8
  0
VERTEX
  8
ガラス
 10
96.8
 20
-19.275
 70
     8
  0
VERTEX
  8
ガラス
 10
96.8
 20
-19.35
 70
     8
  0
VERTEX
  8
ガラス
 10
96.825
 20
-19.4
 70
     8
  0
VERTEX
  8
ガラス
 10
96.85
 20
-19.45
 70
     8
  0
VERTEX
  8
ガラス
 10
96.875
 20
-19.5
 70
     8
  0
VERTEX
  8
ガラス
 10
96.9
 20
-19.575
 70
     8
  0
VERTEX
  8
ガラス
 10
96.925
 20
-19.625
 70
     8
  0
VERTEX
  8
ガラス
 10
96.95
 20
-19.675
 70
     8
  0
VERTEX
  8
ガラス
 10
96.975
 20
-19.75
 70
     8
  0
VERTEX
  8
ガラス
 10
97.0
 20
-19.8
 70
     8
  0
VERTEX
  8
ガラス
 10
97.025
 20
-19.85
 70
     8
  0
VERTEX
  8
ガラス
 10
97.05
 20
-19.9
 70
     8
  0
SEQEND
  0
ARC
  8
ガラス
  6
CONTINUOUS
 10
96.170136
 20
-20.259988
 40
0.955135
 50
202.264587
 51
382.264587
  0
ENDBLK
  0
BLOCK
  2
*GRP_0017
 70
    65
 10
0.0
 20
0.0
  0
POLYLINE
  8
ガラス
  6
CONTINUOUS
 66
     1
 70
     4
  0
VERTEX
  8
ガラス
 10
95.275
 20
-35.475
 70
     8
  0
VERTEX
  8
ガラス
 10
95.275
 20
-35.375
 70
     8
  0
VERTEX
  8
ガラス
 10
95.25
 20
-35.3
 70
     8
  0
VERTEX
  8
ガラス
 10
95.25
 20
-35.2
 70
     8
  0
VERTEX
  8
ガラス
 10
95.225
 20
-35.1
 70
     8
  0
VERTEX
  8
ガラス
 10
95.225
 20
-35.0
 70
     8
  0
VERTEX
  8
ガラス
 10
95.225
 20
-34.925
 70
     8
  0
VERTEX
  8
ガラス
 10
95.2
 20
-34.825
 70
     8
  0
VERTEX
  8
ガラス
 10
95.2
 20
-34.75
 70
     8
  0
VERTEX
  8
ガラス
 10
95.2
 20
-34.65
 70
     8
  0
VERTEX
  8
ガラス
 10
95.2
 20
-34.55
 70
     8
  0
VERTEX
  8
ガラス
 10
95.2
 20
-34.475
 70
     8
  0
VERTEX
  8
ガラス
 10
95.2
 20
-34.375
 70
     8
  0
VERTEX
  8
ガラス
 10
95.2
 20
-34.3
 70
     8
  0
VERTEX
  8
ガラス
 10
95.225
 20
-34.2
 70
     8
  0
VERTEX
  8
ガラス
 10
95.225
 20
-34.125
 70
     8
  0
VERTEX
  8
ガラス
 10
95.225
 20
-34.05
 70
     8
  0
VERTEX
  8
ガラス
 10
95.25
 20
-33.95
 70
     8
  0
VERTEX
  8
ガラス
 10
95.275
 20
-33.875
 70
     8
  0
VERTEX
  8
ガラス
 10
95.3
 20
-33.8
 70
     8
  0
VERTEX
  8
ガラス
 10
95.325
 20
-33.725
 70
     8
  0
VERTEX
  8
ガラス
 10
95.35
 20
-33.65
 70
     8
  0
VERTEX
  8
ガラス
 10
95.375
 20
-33.575
 70
     8
  0
VERTEX
  8
ガラス
 10
95.425
 20
-33.5
 70
     8
  0
VERTEX
  8
ガラス
 10
95.475
 20
-33.425
 70
     8
  0
VERTEX
  8
ガラス
 10
95.5
 20
-33.35
 70
     8
  0
VERTEX
  8
ガラス
 10
95.55
 20
-33.275
 70
     8
  0
VERTEX
  8
ガラス
 10
95.6
 20
-33.2
 70
     8
  0
VERTEX
  8
ガラス
 10
95.65
 20
-33.15
 70
     8
  0
VERTEX
  8
ガラス
 10
95.725
 20
-33.075
 70
     8
  0
VERTEX
  8
ガラス
 10
95.775
 20
-33.0
 70
     8
  0
VERTEX
  8
ガラス
 10
95.825
 20
-32.95
 70
     8
  0
VERTEX
  8
ガラス
 10
95.9
 20
-32.875
 70
     8
  0
VERTEX
  8
ガラス
 10
95.975
 20
-32.825
 70
     8
  0
VERTEX
  8
ガラス
 10
96.025
 20
-32.75
 70
     8
  0
VERTEX
  8
ガラス
 10
96.1
 20
-32.7
 70
     8
  0
VERTEX
  8
ガラス
 10
96.175
 20
-32.625
 70
     8
  0
VERTEX
  8
ガラス
 10
96.225
 20
-32.575
 70
     8
  0
VERTEX
  8
ガラス
 10
96.3
 20
-32.5
 70
     8
  0
VERTEX
  8
ガラス
 10
96.375
 20
-32.45
 70
     8
  0
VERTEX
  8
ガラス
 10
96.45
 20
-32.375
 70
     8
  0
SEQEND
  0
POLYLINE
  8
ガラス
  6
CONTINUOUS
 66
     1
 70
     4
  0
VERTEX
  8
ガラス
 10
96.45
 20
-32.375
 70
     8
  0
VERTEX
  8
ガラス
 10
96.45
 20
-32.45
 70
     8
  0
VERTEX
  8
ガラス
 10
96.45
 20
-32.5
 70
     8
  0
VERTEX
  8
ガラス
 10
96.475
 20
-32.575
 70
     8
  0
VERTEX
  8
ガラス
 10
96.475
 20
-32.625
 70
     8
  0
VERTEX
  8
ガラス
 10
96.475
 20
-32.7
 70
     8
  0
VERTEX
  8
ガラス
 10
96.475
 20
-32.75
 70
     8
  0
VERTEX
  8
ガラス
 10
96.5
 20
-32.825
 70
     8
  0
VERTEX
  8
ガラス
 10
96.5
 20
-32.875
 70
     8
  0
VERTEX
  8
ガラス
 10
96.5
 20
-32.925
 70
     8
  0
VERTEX
  8
ガラス
 10
96.525
 20
-33.0
 70
     8
  0
VERTEX
  8
ガラス
 10
96.525
 20
-33.05
 70
     8
  0
VERTEX
  8
ガラス
 10
96.525
 20
-33.125
 70
     8
  0
VERTEX
  8
ガラス
 10
96.55
 20
-33.175
 70
     8
  0
VERTEX
  8
ガラス
 10
96.55
 20
-33.25
 70
     8
  0
VERTEX
  8
ガラス
 10
96.575
 20
-33.3
 70
     8
  0
VERTEX
  8
ガラス
 10
96.575
 20
-33.35
 70
     8
  0
VERTEX
  8
ガラス
 10
96.6
 20
-33.425
 70
     8
  0
VERTEX
  8
ガラス
 10
96.6
 20
-33.475
 70
     8
  0
VERTEX
  8
ガラス
 10
96.625
 20
-33.55
 70
     8
  0
VERTEX
  8
ガラス
 10
96.625
 20
-33.6
 70
     8
  0
VERTEX
  8
ガラス
 10
96.65
 20
-33.65
 70
     8
  0
VERTEX
  8
ガラス
 10
96.65
 20
-33.725
 70
     8
  0
VERTEX
  8
ガラス
 10
96.675
 20
-33.775
 70
     8
  0
VERTEX
  8
ガラス
 10
96.7
 20
-33.825
 70
     8
  0
VERTEX
  8
ガラス
 10
96.7
 20
-33.9
 70
     8
  0
VERTEX
  8
ガラス
 10
96.725
 20
-33.95
 70
     8
  0
VERTEX
  8
ガラス
 10
96.75
 20
-34.0
 70
     8
  0
VERTEX
  8
ガラス
 10
96.775
 20
-34.075
 70
     8
  0
VERTEX
  8
ガラス
 10
96.8
 20
-34.125
 70
     8
  0
VERTEX
  8
ガラス
 10
96.8
 20
-34.175
 70
     8
  0
VERTEX
  8
ガラス
 10
96.825
 20
-34.25
 70
     8
  0
VERTEX
  8
ガラス
 10
96.85
 20
-34.3
 70
     8
  0
VERTEX
  8
ガラス
 10
96.875
 20
-34.35
 70
     8
  0
VERTEX
  8
ガラス
 10
96.9
 20
-34.4
 70
     8
  0
VERTEX
  8
ガラス
 10
96.925
 20
-34.475
 70
     8
  0
VERTEX
  8
ガラス
 10
96.95
 20
-34.525
 70
     8
  0
VERTEX
  8
ガラス
 10
96.975
 20
-34.575
 70
     8
  0
VERTEX
  8
ガラス
 10
97.0
 20
-34.65
 70
     8
  0
VERTEX
  8
ガラス
 10
97.025
 20
-34.7
 70
     8
  0
VERTEX
  8
ガラス
 10
97.05
 20
-34.75
 70
     8
  0
SEQEND
  0
ARC
  8
ガラス
  6
CONTINUOUS
 10
96.170136
 20
-35.101258
 40
0.955135
 50
202.264587
 51
382.264587
  0
ENDBLK
  0
BLOCK
  2
*GRP_0018
 70
    65
 10
0.0
 20
0.0
  0
POLYLINE
  8
ガラス
  6
CONTINUOUS
 66
     1
 70
     4
  0
VERTEX
  8
ガラス
 10
95.275
 20
-48.85
 70
     8
  0
VERTEX
  8
ガラス
 10
95.275
 20
-48.775
 70
     8
  0
VERTEX
  8
ガラス
 10
95.25
 20
-48.675
 70
     8
  0
VERTEX
  8
ガラス
 10
95.25
 20
-48.575
 70
     8
  0
VERTEX
  8
ガラス
 10
95.225
 20
-48.5
 70
     8
  0
VERTEX
  8
ガラス
 10
95.225
 20
-48.4
 70
     8
  0
VERTEX
  8
ガラス
 10
95.225
 20
-48.3
 70
     8
  0
VERTEX
  8
ガラス
 10
95.2
 20
-48.225
 70
     8
  0
VERTEX
  8
ガラス
 10
95.2
 20
-48.125
 70
     8
  0
VERTEX
  8
ガラス
 10
95.2
 20
-48.025
 70
     8
  0
VERTEX
  8
ガラス
 10
95.2
 20
-47.95
 70
     8
  0
VERTEX
  8
ガラス
 10
95.2
 20
-47.85
 70
     8
  0
VERTEX
  8
ガラス
 10
95.2
 20
-47.775
 70
     8
  0
VERTEX
  8
ガラス
 10
95.2
 20
-47.675
 70
     8
  0
VERTEX
  8
ガラス
 10
95.225
 20
-47.6
 70
     8
  0
VERTEX
  8
ガラス
 10
95.225
 20
-47.5
 70
     8
  0
VERTEX
  8
ガラス
 10
95.225
 20
-47.425
 70
     8
  0
VERTEX
  8
ガラス
 10
95.25
 20
-47.35
 70
     8
  0
VERTEX
  8
ガラス
 10
95.275
 20
-47.275
 70
     8
  0
VERTEX
  8
ガラス
 10
95.3
 20
-47.175
 70
     8
  0
VERTEX
  8
ガラス
 10
95.325
 20
-47.1
 70
     8
  0
VERTEX
  8
ガラス
 10
95.35
 20
-47.025
 70
     8
  0
VERTEX
  8
ガラス
 10
95.375
 20
-46.95
 70
     8
  0
VERTEX
  8
ガラス
 10
95.425
 20
-46.875
 70
     8
  0
VERTEX
  8
ガラス
 10
95.475
 20
-46.8
 70
     8
  0
VERTEX
  8
ガラス
 10
95.5
 20
-46.725
 70
     8
  0
VERTEX
  8
ガラス
 10
95.55
 20
-46.675
 70
     8
  0
VERTEX
  8
ガラス
 10
95.6
 20
-46.6
 70
     8
  0
VERTEX
  8
ガラス
 10
95.65
 20
-46.525
 70
     8
  0
VERTEX
  8
ガラス
 10
95.725
 20
-46.475
 70
     8
  0
VERTEX
  8
ガラス
 10
95.775
 20
-46.4
 70
     8
  0
VERTEX
  8
ガラス
 10
95.825
 20
-46.325
 70
     8
  0
VERTEX
  8
ガラス
 10
95.9
 20
-46.275
 70
     8
  0
VERTEX
  8
ガラス
 10
95.975
 20
-46.2
 70
     8
  0
VERTEX
  8
ガラス
 10
96.025
 20
-46.15
 70
     8
  0
VERTEX
  8
ガラス
 10
96.1
 20
-46.075
 70
     8
  0
VERTEX
  8
ガラス
 10
96.175
 20
-46.025
 70
     8
  0
VERTEX
  8
ガラス
 10
96.225
 20
-45.95
 70
     8
  0
VERTEX
  8
ガラス
 10
96.3
 20
-45.9
 70
     8
  0
VERTEX
  8
ガラス
 10
96.375
 20
-45.825
 70
     8
  0
VERTEX
  8
ガラス
 10
96.45
 20
-45.775
 70
     8
  0
SEQEND
  0
POLYLINE
  8
ガラス
  6
CONTINUOUS
 66
     1
 70
     4
  0
VERTEX
  8
ガラス
 10
96.45
 20
-45.775
 70
     8
  0
VERTEX
  8
ガラス
 10
96.45
 20
-45.825
 70
     8
  0
VERTEX
  8
ガラス
 10
96.45
 20
-45.9
 70
     8
  0
VERTEX
  8
ガラス
 10
96.475
 20
-45.95
 70
     8
  0
VERTEX
  8
ガラス
 10
96.475
 20
-46.025
 70
     8
  0
VERTEX
  8
ガラス
 10
96.475
 20
-46.075
 70
     8
  0
VERTEX
  8
ガラス
 10
96.475
 20
-46.15
 70
     8
  0
VERTEX
  8
ガラス
 10
96.5
 20
-46.2
 70
     8
  0
VERTEX
  8
ガラス
 10
96.5
 20
-46.25
 70
     8
  0
VERTEX
  8
ガラス
 10
96.5
 20
-46.325
 70
     8
  0
VERTEX
  8
ガラス
 10
96.525
 20
-46.375
 70
     8
  0
VERTEX
  8
ガラス
 10
96.525
 20
-46.45
 70
     8
  0
VERTEX
  8
ガラス
 10
96.525
 20
-46.5
 70
     8
  0
VERTEX
  8
ガラス
 10
96.55
 20
-46.575
 70
     8
  0
VERTEX
  8
ガラス
 10
96.55
 20
-46.625
 70
     8
  0
VERTEX
  8
ガラス
 10
96.575
 20
-46.675
 70
     8
  0
VERTEX
  8
ガラス
 10
96.575
 20
-46.75
 70
     8
  0
VERTEX
  8
ガラス
 10
96.6
 20
-46.8
 70
     8
  0
VERTEX
  8
ガラス
 10
96.6
 20
-46.875
 70
     8
  0
VERTEX
  8
ガラス
 10
96.625
 20
-46.925
 70
     8
  0
VERTEX
  8
ガラス
 10
96.625
 20
-46.975
 70
     8
  0
VERTEX
  8
ガラス
 10
96.65
 20
-47.05
 70
     8
  0
VERTEX
  8
ガラス
 10
96.65
 20
-47.1
 70
     8
  0
VERTEX
  8
ガラス
 10
96.675
 20
-47.15
 70
     8
  0
VERTEX
  8
ガラス
 10
96.7
 20
-47.225
 70
     8
  0
VERTEX
  8
ガラス
 10
96.7
 20
-47.275
 70
     8
  0
VERTEX
  8
ガラス
 10
96.725
 20
-47.325
 70
     8
  0
VERTEX
  8
ガラス
 10
96.75
 20
-47.4
 70
     8
  0
VERTEX
  8
ガラス
 10
96.775
 20
-47.45
 70
     8
  0
VERTEX
  8
ガラス
 10
96.8
 20
-47.5
 70
     8
  0
VERTEX
  8
ガラス
 10
96.8
 20
-47.575
 70
     8
  0
VERTEX
  8
ガラス
 10
96.825
 20
-47.625
 70
     8
  0
VERTEX
  8
ガラス
 10
96.85
 20
-47.675
 70
     8
  0
VERTEX
  8
ガラス
 10
96.875
 20
-47.75
 70
     8
  0
VERTEX
  8
ガラス
 10
96.9
 20
-47.8
 70
     8
  0
VERTEX
  8
ガラス
 10
96.925
 20
-47.85
 70
     8
  0
VERTEX
  8
ガラス
 10
96.95
 20
-47.9
 70
     8
  0
VERTEX
  8
ガラス
 10
96.975
 20
-47.975
 70
     8
  0
VERTEX
  8
ガラス
 10
97.0
 20
-48.025
 70
     8
  0
VERTEX
  8
ガラス
 10
97.025
 20
-48.075
 70
     8
  0
VERTEX
  8
ガラス
 10
97.05
 20
-48.15
 70
     8
  0
SEQEND
  0
ARC
  8
ガラス
  6
CONTINUOUS
 10
96.170136
 20
-48.487501
 40
0.955135
 50
202.264587
 51
382.264587
  0
ENDBLK
  0
BLOCK
  2
*GRP_0019
 70
    65
 10
0.0
 20
0.0
  0
POLYLINE
  8
ガラス
  6
CONTINUOUS
 66
     1
 70
     4
  0
VERTEX
  8
ガラス
 10
99.4
 20
-58.775
 70
     8
  0
VERTEX
  8
ガラス
 10
99.3
 20
-58.75
 70
     8
  0
VERTEX
  8
ガラス
 10
99.225
 20
-58.7
 70
     8
  0
VERTEX
  8
ガラス
 10
99.125
 20
-58.675
 70
     8
  0
VERTEX
  8
ガラス
 10
99.05
 20
-58.625
 70
     8
  0
VERTEX
  8
ガラス
 10
98.95
 20
-58.6
 70
     8
  0
VERTEX
  8
ガラス
 10
98.875
 20
-58.55
 70
     8
  0
VERTEX
  8
ガラス
 10
98.8
 20
-58.525
 70
     8
  0
VERTEX
  8
ガラス
 10
98.725
 20
-58.475
 70
     8
  0
VERTEX
  8
ガラス
 10
98.625
 20
-58.45
 70
     8
  0
VERTEX
  8
ガラス
 10
98.55
 20
-58.4
 70
     8
  0
VERTEX
  8
ガラス
 10
98.475
 20
-58.35
 70
     8
  0
VERTEX
  8
ガラス
 10
98.4
 20
-58.3
 70
     8
  0
VERTEX
  8
ガラス
 10
98.325
 20
-58.275
 70
     8
  0
VERTEX
  8
ガラス
 10
98.25
 20
-58.225
 70
     8
  0
VERTEX
  8
ガラス
 10
98.175
 20
-58.175
 70
     8
  0
VERTEX
  8
ガラス
 10
98.125
 20
-58.125
 70
     8
  0
VERTEX
  8
ガラス
 10
98.05
 20
-58.05
 70
     8
  0
VERTEX
  8
ガラス
 10
98.0
 20
-58.0
 70
     8
  0
VERTEX
  8
ガラス
 10
97.925
 20
-57.95
 70
     8
  0
VERTEX
  8
ガラス
 10
97.875
 20
-57.875
 70
     8
  0
VERTEX
  8
ガラス
 10
97.825
 20
-57.825
 70
     8
  0
VERTEX
  8
ガラス
 10
97.775
 20
-57.75
 70
     8
  0
VERTEX
  8
ガラス
 10
97.725
 20
-57.675
 70
     8
  0
VERTEX
  8
ガラス
 10
97.675
 20
-57.6
 70
     8
  0
VERTEX
  8
ガラス
 10
97.65
 20
-57.55
 70
     8
  0
VERTEX
  8
ガラス
 10
97.6
 20
-57.45
 70
     8
  0
VERTEX
  8
ガラス
 10
97.575
 20
-57.375
 70
     8
  0
VERTEX
  8
ガラス
 10
97.55
 20
-57.3
 70
     8
  0
VERTEX
  8
ガラス
 10
97.5
 20
-57.225
 70
     8
  0
VERTEX
  8
ガラス
 10
97.475
 20
-57.15
 70
     8
  0
VERTEX
  8
ガラス
 10
97.45
 20
-57.05
 70
     8
  0
VERTEX
  8
ガラス
 10
97.425
 20
-56.975
 70
     8
  0
VERTEX
  8
ガラス
 10
97.4
 20
-56.875
 70
     8
  0
VERTEX
  8
ガラス
 10
97.375
 20
-56.8
 70
     8
  0
VERTEX
  8
ガラス
 10
97.35
 20
-56.7
 70
     8
  0
VERTEX
  8
ガラス
 10
97.35
 20
-56.625
 70
     8
  0
VERTEX
  8
ガラス
 10
97.325
 20
-56.525
 70
     8
  0
VERTEX
  8
ガラス
 10
97.3
 20
-56.425
 70
     8
  0
VERTEX
  8
ガラス
 10
97.275
 20
-56.35
 70
     8
  0
VERTEX
  8
ガラス
 10
97.25
 20
-56.25
 70
     8
  0
SEQEND
  0
POLYLINE
  8
ガラス
  6
CONTINUOUS
 66
     1
 70
     4
  0
VERTEX
  8
ガラス
 10
97.25
 20
-56.25
 70
     8
  0
VERTEX
  8
ガラス
 10
97.325
 20
-56.275
 70
     8
  0
VERTEX
  8
ガラス
 10
97.375
 20
-56.3
 70
     8
  0
VERTEX
  8
ガラス
 10
97.425
 20
-56.325
 70
     8
  0
VERTEX
  8
ガラス
 10
97.5
 20
-56.35
 70
     8
  0
VERTEX
  8
ガラス
 10
97.55
 20
-56.375
 70
     8
  0
VERTEX
  8
ガラス
 10
97.6
 20
-56.4
 70
     8
  0
VERTEX
  8
ガラス
 10
97.65
 20
-56.425
 70
     8
  0
VERTEX
  8
ガラス
 10
97.725
 20
-56.45
 70
     8
  0
VERTEX
  8
ガラス
 10
97.775
 20
-56.475
 70
     8
  0
VERTEX
  8
ガラス
 10
97.825
 20
-56.475
 70
     8
  0
VERTEX
  8
ガラス
 10
97.9
 20
-56.5
 70
     8
  0
VERTEX
  8
ガラス
 10
97.95
 20
-56.525
 70
     8
  0
VERTEX
  8
ガラス
 10
98.0
 20
-56.55
 70
     8
  0
VERTEX
  8
ガラス
 10
98.05
 20
-56.575
 70
     8
  0
VERTEX
  8
ガラス
 10
98.125
 20
-56.6
 70
     8
  0
VERTEX
  8
ガラス
 10
98.175
 20
-56.6
 70
     8
  0
VERTEX
  8
ガラス
 10
98.225
 20
-56.625
 70
     8
  0
VERTEX
  8
ガラス
 10
98.3
 20
-56.65
 70
     8
  0
VERTEX
  8
ガラス
 10
98.35
 20
-56.675
 70
     8
  0
VERTEX
  8
ガラス
 10
98.4
 20
-56.675
 70
     8
  0
VERTEX
  8
ガラス
 10
98.475
 20
-56.7
 70
     8
  0
VERTEX
  8
ガラス
 10
98.525
 20
-56.7
 70
     8
  0
VERTEX
  8
ガラス
 10
98.6
 20
-56.725
 70
     8
  0
VERTEX
  8
ガラス
 10
98.65
 20
-56.75
 70
     8
  0
VERTEX
  8
ガラス
 10
98.7
 20
-56.75
 70
     8
  0
VERTEX
  8
ガラス
 10
98.775
 20
-56.775
 70
     8
  0
VERTEX
  8
ガラス
 10
98.825
 20
-56.775
 70
     8
  0
VERTEX
  8
ガラス
 10
98.9
 20
-56.775
 70
     8
  0
VERTEX
  8
ガラス
 10
98.95
 20
-56.8
 70
     8
  0
VERTEX
  8
ガラス
 10
99.0
 20
-56.8
 70
     8
  0
VERTEX
  8
ガラス
 10
99.075
 20
-56.825
 70
     8
  0
VERTEX
  8
ガラス
 10
99.125
 20
-56.825
 70
     8
  0
VERTEX
  8
ガラス
 10
99.2
 20
-56.825
 70
     8
  0
VERTEX
  8
ガラス
 10
99.25
 20
-56.85
 70
     8
  0
VERTEX
  8
ガラス
 10
99.325
 20
-56.85
 70
     8
  0
VERTEX
  8
ガラス
 10
99.375
 20
-56.85
 70
     8
  0
VERTEX
  8
ガラス
 10
99.425
 20
-56.85
 70
     8
  0
VERTEX
  8
ガラス
 10
99.5
 20
-56.875
 70
     8
  0
VERTEX
  8
ガラス
 10
99.55
 20
-56.875
 70
     8
  0
VERTEX
  8
ガラス
 10
99.625
 20
-56.875
 70
     8
  0
SEQEND
  0
ARC
  8
ガラス
  6
CONTINUOUS
 10
99.51692
 20
-57.818305
 40
0.955135
 50
263.117442
 51
443.117442
  0
ENDBLK
  0
BLOCK
  2
*GRP_0020
 70
    65
 10
0.0
 20
0.0
  0
POLYLINE
  8
ガラス
  6
CONTINUOUS
 66
     1
 70
     4
  0
VERTEX
  8
ガラス
 10
95.45
 20
15.775
 70
     8
  0
VERTEX
  8
ガラス
 10
95.425
 20
15.875
 70
     8
  0
VERTEX
  8
ガラス
 10
95.425
 20
15.975
 70
     8
  0
VERTEX
  8
ガラス
 10
95.4
 20
16.05
 70
     8
  0
VERTEX
  8
ガラス
 10
95.4
 20
16.15
 70
     8
  0
VERTEX
  8
ガラス
 10
95.4
 20
16.25
 70
     8
  0
VERTEX
  8
ガラス
 10
95.375
 20
16.35
 70
     8
  0
VERTEX
  8
ガラス
 10
95.375
 20
16.425
 70
     8
  0
VERTEX
  8
ガラス
 10
95.375
 20
16.525
 70
     8
  0
VERTEX
  8
ガラス
 10
95.375
 20
16.6
 70
     8
  0
VERTEX
  8
ガラス
 10
95.375
 20
16.7
 70
     8
  0
VERTEX
  8
ガラス
 10
95.375
 20
16.8
 70
     8
  0
VERTEX
  8
ガラス
 10
95.375
 20
16.875
 70
     8
  0
VERTEX
  8
ガラス
 10
95.375
 20
16.975
 70
     8
  0
VERTEX
  8
ガラス
 10
95.375
 20
17.05
 70
     8
  0
VERTEX
  8
ガラス
 10
95.4
 20
17.125
 70
     8
  0
VERTEX
  8
ガラス
 10
95.4
 20
17.225
 70
     8
  0
VERTEX
  8
ガラス
 10
95.425
 20
17.3
 70
     8
  0
VERTEX
  8
ガラス
 10
95.45
 20
17.375
 70
     8
  0
VERTEX
  8
ガラス
 10
95.45
 20
17.45
 70
     8
  0
VERTEX
  8
ガラス
 10
95.475
 20
17.55
 70
     8
  0
VERTEX
  8
ガラス
 10
95.525
 20
17.625
 70
     8
  0
VERTEX
  8
ガラス
 10
95.55
 20
17.7
 70
     8
  0
VERTEX
  8
ガラス
 10
95.6
 20
17.775
 70
     8
  0
VERTEX
  8
ガラス
 10
95.625
 20
17.85
 70
     8
  0
VERTEX
  8
ガラス
 10
95.675
 20
17.9
 70
     8
  0
VERTEX
  8
ガラス
 10
95.725
 20
17.975
 70
     8
  0
VERTEX
  8
ガラス
 10
95.775
 20
18.05
 70
     8
  0
VERTEX
  8
ガラス
 10
95.825
 20
18.125
 70
     8
  0
VERTEX
  8
ガラス
 10
95.875
 20
18.175
 70
     8
  0
VERTEX
  8
ガラス
 10
95.95
 20
18.25
 70
     8
  0
VERTEX
  8
ガラス
 10
96.0
 20
18.325
 70
     8
  0
VERTEX
  8
ガラス
 10
96.075
 20
18.375
 70
     8
  0
VERTEX
  8
ガラス
 10
96.125
 20
18.45
 70
     8
  0
VERTEX
  8
ガラス
 10
96.2
 20
18.5
 70
     8
  0
VERTEX
  8
ガラス
 10
96.275
 20
18.575
 70
     8
  0
VERTEX
  8
ガラス
 10
96.325
 20
18.625
 70
     8
  0
VERTEX
  8
ガラス
 10
96.4
 20
18.7
 70
     8
  0
VERTEX
  8
ガラス
 10
96.475
 20
18.75
 70
     8
  0
VERTEX
  8
ガラス
 10
96.55
 20
18.8
 70
     8
  0
VERTEX
  8
ガラス
 10
96.6
 20
18.875
 70
     8
  0
SEQEND
  0
POLYLINE
  8
ガラス
  6
CONTINUOUS
 66
     1
 70
     4
  0
VERTEX
  8
ガラス
 10
96.6
 20
18.875
 70
     8
  0
VERTEX
  8
ガラス
 10
96.625
 20
18.8
 70
     8
  0
VERTEX
  8
ガラス
 10
96.625
 20
18.75
 70
     8
  0
VERTEX
  8
ガラス
 10
96.625
 20
18.7
 70
     8
  0
VERTEX
  8
ガラス
 10
96.625
 20
18.625
 70
     8
  0
VERTEX
  8
ガラス
 10
96.65
 20
18.575
 70
     8
  0
VERTEX
  8
ガラス
 10
96.65
 20
18.5
 70
     8
  0
VERTEX
  8
ガラス
 10
96.65
 20
18.45
 70
     8
  0
VERTEX
  8
ガラス
 10
96.675
 20
18.375
 70
     8
  0
VERTEX
  8
ガラス
 10
96.675
 20
18.325
 70
     8
  0
VERTEX
  8
ガラス
 10
96.675
 20
18.25
 70
     8
  0
VERTEX
  8
ガラス
 10
96.7
 20
18.2
 70
     8
  0
VERTEX
  8
ガラス
 10
96.7
 20
18.15
 70
     8
  0
VERTEX
  8
ガラス
 10
96.7
 20
18.075
 70
     8
  0
VERTEX
  8
ガラス
 10
96.725
 20
18.025
 70
     8
  0
VERTEX
  8
ガラス
 10
96.725
 20
17.95
 70
     8
  0
VERTEX
  8
ガラス
 10
96.75
 20
17.9
 70
     8
  0
VERTEX
  8
ガラス
 10
96.75
 20
17.85
 70
     8
  0
VERTEX
  8
ガラス
 10
96.775
 20
17.775
 70
     8
  0
VERTEX
  8
ガラス
 10
96.775
 20
17.725
 70
     8
  0
VERTEX
  8
ガラス
 10
96.8
 20
17.65
 70
     8
  0
VERTEX
  8
ガラス
 10
96.8
 20
17.6
 70
     8
  0
VERTEX
  8
ガラス
 10
96.825
 20
17.55
 70
     8
  0
VERTEX
  8
ガラス
 10
96.85
 20
17.475
 70
     8
  0
VERTEX
  8
ガラス
 10
96.85
 20
17.425
 70
     8
  0
VERTEX
  8
ガラス
 10
96.875
 20
17.375
 70
     8
  0
VERTEX
  8
ガラス
 10
96.9
 20
17.3
 70
     8
  0
VERTEX
  8
ガラス
 10
96.925
 20
17.25
 70
     8
  0
VERTEX
  8
ガラス
 10
96.95
 20
17.2
 70
     8
  0
VERTEX
  8
ガラス
 10
96.95
 20
17.125
 70
     8
  0
VERTEX
  8
ガラス
 10
96.975
 20
17.075
 70
     8
  0
VERTEX
  8
ガラス
 10
97.0
 20
17.025
 70
     8
  0
VERTEX
  8
ガラス
 10
97.025
 20
16.975
 70
     8
  0
VERTEX
  8
ガラス
 10
97.05
 20
16.9
 70
     8
  0
VERTEX
  8
ガラス
 10
97.075
 20
16.85
 70
     8
  0
VERTEX
  8
ガラス
 10
97.1
 20
16.8
 70
     8
  0
VERTEX
  8
ガラス
 10
97.125
 20
16.725
 70
     8
  0
VERTEX
  8
ガラス
 10
97.15
 20
16.675
 70
     8
  0
VERTEX
  8
ガラス
 10
97.15
 20
16.625
 70
     8
  0
VERTEX
  8
ガラス
 10
97.175
 20
16.575
 70
     8
  0
VERTEX
  8
ガラス
 10
97.2
 20
16.5
 70
     8
  0
SEQEND
  0
ARC
  8
ガラス
  6
CONTINUOUS
 10
96.337792
 20
16.157287
 40
0.955135
 50
202.264587
 51
382.264587
  0
ENDBLK
  0
BLOCK
  2
*GRP_0021
 70
    65
 10
0.0
 20
0.0
  0
POLYLINE
  8
ガラス
  6
CONTINUOUS
 66
     1
 70
     4
  0
VERTEX
  8
ガラス
 10
95.45
 20
-4.925
 70
     8
  0
VERTEX
  8
ガラス
 10
95.425
 20
-4.85
 70
     8
  0
VERTEX
  8
ガラス
 10
95.425
 20
-4.75
 70
     8
  0
VERTEX
  8
ガラス
 10
95.4
 20
-4.65
 70
     8
  0
VERTEX
  8
ガラス
 10
95.4
 20
-4.575
 70
     8
  0
VERTEX
  8
ガラス
 10
95.4
 20
-4.475
 70
     8
  0
VERTEX
  8
ガラス
 10
95.375
 20
-4.375
 70
     8
  0
VERTEX
  8
ガラス
 10
95.375
 20
-4.3
 70
     8
  0
VERTEX
  8
ガラス
 10
95.375
 20
-4.2
 70
     8
  0
VERTEX
  8
ガラス
 10
95.375
 20
-4.1
 70
     8
  0
VERTEX
  8
ガラス
 10
95.375
 20
-4.025
 70
     8
  0
VERTEX
  8
ガラス
 10
95.375
 20
-3.925
 70
     8
  0
VERTEX
  8
ガラス
 10
95.375
 20
-3.85
 70
     8
  0
VERTEX
  8
ガラス
 10
95.375
 20
-3.75
 70
     8
  0
VERTEX
  8
ガラス
 10
95.375
 20
-3.675
 70
     8
  0
VERTEX
  8
ガラス
 10
95.4
 20
-3.575
 70
     8
  0
VERTEX
  8
ガラス
 10
95.4
 20
-3.5
 70
     8
  0
VERTEX
  8
ガラス
 10
95.425
 20
-3.425
 70
     8
  0
VERTEX
  8
ガラス
 10
95.45
 20
-3.35
 70
     8
  0
VERTEX
  8
ガラス
 10
95.45
 20
-3.25
 70
     8
  0
VERTEX
  8
ガラス
 10
95.475
 20
-3.175
 70
     8
  0
VERTEX
  8
ガラス
 10
95.525
 20
-3.1
 70
     8
  0
VERTEX
  8
ガラス
 10
95.55
 20
-3.025
 70
     8
  0
VERTEX
  8
ガラス
 10
95.6
 20
-2.95
 70
     8
  0
VERTEX
  8
ガラス
 10
95.625
 20
-2.875
 70
     8
  0
VERTEX
  8
ガラス
 10
95.675
 20
-2.8
 70
     8
  0
VERTEX
  8
ガラス
 10
95.725
 20
-2.75
 70
     8
  0
VERTEX
  8
ガラス
 10
95.775
 20
-2.675
 70
     8
  0
VERTEX
  8
ガラス
 10
95.825
 20
-2.6
 70
     8
  0
VERTEX
  8
ガラス
 10
95.875
 20
-2.525
 70
     8
  0
VERTEX
  8
ガラス
 10
95.95
 20
-2.475
 70
     8
  0
VERTEX
  8
ガラス
 10
96.0
 20
-2.4
 70
     8
  0
VERTEX
  8
ガラス
 10
96.075
 20
-2.35
 70
     8
  0
VERTEX
  8
ガラス
 10
96.125
 20
-2.275
 70
     8
  0
VERTEX
  8
ガラス
 10
96.2
 20
-2.225
 70
     8
  0
VERTEX
  8
ガラス
 10
96.275
 20
-2.15
 70
     8
  0
VERTEX
  8
ガラス
 10
96.325
 20
-2.1
 70
     8
  0
VERTEX
  8
ガラス
 10
96.4
 20
-2.025
 70
     8
  0
VERTEX
  8
ガラス
 10
96.475
 20
-1.975
 70
     8
  0
VERTEX
  8
ガラス
 10
96.55
 20
-1.9
 70
     8
  0
VERTEX
  8
ガラス
 10
96.6
 20
-1.85
 70
     8
  0
SEQEND
  0
POLYLINE
  8
ガラス
  6
CONTINUOUS
 66
     1
 70
     4
  0
VERTEX
  8
ガラス
 10
96.6
 20
-1.85
 70
     8
  0
VERTEX
  8
ガラス
 10
96.625
 20
-1.9
 70
     8
  0
VERTEX
  8
ガラス
 10
96.625
 20
-1.975
 70
     8
  0
VERTEX
  8
ガラス
 10
96.625
 20
-2.025
 70
     8
  0
VERTEX
  8
ガラス
 10
96.625
 20
-2.1
 70
     8
  0
VERTEX
  8
ガラス
 10
96.65
 20
-2.15
 70
     8
  0
VERTEX
  8
ガラス
 10
96.65
 20
-2.225
 70
     8
  0
VERTEX
  8
ガラス
 10
96.65
 20
-2.275
 70
     8
  0
VERTEX
  8
ガラス
 10
96.675
 20
-2.325
 70
     8
  0
VERTEX
  8
ガラス
 10
96.675
 20
-2.4
 70
     8
  0
VERTEX
  8
ガラス
 10
96.675
 20
-2.45
 70
     8
  0
VERTEX
  8
ガラス
 10
96.7
 20
-2.525
 70
     8
  0
VERTEX
  8
ガラス
 10
96.7
 20
-2.575
 70
     8
  0
VERTEX
  8
ガラス
 10
96.7
 20
-2.65
 70
     8
  0
VERTEX
  8
ガラス
 10
96.725
 20
-2.7
 70
     8
  0
VERTEX
  8
ガラス
 10
96.725
 20
-2.75
 70
     8
  0
VERTEX
  8
ガラス
 10
96.75
 20
-2.825
 70
     8
  0
VERTEX
  8
ガラス
 10
96.75
 20
-2.875
 70
     8
  0
VERTEX
  8
ガラス
 10
96.775
 20
-2.95
 70
     8
  0
VERTEX
  8
ガラス
 10
96.775
 20
-3.0
 70
     8
  0
VERTEX
  8
ガラス
 10
96.8
 20
-3.05
 70
     8
  0
VERTEX
  8
ガラス
 10
96.8
 20
-3.125
 70
     8
  0
VERTEX
  8
ガラス
 10
96.825
 20
-3.175
 70
     8
  0
VERTEX
  8
ガラス
 10
96.85
 20
-3.225
 70
     8
  0
VERTEX
  8
ガラス
 10
96.85
 20
-3.3
 70
     8
  0
VERTEX
  8
ガラス
 10
96.875
 20
-3.35
 70
     8
  0
VERTEX
  8
ガラス
 10
96.9
 20
-3.4
 70
     8
  0
VERTEX
  8
ガラス
 10
96.925
 20
-3.475
 70
     8
  0
VERTEX
  8
ガラス
 10
96.95
 20
-3.525
 70
     8
  0
VERTEX
  8
ガラス
 10
96.95
 20
-3.575
 70
     8
  0
VERTEX
  8
ガラス
 10
96.975
 20
-3.65
 70
     8
  0
VERTEX
  8
ガラス
 10
97.0
 20
-3.7
 70
     8
  0
VERTEX
  8
ガラス
 10
97.025
 20
-3.75
 70
     8
  0
VERTEX
  8
ガラス
 10
97.05
 20
-3.825
 70
     8
  0
VERTEX
  8
ガラス
 10
97.075
 20
-3.875
 70
     8
  0
VERTEX
  8
ガラス
 10
97.1
 20
-3.925
 70
     8
  0
VERTEX
  8
ガラス
 10
97.125
 20
-3.975
 70
     8
  0
VERTEX
  8
ガラス
 10
97.15
 20
-4.05
 70
     8
  0
VERTEX
  8
ガラス
 10
97.15
 20
-4.1
 70
     8
  0
VERTEX
  8
ガラス
 10
97.175
 20
-4.15
 70
     8
  0
VERTEX
  8
ガラス
 10
97.2
 20
-4.225
 70
     8
  0
SEQEND
  0
ARC
  8
ガラス
  6
CONTINUOUS
 10
96.337791
 20
-4.562289
 40
0.955135
 50
202.264587
 51
382.264587
  0
ENDBLK
  0
BLOCK
  2
*GRP_0022
 70
    65
 10
0.0
 20
0.0
  0
LINE
  8
ゴム等
  6
CONTINUOUS
 10
-81.861075
 20
-26.30487
 11
-82.361078
 21
-28.804868
  0
LINE
  8
ゴム等
  6
CONTINUOUS
 10
-76.56108
 20
-28.804868
 11
-77.061075
 21
-26.30487
  0
LINE
  8
ゴム等
  6
CONTINUOUS
 10
-74.46108
 20
-33.80487
 11
-74.46108
 21
-28.804868
  0
LINE
  8
ゴム等
  6
CONTINUOUS
 10
-84.461078
 20
-33.80487
 11
-84.461078
 21
-28.804868
  0
LINE
  8
ゴム等
  6
CONTINUOUS
 10
-81.861075
 20
-26.30487
 11
-77.061075
 21
-26.30487
  0
LINE
  8
ゴム等
  6
CONTINUOUS
 10
-74.46108
 20
-28.804868
 11
-76.56108
 21
-28.804868
  0
LINE
  8
ゴム等
  6
CONTINUOUS
 10
-82.361078
 20
-28.804868
 11
-84.461078
 21
-28.804868
  0
LINE
  8
ゴム等
  6
CONTINUOUS
 10
-79.461075
 20
-33.304868
 11
-78.96108
 21
-33.80487
  0
LINE
  8
ゴム等
  6
CONTINUOUS
 10
-79.461075
 20
-33.304868
 11
-79.961078
 21
-33.80487
  0
LINE
  8
ゴム等
  6
CONTINUOUS
 10
-84.461078
 20
-33.80487
 11
-79.961078
 21
-33.80487
  0
LINE
  8
ゴム等
  6
CONTINUOUS
 10
-78.96108
 20
-33.80487
 11
-74.46108
 21
-33.80487
  0
INSERT
  2
*HAT_0001
  8
ゴム等
 10
0.0
 20
0.0
  0
ENDBLK
  0
BLOCK
  2
*GRP_0023
 70
    65
 10
0.0
 20
0.0
  0
LINE
  8
ゴム等
  6
CONTINUOUS
 10
-9.76101
 20
-57.104932
 11
-12.261007
 21
-56.604937
  0
LINE
  8
ゴム等
  6
CONTINUOUS
 10
-12.261007
 20
-62.404935
 11
-9.76101
 21
-61.904932
  0
LINE
  8
ゴム等
  6
CONTINUOUS
 10
-17.26101
 20
-64.504935
 11
-12.261007
 21
-64.504935
  0
LINE
  8
ゴム等
  6
CONTINUOUS
 10
-17.26101
 20
-54.504937
 11
-12.261007
 21
-54.504937
  0
LINE
  8
ゴム等
  6
CONTINUOUS
 10
-9.76101
 20
-57.104932
 11
-9.76101
 21
-61.904932
  0
LINE
  8
ゴム等
  6
CONTINUOUS
 10
-12.261007
 20
-64.504935
 11
-12.261007
 21
-62.404935
  0
LINE
  8
ゴム等
  6
CONTINUOUS
 10
-12.261007
 20
-56.604937
 11
-12.261007
 21
-54.504937
  0
LINE
  8
ゴム等
  6
CONTINUOUS
 10
-16.761007
 20
-59.504932
 11
-17.26101
 21
-60.004935
  0
LINE
  8
ゴム等
  6
CONTINUOUS
 10
-16.761007
 20
-59.504932
 11
-17.26101
 21
-59.004937
  0
LINE
  8
ゴム等
  6
CONTINUOUS
 10
-17.26101
 20
-54.504937
 11
-17.26101
 21
-59.004937
  0
LINE
  8
ゴム等
  6
CONTINUOUS
 10
-17.26101
 20
-60.004935
 11
-17.26101
 21
-64.504935
  0
LINE
  8
ゴム等
  6
CONTINUOUS
 10
-9.76101
 20
-59.277015
 11
-14.533087
 21
-54.504937
  0
LINE
  8
ゴム等
  6
CONTINUOUS
 10
-9.76101
 20
-61.39833
 11
-16.654403
 21
-54.504937
  0
LINE
  8
ゴム等
  6
CONTINUOUS
 10
-11.106615
 20
-62.174055
 11
-17.26101
 21
-56.01966
  0
LINE
  8
ゴム等
  6
CONTINUOUS
 10
-12.261007
 20
-63.140978
 11
-17.26101
 21
-58.140975
  0
LINE
  8
ゴム等
  6
CONTINUOUS
 10
-15.139695
 20
-64.504935
 11
-17.26101
 21
-62.38362
  0
LINE
  8
ゴム等
  6
CONTINUOUS
 10
-13.018365
 20
-64.504935
 11
-17.26101
 21
-60.26229
  0
ENDBLK
  0
BLOCK
  2
*GRP_0024
 70
    65
 10
0.0
 20
0.0
  0
LINE
  8
ゴム等
  6
CONTINUOUS
 10
-96.46101
 20
-5.30934
 11
-91.461007
 21
-5.30934
  0
LINE
  8
ゴム等
  6
CONTINUOUS
 10
-96.46101
 20
-5.30934
 11
-96.46101
 21
-15.309338
  0
LINE
  8
ゴム等
  6
CONTINUOUS
 10
-96.46101
 20
-15.309338
 11
-91.461007
 21
-15.309338
  0
LINE
  8
ゴム等
  6
CONTINUOUS
 10
-91.461007
 20
-5.30934
 11
-91.461007
 21
-15.309338
  0
LINE
  8
ゴム等
  6
CONTINUOUS
 10
-92.791133
 20
-15.309338
 11
-91.461007
 21
-13.979212
  0
LINE
  8
ゴム等
  6
CONTINUOUS
 10
-94.205347
 20
-15.309338
 11
-91.461007
 21
-12.564998
  0
LINE
  8
ゴム等
  6
CONTINUOUS
 10
-95.619555
 20
-15.309338
 11
-91.461007
 21
-11.15079
  0
LINE
  8
ゴム等
  6
CONTINUOUS
 10
-96.46101
 20
-11.908147
 11
-91.461007
 21
-6.908145
  0
LINE
  8
ゴム等
  6
CONTINUOUS
 10
-96.46101
 20
-13.322362
 11
-91.461007
 21
-8.32236
  0
LINE
  8
ゴム等
  6
CONTINUOUS
 10
-96.46101
 20
-14.73657
 11
-91.461007
 21
-9.736575
  0
LINE
  8
ゴム等
  6
CONTINUOUS
 10
-96.46101
 20
-10.493933
 11
-91.461007
 21
-5.49393
  0
LINE
  8
ゴム等
  6
CONTINUOUS
 10
-96.46101
 20
-9.079717
 11
-92.690625
 21
-5.30934
  0
LINE
  8
ゴム等
  6
CONTINUOUS
 10
-96.46101
 20
-7.66551
 11
-94.10484
 21
-5.30934
  0
LINE
  8
ゴム等
  6
CONTINUOUS
 10
-96.46101
 20
-6.251295
 11
-95.519055
 21
-5.30934
  0
ENDBLK
  0
BLOCK
  2
*GRP_0025
 70
    65
 10
0.0
 20
0.0
  0
LINE
  8
ゴム等
  6
CONTINUOUS
 10
-84.16101
 20
24.690712
 11
-84.16101
 21
22.69071
  0
LINE
  8
ゴム等
  6
CONTINUOUS
 10
-84.16101
 20
14.690715
 11
-84.16101
 21
12.690712
  0
LINE
  8
ゴム等
  6
CONTINUOUS
 10
-84.16101
 20
14.690715
 11
-84.16101
 21
14.690715
  0
ARC
  8
ゴム等
  6
CONTINUOUS
 10
-84.161001
 20
15.19071
 40
0.5
 50
270.0
 51
360.0
  0
LINE
  8
ゴム等
  6
CONTINUOUS
 10
-83.661007
 20
22.190715
 11
-83.661007
 21
15.19071
  0
LINE
  8
ゴム等
  6
CONTINUOUS
 10
-84.16101
 20
22.69071
 11
-84.16101
 21
22.69071
  0
ARC
  8
ゴム等
  6
CONTINUOUS
 10
-84.161001
 20
22.19071
 40
0.5
 50
0.0
 51
90.0
  0
LINE
  8
ゴム等
  6
CONTINUOUS
 10
-84.16101
 20
12.690712
 11
-81.16101
 21
12.690712
  0
LINE
  8
ゴム等
  6
CONTINUOUS
 10
-84.16101
 20
24.690712
 11
-81.16101
 21
24.690712
  0
LINE
  8
ゴム等
  6
CONTINUOUS
 10
-79.36101
 20
21.090712
 11
-81.16101
 21
21.090712
  0
LINE
  8
ゴム等
  6
CONTINUOUS
 10
-81.16101
 20
24.690712
 11
-81.16101
 21
21.090712
  0
LINE
  8
ゴム等
  6
CONTINUOUS
 10
-79.36101
 20
16.290712
 11
-81.16101
 21
16.290712
  0
LINE
  8
ゴム等
  6
CONTINUOUS
 10
-81.16101
 20
12.690712
 11
-81.16101
 21
16.290712
  0
LINE
  8
ゴム等
  6
CONTINUOUS
 10
-79.36101
 20
16.290712
 11
-79.36101
 21
15.290715
  0
LINE
  8
ゴム等
  6
CONTINUOUS
 10
-79.36101
 20
15.290715
 11
-78.861007
 21
15.290715
  0
LINE
  8
ゴム等
  6
CONTINUOUS
 10
-79.36101
 20
21.090712
 11
-79.36101
 21
22.09071
  0
LINE
  8
ゴム等
  6
CONTINUOUS
 10
-78.861007
 20
22.09071
 11
-79.36101
 21
22.09071
  0
ARC
  8
ゴム等
  6
CONTINUOUS
 10
-78.561001
 20
18.69071
 40
1.0
 50
-90.0
 51
0.0
  0
LINE
  8
ゴム等
  6
CONTINUOUS
 10
-77.56101
 20
18.690712
 11
-77.56101
 21
18.690712
  0
ARC
  8
ゴム等
  6
CONTINUOUS
 10
-78.561001
 20
18.69071
 40
1.0
 50
0.0
 51
90.0
  0
LINE
  8
ゴム等
  6
CONTINUOUS
 10
-80.161013
 20
19.69071
 11
-78.561007
 21
19.69071
  0
ARC
  8
ゴム等
  6
CONTINUOUS
 10
-80.161001
 20
18.69071
 40
1.0
 50
90.0
 51
180.0
  0
LINE
  8
ゴム等
  6
CONTINUOUS
 10
-81.16101
 20
18.690712
 11
-81.16101
 21
18.690712
  0
LINE
  8
ゴム等
  6
CONTINUOUS
 10
-80.161013
 20
17.690715
 11
-78.561007
 21
17.690715
  0
ARC
  8
ゴム等
  6
CONTINUOUS
 10
-80.161001
 20
18.69071
 40
1.0
 50
180.0
 51
270.0
  0
LINE
  8
ゴム等
  6
CONTINUOUS
 10
-81.16101
 20
24.519135
 11
-81.332588
 21
24.690712
  0
LINE
  8
ゴム等
  6
CONTINUOUS
 10
-84.16101
 20
13.377
 11
-83.474723
 21
12.690712
  0
LINE
  8
ゴム等
  6
CONTINUOUS
 10
-84.069038
 20
14.699243
 11
-82.060508
 21
12.690712
  0
LINE
  8
ゴム等
  6
CONTINUOUS
 10
-83.661007
 20
15.705435
 11
-81.16101
 21
13.20543
  0
LINE
  8
ゴム等
  6
CONTINUOUS
 10
-83.661007
 20
17.119643
 11
-81.16101
 21
14.619645
  0
LINE
  8
ゴム等
  6
CONTINUOUS
 10
-83.661007
 20
18.533857
 11
-81.16101
 21
16.03386
  0
LINE
  8
ゴム等
  6
CONTINUOUS
 10
-80.003647
 20
16.290712
 11
-83.661007
 21
19.948072
  0
LINE
  8
ゴム等
  6
CONTINUOUS
 10
-79.36101
 20
15.648075
 11
-79.00365
 21
15.290715
  0
LINE
  8
ゴム等
  6
CONTINUOUS
 10
-82.746795
 20
24.690712
 11
-81.16101
 21
23.104927
  0
LINE
  8
ゴム等
  6
CONTINUOUS
 10
-79.36101
 20
21.304927
 11
-76.66101
 21
18.604927
  0
LINE
  8
ゴム等
  6
CONTINUOUS
 10
-84.16101
 20
24.690712
 11
-81.16101
 21
21.690712
  0
LINE
  8
ゴム等
  6
CONTINUOUS
 10
-80.511712
 20
19.6272
 11
-84.16101
 21
23.276498
  0
LINE
  8
ゴム等
  6
CONTINUOUS
 10
-81.148312
 20
18.849585
 11
-83.661007
 21
21.362287
  0
LINE
  8
ゴム等
  6
CONTINUOUS
 10
-80.56101
 20
21.090712
 11
-79.161007
 21
19.69071
  0
LINE
  8
ゴム等
  6
CONTINUOUS
 10
-79.989435
 20
17.690715
 11
-78.252862
 21
15.954142
  0
LINE
  8
ゴム等
  6
CONTINUOUS
 10
-78.575227
 20
17.690715
 11
-77.576505
 21
16.691993
  0
LINE
  8
ゴム等
  6
CONTINUOUS
 10
-77.68278
 20
18.212483
 11
-76.90014
 21
17.429843
  0
LINE
  8
ゴム等
  6
CONTINUOUS
 10
-78.861007
 20
15.290715
 11
-76.66101
 21
17.690715
  0
LINE
  8
ゴム等
  6
CONTINUOUS
 10
-78.861007
 20
22.09071
 11
-76.66101
 21
19.69071
  0
LINE
  8
ゴム等
  6
CONTINUOUS
 10
-76.66101
 20
17.690715
 11
-76.66101
 21
19.69071
  0
ENDBLK
  0
BLOCK
  2
*GRP_0026
 70
    65
 10
0.0
 20
0.0
  0
LINE
  8
ゴム等
  6
DOT
 10
18.237548
 20
-62.00499
 11
18.73755
 21
-59.504993
  0
LINE
  8
ゴム等
  6
DOT
 10
12.937545
 20
-59.504993
 11
13.437548
 21
-62.00499
  0
LINE
  8
ゴム等
  6
DOT
 10
10.837545
 20
-54.50499
 11
10.837545
 21
-59.504993
  0
LINE
  8
ゴム等
  6
DOT
 10
20.83755
 20
-54.50499
 11
20.83755
 21
-59.504993
  0
LINE
  8
ゴム等
  6
DOT
 10
18.237548
 20
-62.00499
 11
13.437548
 21
-62.00499
  0
LINE
  8
ゴム等
  6
DOT
 10
10.837545
 20
-59.504993
 11
12.937545
 21
-59.504993
  0
LINE
  8
ゴム等
  6
DOT
 10
18.73755
 20
-59.504993
 11
20.83755
 21
-59.504993
  0
LINE
  8
ゴム等
  6
DOT
 10
15.837548
 20
-55.004993
 11
15.337545
 21
-54.50499
  0
LINE
  8
ゴム等
  6
DOT
 10
15.837548
 20
-55.004993
 11
16.33755
 21
-54.50499
  0
LINE
  8
ゴム等
  6
DOT
 10
20.83755
 20
-54.50499
 11
16.33755
 21
-54.50499
  0
LINE
  8
ゴム等
  6
DOT
 10
15.337545
 20
-54.50499
 11
10.837545
 21
-54.50499
  0
INSERT
  2
*HAT_0002
  8
ゴム等
 10
0.0
 20
0.0
  0
ENDBLK
  0
BLOCK
  2
*GRP_0027
 70
    65
 10
0.0
 20
0.0
  0
LINE
  8
ゴム等
  6
DOT
 10
113.339048
 20
-41.805045
 11
110.83905
 21
-42.30504
  0
LINE
  8
ゴム等
  6
DOT
 10
110.83905
 20
-36.505043
 11
113.339048
 21
-37.005045
  0
LINE
  8
ゴム等
  6
DOT
 10
105.839048
 20
-34.405043
 11
110.83905
 21
-34.405043
  0
LINE
  8
ゴム等
  6
DOT
 10
105.839048
 20
-44.40504
 11
110.83905
 21
-44.40504
  0
LINE
  8
ゴム等
  6
DOT
 10
113.339048
 20
-41.805045
 11
113.339048
 21
-37.005045
  0
LINE
  8
ゴム等
  6
DOT
 10
110.83905
 20
-34.405043
 11
110.83905
 21
-36.505043
  0
LINE
  8
ゴム等
  6
DOT
 10
110.83905
 20
-42.30504
 11
110.83905
 21
-44.40504
  0
LINE
  8
ゴム等
  6
DOT
 10
106.33905
 20
-39.405045
 11
105.839048
 21
-38.905043
  0
LINE
  8
ゴム等
  6
DOT
 10
106.33905
 20
-39.405045
 11
105.839048
 21
-39.90504
  0
LINE
  8
ゴム等
  6
DOT
 10
105.839048
 20
-44.40504
 11
105.839048
 21
-39.90504
  0
LINE
  8
ゴム等
  6
DOT
 10
105.839048
 20
-38.905043
 11
105.839048
 21
-34.405043
  0
INSERT
  2
*HAT_0003
  8
ゴム等
 10
0.0
 20
0.0
  0
ENDBLK
  0
BLOCK
  2
*GRP_0028
 70
    65
 10
0.0
 20
0.0
  0
LINE
  8
ゴム等
  6
CONTINUOUS
 10
1.837515
 20
-43.50498
 11
1.837515
 21
-39.504983
  0
LINE
  8
ゴム等
  6
CONTINUOUS
 10
7.837515
 20
-43.50498
 11
7.837515
 21
-51.504983
  0
LINE
  8
ゴム等
  6
CONTINUOUS
 10
1.837515
 20
-51.504983
 11
4.03752
 21
-51.504983
  0
LINE
  8
ゴム等
  6
CONTINUOUS
 10
1.837515
 20
-43.50498
 11
4.03752
 21
-43.50498
  0
LINE
  8
ゴム等
  6
CONTINUOUS
 10
1.837515
 20
-51.504983
 11
1.837515
 21
-53.504985
  0
ARC
  8
ゴム等
  6
CONTINUOUS
 10
2.837522
 20
-47.004971
 40
1.0
 50
90.0
 51
180.0
  0
LINE
  8
ゴム等
  6
CONTINUOUS
 10
5.337517
 20
-46.004985
 11
2.83752
 21
-46.004985
  0
ARC
  8
ゴム等
  6
CONTINUOUS
 10
5.337522
 20
-47.004971
 40
1.0
 50
0.0
 51
90.0
  0
LINE
  8
ゴム等
  6
CONTINUOUS
 10
6.337515
 20
-47.004983
 11
6.337515
 21
-48.00498
  0
ARC
  8
ゴム等
  6
CONTINUOUS
 10
5.337522
 20
-48.004971
 40
1.0
 50
-90.0
 51
0.0
  0
LINE
  8
ゴム等
  6
CONTINUOUS
 10
5.337517
 20
-49.004985
 11
2.83752
 21
-49.004985
  0
LINE
  8
ゴム等
  6
CONTINUOUS
 10
1.837515
 20
-47.004983
 11
1.837515
 21
-48.00498
  0
ARC
  8
ゴム等
  6
CONTINUOUS
 10
2.837522
 20
-48.004971
 40
1.0
 50
180.0
 51
270.0
  0
LINE
  8
ゴム等
  6
CONTINUOUS
 10
-0.362482
 20
-39.504983
 11
1.837515
 21
-39.504983
  0
ARC
  8
ゴム等
  6
CONTINUOUS
 10
-0.362478
 20
-41.504971
 40
2.0
 50
90.0
 51
180.0
  0
LINE
  8
ゴム等
  6
CONTINUOUS
 10
-2.362485
 20
-41.504985
 11
-2.362485
 21
-55.004985
  0
ARC
  8
ゴム等
  6
CONTINUOUS
 10
-1.362478
 20
-55.004971
 40
1.0
 50
180.0
 51
270.0
  0
LINE
  8
ゴム等
  6
CONTINUOUS
 10
7.837515
 20
-43.50498
 11
4.632308
 21
-42.764048
  0
ARC
  8
ゴム等
  6
CONTINUOUS
 10
4.537522
 20
-43.254971
 40
0.5
 50
79.071863
 51
180.0
  0
LINE
  8
ゴム等
  6
CONTINUOUS
 10
4.03752
 20
-43.50498
 11
4.03752
 21
-43.254983
  0
LINE
  8
ゴム等
  6
CONTINUOUS
 10
7.837515
 20
-51.504983
 11
4.632308
 21
-52.245915
  0
ARC
  8
ゴム等
  6
CONTINUOUS
 10
4.537522
 20
-51.754971
 40
0.5
 50
180.0
 51
280.928137
  0
LINE
  8
ゴム等
  6
CONTINUOUS
 10
4.03752
 20
-51.504983
 11
4.03752
 21
-51.75498
  0
LINE
  8
ゴム等
  6
CONTINUOUS
 10
-1.36248
 20
-56.004983
 11
-0.662482
 21
-56.004983
  0
LINE
  8
ゴム等
  6
CONTINUOUS
 10
-0.662482
 20
-56.004983
 11
-0.962482
 21
-53.504985
  0
LINE
  8
ゴム等
  6
CONTINUOUS
 10
1.837515
 20
-53.504985
 11
-0.962482
 21
-53.504985
  0
INSERT
  2
*HAT_0004
  8
ゴム等
 10
0.0
 20
0.0
  0
ENDBLK
  0
BLOCK
  2
*GRP_0029
 70
    65
 10
0.0
 20
0.0
  0
LINE
  8
ゴム等
  6
CONTINUOUS
 10
8.139
 20
-66.85986
 11
8.139
 21
-61.859857
  0
LINE
  8
ゴム等
  6
CONTINUOUS
 10
6.138998
 20
-61.859857
 11
4.638998
 21
-61.859857
  0
LINE
  8
ゴム等
  6
CONTINUOUS
 10
6.138998
 20
-66.85986
 11
4.638998
 21
-66.85986
  0
LINE
  8
ゴム等
  6
CONTINUOUS
 10
4.638998
 20
-70.859858
 11
4.638998
 21
-66.85986
  0
LINE
  8
ゴム等
  6
CONTINUOUS
 10
4.638998
 20
-61.859857
 11
4.638998
 21
-55.859857
  0
LINE
  8
ゴム等
  6
CONTINUOUS
 10
4.638998
 20
-55.859857
 11
1.638998
 21
-55.859857
  0
LINE
  8
ゴム等
  6
CONTINUOUS
 10
1.638998
 20
-53.859855
 11
1.638998
 21
-55.859857
  0
LINE
  8
ゴム等
  6
CONTINUOUS
 10
1.638998
 20
-53.859855
 11
-0.861
 21
-53.859855
  0
ARC
  8
ゴム等
  6
CONTINUOUS
 10
10.389002
 20
-64.859845
 40
12.75
 50
151.927513
 51
208.072487
  0
LINE
  8
ゴム等
  6
CONTINUOUS
 10
-0.861
 20
-53.859855
 11
-0.861
 21
-58.859857
  0
LINE
  8
ゴム等
  6
CONTINUOUS
 10
4.638998
 20
-70.859858
 11
-0.861
 21
-70.859858
  0
LINE
  8
ゴム等
  6
CONTINUOUS
 10
8.139
 20
-61.859857
 11
6.942705
 21
-60.95979
  0
ARC
  8
ゴム等
  6
CONTINUOUS
 10
6.639002
 20
-61.359845
 40
0.5
 50
52.618449
 51
180.0
  0
LINE
  8
ゴム等
  6
CONTINUOUS
 10
6.138998
 20
-61.859857
 11
6.138998
 21
-61.359855
  0
LINE
  8
ゴム等
  6
CONTINUOUS
 10
8.139
 20
-66.85986
 11
6.942705
 21
-67.75992
  0
ARC
  8
ゴム等
  6
CONTINUOUS
 10
6.639002
 20
-67.359845
 40
0.5
 50
180.0
 51
307.381551
  0
LINE
  8
ゴム等
  6
CONTINUOUS
 10
6.138998
 20
-66.85986
 11
6.138998
 21
-67.359855
  0
INSERT
  2
*HAT_0005
  8
ゴム等
 10
0.0
 20
0.0
  0
ENDBLK
  0
BLOCK
  2
*GRP_0030
 70
    65
 10
0.0
 20
0.0
  0
LINE
  8
ボルト／ビス
  6
CONTINUOUS
 10
-82.961078
 20
-35.804872
 11
-82.869375
 21
-36.853035
  0
ARC
  8
ボルト／ビス
  6
CONTINUOUS
 10
-81.175844
 20
-36.704872
 40
1.7
 50
184.999989
 51
270.0
  0
LINE
  8
ボルト／ビス
  6
CONTINUOUS
 10
-81.175845
 20
-38.404868
 11
-79.461075
 21
-38.404868
  0
LINE
  8
ボルト／ビス
  6
CONTINUOUS
 10
-75.96108
 20
-35.804872
 11
-76.052783
 21
-36.853035
  0
ARC
  8
ボルト／ビス
  6
CONTINUOUS
 10
-77.746311
 20
-36.704872
 40
1.7
 50
270.0
 51
355.000011
  0
LINE
  8
ボルト／ビス
  6
CONTINUOUS
 10
-77.746313
 20
-38.404868
 11
-79.461075
 21
-38.404868
  0
LINE
  8
ボルト／ビス
  6
CONTINUOUS
 10
-81.857715
 20
-38.019967
 11
-81.857715
 21
-38.262128
  0
LINE
  8
ボルト／ビス
  6
CONTINUOUS
 10
-80.16108
 20
-37.369883
 11
-79.461075
 21
-37.369883
  0
LINE
  8
ボルト／ビス
  6
CONTINUOUS
 10
-80.561078
 20
-38.019967
 11
-81.857715
 21
-38.019967
  0
LINE
  8
ボルト／ビス
  6
CONTINUOUS
 10
-80.16108
 20
-37.369883
 11
-80.16108
 21
-37.619963
  0
ARC
  8
ボルト／ビス
  6
CONTINUOUS
 10
-80.561077
 20
-37.619967
 40
0.4
 50
270.0
 51
360.0
  0
LINE
  8
ボルト／ビス
  6
CONTINUOUS
 10
-77.064435
 20
-38.019967
 11
-77.064435
 21
-38.262128
  0
LINE
  8
ボルト／ビス
  6
CONTINUOUS
 10
-78.761078
 20
-37.369883
 11
-79.461075
 21
-37.369883
  0
LINE
  8
ボルト／ビス
  6
CONTINUOUS
 10
-78.36108
 20
-38.019967
 11
-77.064435
 21
-38.019967
  0
LINE
  8
ボルト／ビス
  6
CONTINUOUS
 10
-78.761078
 20
-37.369883
 11
-78.761078
 21
-37.619963
  0
ARC
  8
ボルト／ビス
  6
CONTINUOUS
 10
-78.361077
 20
-37.619967
 40
0.4
 50
180.0
 51
270.0
  0
LINE
  8
ボルト／ビス
  6
CONTINUOUS
 10
-82.961078
 20
-35.804872
 11
-75.96108
 21
-35.804872
  0
LINE
  8
ボルト／ビス
  6
CONTINUOUS
 10
-79.461075
 20
-40.376257
 11
-79.461075
 21
-13.531995
  0
LINE
  8
ボルト／ビス
  6
CONTINUOUS
 10
-81.461078
 20
-16.304872
 11
-80.961075
 21
-15.80487
  0
LINE
  8
ボルト／ビス
  6
CONTINUOUS
 10
-77.46108
 20
-16.304872
 11
-77.961075
 21
-15.80487
  0
LINE
  8
ボルト／ビス
  6
CONTINUOUS
 10
-81.461078
 20
-16.304872
 11
-77.46108
 21
-16.304872
  0
LINE
  8
ボルト／ビス
  6
CONTINUOUS
 10
-80.961075
 20
-15.80487
 11
-77.961075
 21
-15.80487
  0
LINE
  8
ボルト／ビス
  6
CONTINUOUS
 10
-80.961075
 20
-35.804872
 11
-80.961075
 21
-15.80487
  0
LINE
  8
ボルト／ビス
  6
CONTINUOUS
 10
-77.961075
 20
-35.804872
 11
-77.961075
 21
-15.80487
  0
LINE
  8
ボルト／ビス
  6
CONTINUOUS
 10
-81.461078
 20
-35.804872
 11
-81.461078
 21
-16.304872
  0
LINE
  8
ボルト／ビス
  6
CONTINUOUS
 10
-77.46108
 20
-35.804872
 11
-77.46108
 21
-16.304872
  0
ENDBLK
  0
BLOCK
  2
*GRP_0031
 70
    65
 10
0.0
 20
0.0
  0
LINE
  8
ボルト／ビス
  6
CONTINUOUS
 62
    64
 10
-5.66247
 20
-56.004937
 11
-4.614307
 21
-56.09664
  0
ARC
  8
ボルト／ビス
  6
CONTINUOUS
 62
    64
 10
-4.762457
 20
-57.790168
 40
1.7
 50
0.0
 51
85.000011
  0
LINE
  8
ボルト／ビス
  6
CONTINUOUS
 62
    64
 10
-3.062468
 20
-57.79017
 11
-3.062468
 21
-59.50494
  0
LINE
  8
ボルト／ビス
  6
CONTINUOUS
 62
    64
 10
-5.66247
 20
-63.004943
 11
-4.614307
 21
-62.91324
  0
ARC
  8
ボルト／ビス
  6
CONTINUOUS
 62
    64
 10
-4.762457
 20
-61.219701
 40
1.7
 50
274.999989
 51
360.0
  0
LINE
  8
ボルト／ビス
  6
CONTINUOUS
 62
    64
 10
-3.062468
 20
-61.21971
 11
-3.062468
 21
-59.50494
  0
LINE
  8
ボルト／ビス
  6
CONTINUOUS
 62
    64
 10
-3.447375
 20
-57.1083
 11
-3.205215
 21
-57.1083
  0
LINE
  8
ボルト／ビス
  6
CONTINUOUS
 62
    64
 10
-4.09746
 20
-58.804943
 11
-4.09746
 21
-59.50494
  0
LINE
  8
ボルト／ビス
  6
CONTINUOUS
 62
    64
 10
-3.447375
 20
-58.404937
 11
-3.447375
 21
-57.1083
  0
LINE
  8
ボルト／ビス
  6
CONTINUOUS
 62
    64
 10
-4.09746
 20
-58.804943
 11
-3.847372
 21
-58.804943
  0
ARC
  8
ボルト／ビス
  6
CONTINUOUS
 62
    64
 10
-3.847362
 20
-58.404935
 40
0.4
 50
270.0
 51
360.0
  0
LINE
  8
ボルト／ビス
  6
CONTINUOUS
 62
    64
 10
-3.447375
 20
-61.90158
 11
-3.205215
 21
-61.90158
  0
LINE
  8
ボルト／ビス
  6
CONTINUOUS
 62
    64
 10
-4.09746
 20
-60.204937
 11
-4.09746
 21
-59.50494
  0
LINE
  8
ボルト／ビス
  6
CONTINUOUS
 62
    64
 10
-3.447375
 20
-60.604943
 11
-3.447375
 21
-61.90158
  0
LINE
  8
ボルト／ビス
  6
CONTINUOUS
 62
    64
 10
-4.09746
 20
-60.204937
 11
-3.847372
 21
-60.204937
  0
ARC
  8
ボルト／ビス
  6
CONTINUOUS
 62
    64
 10
-3.847362
 20
-60.604935
 40
0.4
 50
0.0
 51
90.0
  0
LINE
  8
ボルト／ビス
  6
CONTINUOUS
 62
    64
 10
-5.66247
 20
-56.004937
 11
-5.66247
 21
-63.004943
  0
LINE
  8
ボルト／ビス
  6
CONTINUOUS
 62
    64
 10
-21.162472
 20
-57.504937
 11
-21.662468
 21
-58.00494
  0
LINE
  8
ボルト／ビス
  6
CONTINUOUS
 62
    64
 10
-21.162472
 20
-61.504943
 11
-21.662468
 21
-61.00494
  0
LINE
  8
ボルト／ビス
  6
CONTINUOUS
 62
    64
 10
-21.162472
 20
-57.504937
 11
-21.162472
 21
-61.504943
  0
LINE
  8
ボルト／ビス
  6
CONTINUOUS
 62
    64
 10
-21.662468
 20
-58.00494
 11
-21.662468
 21
-61.00494
  0
LINE
  8
ボルト／ビス
  6
CONTINUOUS
 62
    64
 10
-5.66247
 20
-61.504943
 11
-21.162472
 21
-61.504943
  0
LINE
  8
ボルト／ビス
  6
CONTINUOUS
 62
    64
 10
-5.66247
 20
-57.504937
 11
-21.162472
 21
-57.504937
  0
LINE
  8
ボルト／ビス
  6
CONTINUOUS
 62
    64
 10
-5.66247
 20
-58.00494
 11
-21.662468
 21
-58.00494
  0
LINE
  8
ボルト／ビス
  6
CONTINUOUS
 62
    64
 10
-5.66247
 20
-61.00494
 11
-21.662468
 21
-61.00494
  0
LINE
  8
ボルト／ビス
  6
DASHDOT
 62
    64
 10
-0.062468
 20
-59.50494
 11
-24.662468
 21
-59.50494
  0
ENDBLK
  0
BLOCK
  2
*GRP_0032
 70
    65
 10
0.0
 20
0.0
  0
LINE
  8
ボルト／ビス
  6
CONTINUOUS
 62
    64
 10
-68.060948
 20
-10.00494
 11
-67.969245
 21
-8.956778
  0
ARC
  8
ボルト／ビス
  6
CONTINUOUS
 62
    64
 10
-66.275707
 20
-9.104947
 40
1.7
 50
90.0
 51
175.000011
  0
LINE
  8
ボルト／ビス
  6
CONTINUOUS
 62
    64
 10
-66.275715
 20
-7.404945
 11
-64.560945
 21
-7.404945
  0
LINE
  8
ボルト／ビス
  6
CONTINUOUS
 62
    64
 10
-61.06095
 20
-10.00494
 11
-61.152653
 21
-8.956778
  0
ARC
  8
ボルト／ビス
  6
CONTINUOUS
 62
    64
 10
-62.846174
 20
-9.104947
 40
1.7
 50
4.999989
 51
90.0
  0
LINE
  8
ボルト／ビス
  6
CONTINUOUS
 62
    64
 10
-62.846183
 20
-7.404945
 11
-64.560945
 21
-7.404945
  0
LINE
  8
ボルト／ビス
  6
CONTINUOUS
 62
    64
 10
-66.957585
 20
-7.789845
 11
-66.957585
 21
-7.547685
  0
LINE
  8
ボルト／ビス
  6
CONTINUOUS
 62
    64
 10
-65.26095
 20
-8.43993
 11
-64.560945
 21
-8.43993
  0
LINE
  8
ボルト／ビス
  6
CONTINUOUS
 62
    64
 10
-65.660948
 20
-7.789845
 11
-66.957585
 21
-7.789845
  0
LINE
  8
ボルト／ビス
  6
CONTINUOUS
 62
    64
 10
-65.26095
 20
-8.43993
 11
-65.26095
 21
-8.18985
  0
ARC
  8
ボルト／ビス
  6
CONTINUOUS
 62
    64
 10
-65.66094
 20
-8.189852
 40
0.4
 50
0.0
 51
90.0
  0
LINE
  8
ボルト／ビス
  6
CONTINUOUS
 62
    64
 10
-62.164305
 20
-7.789845
 11
-62.164305
 21
-7.547685
  0
LINE
  8
ボルト／ビス
  6
CONTINUOUS
 62
    64
 10
-63.860948
 20
-8.43993
 11
-64.560945
 21
-8.43993
  0
LINE
  8
ボルト／ビス
  6
CONTINUOUS
 62
    64
 10
-63.46095
 20
-7.789845
 11
-62.164305
 21
-7.789845
  0
LINE
  8
ボルト／ビス
  6
CONTINUOUS
 62
    64
 10
-63.860948
 20
-8.43993
 11
-63.860948
 21
-8.18985
  0
ARC
  8
ボルト／ビス
  6
CONTINUOUS
 62
    64
 10
-63.46094
 20
-8.189852
 40
0.4
 50
90.0
 51
180.0
  0
LINE
  8
ボルト／ビス
  6
CONTINUOUS
 62
    64
 10
-68.060948
 20
-10.00494
 11
-61.06095
 21
-10.00494
  0
LINE
  8
ボルト／ビス
  6
CONTINUOUS
 62
    64
 10
-66.560948
 20
-21.504945
 11
-66.060945
 21
-22.00494
  0
LINE
  8
ボルト／ビス
  6
CONTINUOUS
 62
    64
 10
-62.56095
 20
-21.504945
 11
-63.060945
 21
-22.00494
  0
LINE
  8
ボルト／ビス
  6
CONTINUOUS
 62
    64
 10
-66.560948
 20
-21.504945
 11
-62.56095
 21
-21.504945
  0
LINE
  8
ボルト／ビス
  6
CONTINUOUS
 62
    64
 10
-66.060945
 20
-22.00494
 11
-63.060945
 21
-22.00494
  0
LINE
  8
ボルト／ビス
  6
CONTINUOUS
 62
    64
 10
-66.060945
 20
-10.00494
 11
-66.060945
 21
-22.00494
  0
LINE
  8
ボルト／ビス
  6
CONTINUOUS
 62
    64
 10
-63.060945
 20
-10.00494
 11
-63.060945
 21
-22.00494
  0
LINE
  8
ボルト／ビス
  6
CONTINUOUS
 62
    64
 10
-62.56095
 20
-10.00494
 11
-62.56095
 21
-21.504945
  0
LINE
  8
ボルト／ビス
  6
CONTINUOUS
 62
    64
 10
-66.560948
 20
-10.00494
 11
-66.560948
 21
-21.504945
  0
LINE
  8
ボルト／ビス
  6
DASHDOT
 62
    64
 10
-64.560945
 20
-4.404945
 11
-64.560945
 21
-25.00494
  0
ENDBLK
  0
BLOCK
  2
*GRP_0033
 70
    65
 10
0.0
 20
0.0
  0
LINE
  8
ボルト／ビス
  6
CONTINUOUS
 62
    64
 10
-82.96101
 20
-37.809345
 11
-82.869308
 21
-38.857507
  0
ARC
  8
ボルト／ビス
  6
CONTINUOUS
 62
    64
 10
-81.175771
 20
-38.709339
 40
1.7
 50
184.999989
 51
270.0
  0
LINE
  8
ボルト／ビス
  6
CONTINUOUS
 62
    64
 10
-81.175778
 20
-40.40934
 11
-79.461007
 21
-40.40934
  0
LINE
  8
ボルト／ビス
  6
CONTINUOUS
 62
    64
 10
-75.961013
 20
-37.809345
 11
-76.052715
 21
-38.857507
  0
ARC
  8
ボルト／ビス
  6
CONTINUOUS
 62
    64
 10
-77.746238
 20
-38.709339
 40
1.7
 50
270.0
 51
355.000011
  0
LINE
  8
ボルト／ビス
  6
CONTINUOUS
 62
    64
 10
-77.746245
 20
-40.40934
 11
-79.461007
 21
-40.40934
  0
LINE
  8
ボルト／ビス
  6
CONTINUOUS
 62
    64
 10
-81.857647
 20
-40.02444
 11
-81.857647
 21
-40.2666
  0
LINE
  8
ボルト／ビス
  6
CONTINUOUS
 62
    64
 10
-80.161013
 20
-39.374355
 11
-79.461007
 21
-39.374355
  0
LINE
  8
ボルト／ビス
  6
CONTINUOUS
 62
    64
 10
-80.56101
 20
-40.02444
 11
-81.857647
 21
-40.02444
  0
LINE
  8
ボルト／ビス
  6
CONTINUOUS
 62
    64
 10
-80.161013
 20
-39.374355
 11
-80.161013
 21
-39.624435
  0
ARC
  8
ボルト／ビス
  6
CONTINUOUS
 62
    64
 10
-80.561004
 20
-39.624434
 40
0.4
 50
270.0
 51
360.0
  0
LINE
  8
ボルト／ビス
  6
CONTINUOUS
 62
    64
 10
-77.064368
 20
-40.02444
 11
-77.064368
 21
-40.2666
  0
LINE
  8
ボルト／ビス
  6
CONTINUOUS
 62
    64
 10
-78.76101
 20
-39.374355
 11
-79.461007
 21
-39.374355
  0
LINE
  8
ボルト／ビス
  6
CONTINUOUS
 62
    64
 10
-78.361013
 20
-40.02444
 11
-77.064368
 21
-40.02444
  0
LINE
  8
ボルト／ビス
  6
CONTINUOUS
 62
    64
 10
-78.76101
 20
-39.374355
 11
-78.76101
 21
-39.624435
  0
ARC
  8
ボルト／ビス
  6
CONTINUOUS
 62
    64
 10
-78.361004
 20
-39.624434
 40
0.4
 50
180.0
 51
270.0
  0
LINE
  8
ボルト／ビス
  6
CONTINUOUS
 62
    64
 10
-82.96101
 20
-37.809345
 11
-75.961013
 21
-37.809345
  0
LINE
  8
ボルト／ビス
  6
CONTINUOUS
 62
    64
 10
-81.46101
 20
-26.30934
 11
-80.961007
 21
-25.809345
  0
LINE
  8
ボルト／ビス
  6
CONTINUOUS
 62
    64
 10
-77.461013
 20
-26.30934
 11
-77.961007
 21
-25.809345
  0
LINE
  8
ボルト／ビス
  6
CONTINUOUS
 62
    64
 10
-81.46101
 20
-26.30934
 11
-77.461013
 21
-26.30934
  0
LINE
  8
ボルト／ビス
  6
CONTINUOUS
 62
    64
 10
-80.961007
 20
-25.809345
 11
-77.961007
 21
-25.809345
  0
LINE
  8
ボルト／ビス
  6
CONTINUOUS
 62
    64
 10
-80.961007
 20
-37.809345
 11
-80.961007
 21
-25.809345
  0
LINE
  8
ボルト／ビス
  6
CONTINUOUS
 62
    64
 10
-77.961007
 20
-37.809345
 11
-77.961007
 21
-25.809345
  0
LINE
  8
ボルト／ビス
  6
CONTINUOUS
 62
    64
 10
-77.461013
 20
-37.809345
 11
-77.461013
 21
-26.30934
  0
LINE
  8
ボルト／ビス
  6
CONTINUOUS
 62
    64
 10
-81.46101
 20
-37.809345
 11
-81.46101
 21
-26.30934
  0
LINE
  8
ボルト／ビス
  6
DASHDOT
 62
    64
 10
-79.461007
 20
-43.40934
 11
-79.461007
 21
-22.809345
  0
ENDBLK
  0
BLOCK
  2
*GRP_0034
 70
    65
 10
0.0
 20
0.0
  0
LINE
  8
ボルト／ビス
  6
CONTINUOUS
 62
    64
 10
109.040378
 20
-24.488062
 11
110.08854
 21
-24.579765
  0
ARC
  8
ボルト／ビス
  6
CONTINUOUS
 62
    64
 10
109.940375
 20
-26.273304
 40
1.7
 50
359.999999
 51
445.00001
  0
LINE
  8
ボルト／ビス
  6
CONTINUOUS
 62
    64
 10
111.64038
 20
-26.273295
 11
111.64038
 21
-27.988065
  0
LINE
  8
ボルト／ビス
  6
CONTINUOUS
 62
    64
 10
109.04037
 20
-31.48806
 11
110.088532
 21
-31.396357
  0
ARC
  8
ボルト／ビス
  6
CONTINUOUS
 62
    64
 10
109.940375
 20
-29.702837
 40
1.7
 50
274.999988
 51
359.999999
  0
LINE
  8
ボルト／ビス
  6
CONTINUOUS
 62
    64
 10
111.640373
 20
-29.702827
 11
111.64038
 21
-27.988065
  0
LINE
  8
ボルト／ビス
  6
CONTINUOUS
 62
    64
 10
111.255473
 20
-25.591425
 11
111.497625
 21
-25.591432
  0
LINE
  8
ボルト／ビス
  6
CONTINUOUS
 62
    64
 10
110.605387
 20
-27.288068
 11
110.605387
 21
-27.988065
  0
LINE
  8
ボルト／ビス
  6
CONTINUOUS
 62
    64
 10
111.255473
 20
-26.888062
 11
111.255473
 21
-25.591425
  0
LINE
  8
ボルト／ビス
  6
CONTINUOUS
 62
    64
 10
110.605387
 20
-27.288068
 11
110.855475
 21
-27.28806
  0
ARC
  8
ボルト／ビス
  6
CONTINUOUS
 62
    64
 10
110.85547
 20
-26.888071
 40
0.4
 50
269.999999
 51
359.999999
  0
LINE
  8
ボルト／ビス
  6
CONTINUOUS
 62
    64
 10
111.255473
 20
-30.384705
 11
111.497625
 21
-30.384713
  0
LINE
  8
ボルト／ビス
  6
CONTINUOUS
 62
    64
 10
110.605395
 20
-28.688062
 11
110.605387
 21
-27.988065
  0
LINE
  8
ボルト／ビス
  6
CONTINUOUS
 62
    64
 10
111.255473
 20
-29.08806
 11
111.255473
 21
-30.384705
  0
LINE
  8
ボルト／ビス
  6
CONTINUOUS
 62
    64
 10
110.605395
 20
-28.688062
 11
110.855467
 21
-28.688062
  0
ARC
  8
ボルト／ビス
  6
CONTINUOUS
 62
    64
 10
110.85547
 20
-29.088071
 40
0.4
 50
359.999999
 51
449.999999
  0
LINE
  8
ボルト／ビス
  6
CONTINUOUS
 62
    64
 10
109.040378
 20
-24.488062
 11
109.04037
 21
-31.48806
  0
LINE
  8
ボルト／ビス
  6
CONTINUOUS
 62
    64
 10
101.540378
 20
-25.98807
 11
101.040375
 21
-26.488072
  0
LINE
  8
ボルト／ビス
  6
CONTINUOUS
 62
    64
 10
101.540378
 20
-29.98806
 11
101.040367
 21
-29.488065
  0
LINE
  8
ボルト／ビス
  6
CONTINUOUS
 62
    64
 10
109.04037
 20
-26.488072
 11
101.040375
 21
-26.488072
  0
LINE
  8
ボルト／ビス
  6
CONTINUOUS
 62
    64
 10
109.040378
 20
-25.988062
 11
101.540378
 21
-25.98807
  0
LINE
  8
ボルト／ビス
  6
CONTINUOUS
 62
    64
 10
109.04037
 20
-29.488072
 11
101.040367
 21
-29.488065
  0
LINE
  8
ボルト／ビス
  6
CONTINUOUS
 62
    64
 10
109.040378
 20
-29.98806
 11
101.540378
 21
-29.98806
  0
LINE
  8
ボルト／ビス
  6
CONTINUOUS
 62
    64
 10
101.540378
 20
-25.98807
 11
101.540378
 21
-29.98806
  0
LINE
  8
ボルト／ビス
  6
CONTINUOUS
 62
    64
 10
101.040375
 20
-26.488072
 11
101.040367
 21
-29.488065
  0
LINE
  8
ボルト／ビス
  6
CONTINUOUS
 62
    64
 10
113.611763
 20
-27.988065
 11
98.78988
 21
-27.988065
  0
ENDBLK
  0
BLOCK
  2
*GRP_0035
 70
    65
 10
0.0
 20
0.0
  0
LINE
  8
ボルト／ビス
  6
CONTINUOUS
 62
    64
 10
109.040385
 20
28.495065
 11
110.088532
 21
28.403363
  0
ARC
  8
ボルト／ビス
  6
CONTINUOUS
 62
    64
 10
109.940371
 20
26.709823
 40
1.7
 50
359.999999
 51
445.00001
  0
LINE
  8
ボルト／ビス
  6
CONTINUOUS
 62
    64
 10
111.64038
 20
26.709825
 11
111.64038
 21
24.995062
  0
LINE
  8
ボルト／ビス
  6
CONTINUOUS
 62
    64
 10
109.040378
 20
21.495068
 11
110.08854
 21
21.58677
  0
ARC
  8
ボルト／ビス
  6
CONTINUOUS
 62
    64
 10
109.940371
 20
23.28029
 40
1.7
 50
274.999988
 51
359.999999
  0
LINE
  8
ボルト／ビス
  6
CONTINUOUS
 62
    64
 10
111.64038
 20
23.2803
 11
111.64038
 21
24.995062
  0
LINE
  8
ボルト／ビス
  6
CONTINUOUS
 62
    64
 10
111.255473
 20
27.391703
 11
111.497632
 21
27.391695
  0
LINE
  8
ボルト／ビス
  6
CONTINUOUS
 62
    64
 10
110.605387
 20
25.695068
 11
110.605387
 21
24.995055
  0
LINE
  8
ボルト／ビス
  6
CONTINUOUS
 62
    64
 10
111.255473
 20
26.095065
 11
111.255473
 21
27.391703
  0
LINE
  8
ボルト／ビス
  6
CONTINUOUS
 62
    64
 10
110.605387
 20
25.695068
 11
110.855475
 21
25.695068
  0
ARC
  8
ボルト／ビス
  6
CONTINUOUS
 62
    64
 10
110.855466
 20
26.095057
 40
0.4
 50
269.999999
 51
359.999999
  0
LINE
  8
ボルト／ビス
  6
CONTINUOUS
 62
    64
 10
111.255473
 20
22.598423
 11
111.497625
 21
22.598415
  0
LINE
  8
ボルト／ビス
  6
CONTINUOUS
 62
    64
 10
110.60538
 20
24.295058
 11
110.605387
 21
24.995055
  0
LINE
  8
ボルト／ビス
  6
CONTINUOUS
 62
    64
 10
111.255465
 20
23.895068
 11
111.255473
 21
22.598423
  0
LINE
  8
ボルト／ビス
  6
CONTINUOUS
 62
    64
 10
110.60538
 20
24.295058
 11
110.855475
 21
24.295065
  0
ARC
  8
ボルト／ビス
  6
CONTINUOUS
 62
    64
 10
110.855466
 20
23.895057
 40
0.4
 50
359.999999
 51
449.999999
  0
LINE
  8
ボルト／ビス
  6
CONTINUOUS
 62
    64
 10
109.040385
 20
28.495065
 11
109.040378
 21
21.495068
  0
LINE
  8
ボルト／ビス
  6
CONTINUOUS
 62
    64
 10
101.540378
 20
26.995058
 11
101.040375
 21
26.495062
  0
LINE
  8
ボルト／ビス
  6
CONTINUOUS
 62
    64
 10
101.540378
 20
22.995068
 11
101.040375
 21
23.495062
  0
LINE
  8
ボルト／ビス
  6
CONTINUOUS
 62
    64
 10
109.040378
 20
26.495062
 11
101.040375
 21
26.495062
  0
LINE
  8
ボルト／ビス
  6
CONTINUOUS
 62
    64
 10
109.040378
 20
26.995065
 11
101.540378
 21
26.995058
  0
LINE
  8
ボルト／ビス
  6
CONTINUOUS
 62
    64
 10
109.040378
 20
23.495062
 11
101.040375
 21
23.495062
  0
LINE
  8
ボルト／ビス
  6
CONTINUOUS
 62
    64
 10
109.040378
 20
22.995068
 11
101.540378
 21
22.995068
  0
LINE
  8
ボルト／ビス
  6
CONTINUOUS
 62
    64
 10
101.540378
 20
26.995058
 11
101.540378
 21
22.995068
  0
LINE
  8
ボルト／ビス
  6
CONTINUOUS
 62
    64
 10
101.040375
 20
26.495062
 11
101.040375
 21
23.495062
  0
LINE
  8
ボルト／ビス
  6
CONTINUOUS
 62
    64
 10
113.611763
 20
24.995062
 11
98.78988
 21
24.995062
  0
ENDBLK
  0
BLOCK
  2
*GRP_0036
 70
    65
 10
0.0
 20
0.0
  0
LINE
  8
ボルト／ビス
  6
CONTINUOUS
 10
12.337552
 20
-52.504987
 11
12.429255
 21
-51.456825
  0
ARC
  8
ボルト／ビス
  6
CONTINUOUS
 10
14.122792
 20
-51.604987
 40
1.7
 50
90.0
 51
175.000011
  0
LINE
  8
ボルト／ビス
  6
CONTINUOUS
 10
14.122785
 20
-49.904985
 11
15.837548
 21
-49.904985
  0
LINE
  8
ボルト／ビス
  6
CONTINUOUS
 10
19.33755
 20
-52.504987
 11
19.245847
 21
-51.456825
  0
ARC
  8
ボルト／ビス
  6
CONTINUOUS
 10
17.552325
 20
-51.604987
 40
1.7
 50
4.999989
 51
90.0
  0
LINE
  8
ボルト／ビス
  6
CONTINUOUS
 10
17.552318
 20
-49.904985
 11
15.837548
 21
-49.904985
  0
LINE
  8
ボルト／ビス
  6
CONTINUOUS
 10
13.440907
 20
-50.289893
 11
13.440907
 21
-50.047732
  0
LINE
  8
ボルト／ビス
  6
CONTINUOUS
 10
15.13755
 20
-50.939977
 11
15.837548
 21
-50.939977
  0
LINE
  8
ボルト／ビス
  6
CONTINUOUS
 10
14.737552
 20
-50.289893
 11
13.440907
 21
-50.289893
  0
LINE
  8
ボルト／ビス
  6
CONTINUOUS
 10
15.13755
 20
-50.939977
 11
15.13755
 21
-50.68989
  0
ARC
  8
ボルト／ビス
  6
CONTINUOUS
 10
14.737559
 20
-50.689892
 40
0.4
 50
0.0
 51
90.0
  0
LINE
  8
ボルト／ビス
  6
CONTINUOUS
 10
18.234188
 20
-50.289893
 11
18.234188
 21
-50.047732
  0
LINE
  8
ボルト／ビス
  6
CONTINUOUS
 10
16.537552
 20
-50.939977
 11
15.837548
 21
-50.939977
  0
LINE
  8
ボルト／ビス
  6
CONTINUOUS
 10
16.93755
 20
-50.289893
 11
18.234188
 21
-50.289893
  0
LINE
  8
ボルト／ビス
  6
CONTINUOUS
 10
16.537552
 20
-50.939977
 11
16.537552
 21
-50.68989
  0
ARC
  8
ボルト／ビス
  6
CONTINUOUS
 10
16.937559
 20
-50.689892
 40
0.4
 50
90.0
 51
180.0
  0
LINE
  8
ボルト／ビス
  6
CONTINUOUS
 10
12.337552
 20
-52.504987
 11
19.33755
 21
-52.504987
  0
LINE
  8
ボルト／ビス
  6
CONTINUOUS
 10
15.837548
 20
-47.933602
 11
15.837548
 21
-68.148262
  0
LINE
  8
ボルト／ビス
  6
CONTINUOUS
 10
13.837552
 20
-66.004987
 11
14.337548
 21
-66.50499
  0
LINE
  8
ボルト／ビス
  6
CONTINUOUS
 10
17.83755
 20
-66.004987
 11
17.337548
 21
-66.50499
  0
LINE
  8
ボルト／ビス
  6
CONTINUOUS
 10
13.837552
 20
-66.004987
 11
17.83755
 21
-66.004987
  0
LINE
  8
ボルト／ビス
  6
CONTINUOUS
 10
14.337548
 20
-66.50499
 11
17.337548
 21
-66.50499
  0
LINE
  8
ボルト／ビス
  6
CONTINUOUS
 10
17.83755
 20
-52.504987
 11
17.83755
 21
-66.004987
  0
LINE
  8
ボルト／ビス
  6
CONTINUOUS
 10
13.837552
 20
-52.504987
 11
13.837552
 21
-66.004987
  0
LINE
  8
ボルト／ビス
  6
CONTINUOUS
 10
14.337548
 20
-52.504987
 11
14.337548
 21
-66.50499
  0
LINE
  8
ボルト／ビス
  6
CONTINUOUS
 10
17.337548
 20
-52.504987
 11
17.337548
 21
-66.50499
  0
ENDBLK
  0
BLOCK
  2
*GRP_0037
 70
    65
 10
0.0
 20
0.0
  0
LINE
  8
ボルト／ビス
  6
CONTINUOUS
 10
115.137593
 20
-42.90504
 11
116.185755
 21
-42.813338
  0
ARC
  8
ボルト／ビス
  6
CONTINUOUS
 10
116.037597
 20
-41.119817
 40
1.7
 50
274.999989
 51
360.0
  0
LINE
  8
ボルト／ビス
  6
CONTINUOUS
 10
117.737595
 20
-41.119808
 11
117.737595
 21
-39.405045
  0
LINE
  8
ボルト／ビス
  6
CONTINUOUS
 10
115.137593
 20
-35.905043
 11
116.185755
 21
-35.996745
  0
ARC
  8
ボルト／ビス
  6
CONTINUOUS
 10
116.037597
 20
-37.690283
 40
1.7
 50
0.0
 51
85.000011
  0
LINE
  8
ボルト／ビス
  6
CONTINUOUS
 10
117.737595
 20
-37.690275
 11
117.737595
 21
-39.405045
  0
LINE
  8
ボルト／ビス
  6
CONTINUOUS
 10
117.352687
 20
-41.801685
 11
117.594847
 21
-41.801685
  0
LINE
  8
ボルト／ビス
  6
CONTINUOUS
 10
116.702602
 20
-40.105043
 11
116.702602
 21
-39.405045
  0
LINE
  8
ボルト／ビス
  6
CONTINUOUS
 10
117.352687
 20
-40.50504
 11
117.352687
 21
-41.801685
  0
LINE
  8
ボルト／ビス
  6
CONTINUOUS
 10
116.702602
 20
-40.105043
 11
116.95269
 21
-40.105043
  0
ARC
  8
ボルト／ビス
  6
CONTINUOUS
 10
116.952692
 20
-40.50505
 40
0.4
 50
0.0
 51
90.0
  0
LINE
  8
ボルト／ビス
  6
CONTINUOUS
 10
117.352687
 20
-37.008405
 11
117.594847
 21
-37.008405
  0
LINE
  8
ボルト／ビス
  6
CONTINUOUS
 10
116.702602
 20
-38.70504
 11
116.702602
 21
-39.405045
  0
LINE
  8
ボルト／ビス
  6
CONTINUOUS
 10
117.352687
 20
-38.305043
 11
117.352687
 21
-37.008405
  0
LINE
  8
ボルト／ビス
  6
CONTINUOUS
 10
116.702602
 20
-38.70504
 11
116.95269
 21
-38.70504
  0
ARC
  8
ボルト／ビス
  6
CONTINUOUS
 10
116.952692
 20
-38.30505
 40
0.4
 50
270.0
 51
360.0
  0
LINE
  8
ボルト／ビス
  6
CONTINUOUS
 10
115.137593
 20
-42.90504
 11
115.137593
 21
-35.905043
  0
LINE
  8
ボルト／ビス
  6
CONTINUOUS
 10
119.708978
 20
-39.405045
 11
99.494318
 21
-39.405045
  0
LINE
  8
ボルト／ビス
  6
CONTINUOUS
 10
101.637593
 20
-41.40504
 11
101.13759
 21
-40.905045
  0
LINE
  8
ボルト／ビス
  6
CONTINUOUS
 10
101.637593
 20
-37.405043
 11
101.13759
 21
-37.905045
  0
LINE
  8
ボルト／ビス
  6
CONTINUOUS
 10
101.637593
 20
-41.40504
 11
101.637593
 21
-37.405043
  0
LINE
  8
ボルト／ビス
  6
CONTINUOUS
 10
101.13759
 20
-40.905045
 11
101.13759
 21
-37.905045
  0
LINE
  8
ボルト／ビス
  6
CONTINUOUS
 10
115.137593
 20
-37.405043
 11
101.637593
 21
-37.405043
  0
LINE
  8
ボルト／ビス
  6
CONTINUOUS
 10
115.137593
 20
-41.40504
 11
101.637593
 21
-41.40504
  0
LINE
  8
ボルト／ビス
  6
CONTINUOUS
 10
115.137593
 20
-40.905045
 11
101.13759
 21
-40.905045
  0
LINE
  8
ボルト／ビス
  6
CONTINUOUS
 10
115.137593
 20
-37.905045
 11
101.13759
 21
-37.905045
  0
ENDBLK
  0
BLOCK
  2
*GRP_0038
 70
    65
 10
0.0
 20
0.0
  0
INSERT
  2
*GRP_0087
  8
別途部材
  6
CONTINUOUS
 10
0.0
 20
0.0
  0
INSERT
  2
*GRP_0088
  8
別途部材
  6
CONTINUOUS
 10
0.0
 20
0.0
  0
INSERT
  2
*GRP_0089
  8
その他部品等
  6
CONTINUOUS
 10
0.0
 20
0.0
  0
INSERT
  2
*GRP_0090
  8
その他部品等
  6
CONTINUOUS
 10
0.0
 20
0.0
  0
ENDBLK
  0
BLOCK
  2
*GRP_0039
 70
    65
 10
0.0
 20
0.0
  0
INSERT
  2
*GRP_0091
  8
文字
  6
DOT
 10
0.0
 20
0.0
  0
INSERT
  2
*GRP_0092
  8
文字
  6
DOT
 10
0.0
 20
0.0
  0
INSERT
  2
*GRP_0093
  8
その他部品等
  6
CONTINUOUS
 10
0.0
 20
0.0
  0
INSERT
  2
*GRP_0094
  8
その他部品等
  6
CONTINUOUS
 10
0.0
 20
0.0
  0
INSERT
  2
*GRP_0095
  8
その他部品等
  6
CONTINUOUS
 10
0.0
 20
0.0
  0
ENDBLK
  0
BLOCK
  2
*GRP_0040
 70
    65
 10
0.0
 20
0.0
  0
INSERT
  2
*GRP_0096
  8
文字
  6
DOT
 10
0.0
 20
0.0
  0
INSERT
  2
*GRP_0097
  8
文字
  6
DOT
 10
0.0
 20
0.0
  0
INSERT
  2
*GRP_0098
  8
その他部品等
  6
CONTINUOUS
 10
0.0
 20
0.0
  0
INSERT
  2
*GRP_0099
  8
その他部品等
  6
CONTINUOUS
 10
0.0
 20
0.0
  0
INSERT
  2
*GRP_0100
  8
その他部品等
  6
CONTINUOUS
 10
0.0
 20
0.0
  0
ENDBLK
  0
BLOCK
  2
*DIM_0041
 70
    65
 10
0.0
 20
0.0
  0
LINE
  8
寸法
  6
BYBLOCK
 62
     0
 10
-137.911327
 20
5.495097
 11
-136.349382
 21
5.495097
  0
LINE
  8
寸法
  6
BYBLOCK
 62
     0
 10
-137.911327
 20
62.995127
 11
-136.349382
 21
62.995127
  0
LINE
  8
寸法
  6
BYBLOCK
 62
     0
 10
-136.349382
 20
5.495097
 11
-136.349382
 21
62.995127
  0
POINT
  8
寸法
 62
     0
 10
-136.349382
 20
5.495097
 50
-90.0
  0
POINT
  8
寸法
 62
     0
 10
-136.349382
 20
62.995127
 50
-90.0
  0
TEXT
  7
TextStyle03
  8
寸法
  6
CONTINUOUS
 62
     0
 10
-136.7
 20
30.3375
  1
57.5
 40
3.5
 50
90.0
 72
     5
 11
-136.7
 21
38.0125
  0
ENDBLK
  0
BLOCK
  2
*GRP_0042
 70
    65
 10
0.0
 20
0.0
  0
POLYLINE
  8
寸法
  6
BYBLOCK
 62
     0
 66
     1
  0
VERTEX
  8
寸法
 10
-71.873938
 20
-32.954047
  0
VERTEX
  8
寸法
 10
-74.472012
 20
-31.454047
  0
VERTEX
  8
寸法
 10
-72.972012
 20
-34.052123
  0
SEQEND
  0
POLYLINE
  8
寸法
  6
BYBLOCK
 62
     0
 66
     1
  0
VERTEX
  8
寸法
 10
-74.472012
 20
-31.454047
  0
VERTEX
  8
寸法
 10
-59.159015
 20
-46.767045
  0
VERTEX
  8
寸法
 10
-59.159015
 20
-48.768725
  0
SEQEND
  0
ENDBLK
  0
BLOCK
  2
*GRP_0043
 70
    65
 10
0.0
 20
0.0
  0
POLYLINE
  8
寸法
  6
BYBLOCK
 62
     0
 66
     1
  0
VERTEX
  8
寸法
 10
-32.620532
 20
6.99513
  0
VERTEX
  8
寸法
 10
-30.022458
 20
5.49513
  0
VERTEX
  8
寸法
 10
-31.522458
 20
8.093205
  0
SEQEND
  0
POLYLINE
  8
寸法
  6
BYBLOCK
 62
     0
 66
     1
  0
VERTEX
  8
寸法
 10
-30.022458
 20
5.49513
  0
VERTEX
  8
寸法
 10
-36.92998
 20
12.402652
  0
VERTEX
  8
寸法
 10
-36.92998
 20
17.819388
  0
SEQEND
  0
ENDBLK
  0
BLOCK
  2
*DIM_0044
 70
    65
 10
0.0
 20
0.0
  0
LINE
  8
寸法
  6
CONTINUOUS
 10
-31.461007
 20
-82.404943
 11
-31.461007
 21
-84.93841
  0
LINE
  8
寸法
  6
CONTINUOUS
 10
3.538995
 20
-84.93841
 11
-31.461007
 21
-84.93841
  0
POINT
  8
寸法
 10
-31.461007
 20
-84.93841
 50
-90.0
  0
TEXT
  7
TextStyle03
  8
寸法
  6
CONTINUOUS
 10
-11.8
 20
-85.375
  1
35
 40
4.0
 50
180.0
 72
     5
 11
-16.05
 21
-85.375
  0
ENDBLK
  0
BLOCK
  2
*DIM_0045
 70
    65
 10
0.0
 20
0.0
  0
LINE
  8
寸法
  6
CONTINUOUS
 10
-36.461007
 20
-77.404943
 11
-151.659248
 21
-77.404943
  0
LINE
  8
寸法
  6
CONTINUOUS
 10
80.685475
 20
62.995127
 11
-151.659248
 21
62.995127
  0
LINE
  8
寸法
  6
CONTINUOUS
 10
-151.659248
 20
-77.404943
 11
-151.659248
 21
62.995127
  0
POINT
  8
寸法
 10
-151.659248
 20
-77.404943
 50
-90.0
  0
POINT
  8
寸法
 10
-151.659248
 20
62.995127
 50
-90.0
  0
TEXT
  7
TextStyle03
  8
寸法
  6
CONTINUOUS
 10
-152.0
 20
-12.775
  1
140.4
 40
4.0
 50
90.0
 72
     5
 11
-152.0
 21
-1.775
  0
ENDBLK
  0
BLOCK
  2
*DIM_0046
 70
    65
 10
0.0
 20
0.0
  0
LINE
  8
寸法
  6
CONTINUOUS
 10
-106.968245
 20
5.495097
 11
-143.419073
 21
5.495097
  0
LINE
  8
寸法
  6
CONTINUOUS
 10
-36.461007
 20
-77.404943
 11
-143.419073
 21
-77.404943
  0
LINE
  8
寸法
  6
CONTINUOUS
 10
-143.419073
 20
5.495097
 11
-143.419073
 21
-77.404943
  0
POINT
  8
寸法
 10
-143.419073
 20
5.495097
 50
-90.0
  0
POINT
  8
寸法
 10
-143.419073
 20
-77.404943
 50
-90.0
  0
TEXT
  7
TextStyle03
  8
寸法
  6
CONTINUOUS
 10
-143.75
 20
-40.4
  1
82.9
 40
4.0
 50
90.0
 72
     5
 11
-143.75
 21
-31.65
  0
ENDBLK
  0
BLOCK
  2
*DIM_0047
 70
    65
 10
0.0
 20
0.0
  0
LINE
  8
寸法
  6
CONTINUOUS
 10
-61.06095
 20
-5.00494
 11
-61.06095
 21
85.850672
  0
LINE
  8
寸法
  6
CONTINUOUS
 10
-5.661072
 20
85.850672
 11
-61.06095
 21
85.850672
  0
POINT
  8
寸法
 10
-5.661072
 20
85.850672
 50
-90.0
  0
POINT
  8
寸法
 10
-61.06095
 20
85.850672
 50
-90.0
  0
TEXT
  7
TextStyle03
  8
寸法
  6
CONTINUOUS
 10
-29.0
 20
85.45
  1
55.4
 40
4.0
 50
180.0
 72
     5
 11
-37.75
 21
85.45
  0
ENDBLK
  0
BLOCK
  2
*DIM_0048
 70
    65
 10
0.0
 20
0.0
  0
LINE
  8
寸法
  6
CONTINUOUS
 10
-61.06095
 20
85.850672
 11
-69.661075
 21
85.850672
  0
POINT
  8
寸法
 10
-69.661075
 20
85.850672
 50
-90.0
  0
TEXT
  7
TextStyle03
  8
寸法
  6
CONTINUOUS
 10
-62.125
 20
85.45
  1
8.6
 40
4.0
 50
180.0
 72
     5
 11
-68.625
 21
85.45
  0
ENDBLK
  0
BLOCK
  2
*GRP_0049
 70
    65
 10
0.0
 20
0.0
  0
POLYLINE
  8
寸法
  6
BYBLOCK
 62
     0
 66
     1
  0
VERTEX
  8
寸法
 10
-13.420283
 20
-63.004943
  0
VERTEX
  8
寸法
 10
-16.018358
 20
-61.504943
  0
VERTEX
  8
寸法
 10
-14.518358
 20
-64.103017
  0
SEQEND
  0
POLYLINE
  8
寸法
  6
BYBLOCK
 62
     0
 66
     1
  0
VERTEX
  8
寸法
 10
-16.018358
 20
-61.504943
  0
VERTEX
  8
寸法
 10
-3.68638
 20
-73.83692
  0
VERTEX
  8
寸法
 10
-3.68638
 20
-95.781105
  0
SEQEND
  0
ENDBLK
  0
BLOCK
  2
*GRP_0050
 70
    65
 10
0.0
 20
0.0
  0
POLYLINE
  8
寸法
  6
BYBLOCK
 62
     0
 66
     1
  0
VERTEX
  8
寸法
 10
-49.077247
 20
-59.769852
  0
VERTEX
  8
寸法
 10
-47.577247
 20
-57.171778
  0
VERTEX
  8
寸法
 10
-50.175325
 20
-58.671778
  0
SEQEND
  0
POLYLINE
  8
寸法
  6
BYBLOCK
 62
     0
 66
     1
  0
VERTEX
  8
寸法
 10
-47.577247
 20
-57.171778
  0
VERTEX
  8
寸法
 10
-51.844528
 20
-61.439058
  0
VERTEX
  8
寸法
 10
-51.844528
 20
-65.42385
  0
SEQEND
  0
ENDBLK
  0
BLOCK
  2
*DIM_0051
 70
    65
 10
0.0
 20
0.0
  0
LINE
  8
寸法
  6
CONTINUOUS
 10
-65.96103
 20
-49.809343
 11
-65.96103
 21
-84.938475
  0
LINE
  8
寸法
  6
CONTINUOUS
 10
-31.461007
 20
-84.938475
 11
-65.96103
 21
-84.938475
  0
POINT
  8
寸法
 10
-31.461007
 20
-84.938475
 50
-90.0
  0
POINT
  8
寸法
 10
-65.96103
 20
-84.938475
 50
-90.0
  0
TEXT
  7
TextStyle03
  8
寸法
  6
CONTINUOUS
 10
-44.35
 20
-85.375
  1
34.5
 40
4.0
 50
180.0
 72
     5
 11
-53.1
 21
-85.375
  0
ENDBLK
  0
BLOCK
  2
*DIM_0052
 70
    65
 10
0.0
 20
0.0
  0
LINE
  8
寸法
  6
CONTINUOUS
 10
-115.961038
 20
-51.50499
 11
-115.961038
 21
-84.938475
  0
LINE
  8
寸法
  6
CONTINUOUS
 10
-65.96103
 20
-84.938475
 11
-115.961038
 21
-84.938475
  0
POINT
  8
寸法
 10
-115.961038
 20
-84.938475
 50
-90.0
  0
TEXT
  7
TextStyle03
  8
寸法
  6
CONTINUOUS
 10
-88.85
 20
-85.375
  1
50
 40
4.0
 50
180.0
 72
     5
 11
-93.1
 21
-85.375
  0
ENDBLK
  0
BLOCK
  2
*DIM_0053
 70
    65
 10
0.0
 20
0.0
  0
LINE
  8
寸法
  6
CONTINUOUS
 10
-69.661013
 20
30.190655
 11
-69.661013
 21
85.850607
  0
LINE
  8
寸法
  6
CONTINUOUS
 10
-84.161015
 20
77.490098
 11
-84.161015
 21
85.850607
  0
LINE
  8
寸法
  6
CONTINUOUS
 10
-69.661013
 20
85.850607
 11
-84.161015
 21
85.850607
  0
POINT
  8
寸法
 10
-69.661013
 20
85.850607
 50
-90.0
  0
POINT
  8
寸法
 10
-84.161015
 20
85.850607
 50
-90.0
  0
TEXT
  7
TextStyle03
  8
寸法
  6
CONTINUOUS
 10
-72.55
 20
85.425
  1
14.5
 40
4.0
 50
180.0
 72
     5
 11
-81.3
 21
85.425
  0
ENDBLK
  0
BLOCK
  2
*DIM_0054
 70
    65
 10
0.0
 20
0.0
  0
LINE
  8
寸法
  6
CONTINUOUS
 10
-101.961015
 20
77.490098
 11
-101.961015
 21
85.850607
  0
LINE
  8
寸法
  6
CONTINUOUS
 10
-84.161015
 20
85.850607
 11
-101.961015
 21
85.850607
  0
POINT
  8
寸法
 10
-101.961015
 20
85.850607
 50
-90.0
  0
TEXT
  7
TextStyle03
  8
寸法
  6
CONTINUOUS
 10
-88.7
 20
85.425
  1
17.8
 40
4.0
 50
180.0
 72
     5
 11
-97.45
 21
85.425
  0
ENDBLK
  0
BLOCK
  2
*DIM_0055
 70
    65
 10
0.0
 20
0.0
  0
LINE
  8
寸法
  6
CONTINUOUS
 10
-115.961032
 20
27.892577
 11
-115.961032
 21
85.850607
  0
LINE
  8
寸法
  6
CONTINUOUS
 10
-101.961015
 20
85.850607
 11
-115.961032
 21
85.850607
  0
POINT
  8
寸法
 10
-115.961032
 20
85.850607
 50
-90.0
  0
TEXT
  7
TextStyle03
  8
寸法
  6
CONTINUOUS
 10
-106.85
 20
85.425
  1
14
 40
4.0
 50
180.0
 72
     5
 11
-111.1
 21
85.425
  0
ENDBLK
  0
BLOCK
  2
*DIM_0056
 70
    65
 10
0.0
 20
0.0
  0
LINE
  8
寸法
  6
CONTINUOUS
 10
-115.96103
 20
-49.504987
 11
-136.349382
 21
-49.504987
  0
LINE
  8
寸法
  6
CONTINUOUS
 10
-136.349382
 20
5.495032
 11
-136.349382
 21
-49.504987
  0
POINT
  8
寸法
 10
-136.349382
 20
5.495032
 50
-90.0
  0
POINT
  8
寸法
 10
-136.349382
 20
-49.504987
 50
-90.0
  0
TEXT
  7
TextStyle03
  8
寸法
  6
CONTINUOUS
 10
-136.75
 20
-24.175
  1
55
 40
4.0
 50
90.0
 72
     5
 11
-136.75
 21
-19.925
  0
ENDBLK
  0
BLOCK
  2
*DIM_0057
 70
    65
 10
0.0
 20
0.0
  0
LINE
  8
寸法
  6
CONTINUOUS
 10
-117.76103
 20
25.495012
 11
-129.017418
 21
25.495012
  0
LINE
  8
寸法
  6
CONTINUOUS
 10
-129.017418
 20
5.495032
 11
-129.017418
 21
25.495012
  0
POINT
  8
寸法
 10
-129.017418
 20
5.495032
 50
-90.0
  0
POINT
  8
寸法
 10
-129.017418
 20
25.495012
 50
-90.0
  0
TEXT
  7
TextStyle03
  8
寸法
  6
CONTINUOUS
 10
-129.4
 20
13.325
  1
20
 40
4.0
 50
90.0
 72
     5
 11
-129.4
 21
17.575
  0
ENDBLK
  0
BLOCK
  2
*DIM_0058
 70
    65
 10
0.0
 20
0.0
  0
LINE
  8
寸法
  6
CONTINUOUS
 10
3.538995
 20
-82.404943
 11
3.538995
 21
-84.93841
  0
LINE
  8
寸法
  6
CONTINUOUS
 10
4.639027
 20
-76.504932
 11
4.639027
 21
-84.93841
  0
LINE
  8
寸法
  6
CONTINUOUS
 10
3.538995
 20
-84.93841
 11
4.639027
 21
-84.93841
  0
POINT
  8
寸法
 10
3.538995
 20
-84.93841
 50
-90.0
  0
POINT
  8
寸法
 10
4.639027
 20
-84.93841
 50
-90.0
  0
TEXT
  7
TextStyle03
  8
寸法
  6
CONTINUOUS
 10
6.4875
 20
-85.35
  1
1.1
 40
3.0
 50
180.0
 72
     5
 11
1.6125
 21
-85.35
  0
ENDBLK
  0
BLOCK
  2
*DIM_0059
 70
    65
 10
0.0
 20
0.0
  0
LINE
  8
寸法
  6
CONTINUOUS
 10
1.8375
 20
-34.504922
 11
1.8375
 21
85.850672
  0
LINE
  8
寸法
  6
CONTINUOUS
 10
85.33899
 20
67.995073
 11
85.33899
 21
85.850672
  0
LINE
  8
寸法
  6
CONTINUOUS
 10
1.8375
 20
85.850672
 11
85.33899
 21
85.850672
  0
POINT
  8
寸法
 10
1.8375
 20
85.850672
 50
-90.0
  0
POINT
  8
寸法
 10
85.33899
 20
85.850672
 50
-90.0
  0
TEXT
  7
TextStyle03
  8
寸法
  6
CONTINUOUS
 10
46.83125
 20
85.425
  1
83.5
 40
3.0
 50
180.0
 72
     5
 11
40.26875
 21
85.425
  0
ENDBLK
  0
BLOCK
  2
*DIM_0060
 70
    65
 10
0.0
 20
0.0
  0
LINE
  8
寸法
  6
CONTINUOUS
 10
-115.961032
 20
29.069058
 11
-115.961032
 21
95.226672
  0
LINE
  8
寸法
  6
CONTINUOUS
 10
99.338985
 20
67.995073
 11
99.338985
 21
95.226672
  0
LINE
  8
寸法
  6
CONTINUOUS
 10
-115.961032
 20
95.226672
 11
99.338985
 21
95.226672
  0
POINT
  8
寸法
 10
-115.961032
 20
95.226672
 50
-90.0
  0
POINT
  8
寸法
 10
99.338985
 20
95.226672
 50
-90.0
  0
TEXT
  7
TextStyle03
  8
寸法
  6
CONTINUOUS
 10
-4.225
 20
94.8
  1
215.3
 40
3.0
 50
180.0
 72
     5
 11
-12.475
 21
94.8
  0
ENDBLK
  0
BLOCK
  2
*DIM_0061
 70
    65
 10
0.0
 20
0.0
  0
LINE
  8
寸法
  6
CONTINUOUS
 10
1.8375
 20
-34.504922
 11
1.8375
 21
85.850672
  0
LINE
  8
寸法
  6
CONTINUOUS
 10
-5.662463
 20
-9.50494
 11
-5.662463
 21
85.850672
  0
LINE
  8
寸法
  6
CONTINUOUS
 10
1.8375
 20
85.850672
 11
-5.662463
 21
85.850672
  0
POINT
  8
寸法
 10
1.8375
 20
85.850672
 50
-90.0
  0
POINT
  8
寸法
 10
-5.662463
 20
85.850672
 50
-90.0
  0
TEXT
  7
TextStyle03
  8
寸法
  6
CONTINUOUS
 10
0.4875
 20
85.425
  1
7.5
 40
3.0
 50
180.0
 72
     5
 11
-4.3875
 21
85.425
  0
ENDBLK
  0
BLOCK
  2
*DIM_0062
 70
    65
 10
0.0
 20
0.0
  0
LINE
  8
寸法
  6
CONTINUOUS
 10
99.338985
 20
67.995073
 11
99.338985
 21
85.850672
  0
LINE
  8
寸法
  6
CONTINUOUS
 10
85.33899
 20
85.850672
 11
99.338985
 21
85.850672
  0
POINT
  8
寸法
 10
99.338985
 20
85.850672
 50
-90.0
  0
TEXT
  7
TextStyle03
  8
寸法
  6
CONTINUOUS
 10
93.89375
 20
85.425
  1
14
 40
3.0
 50
180.0
 72
     5
 11
90.70625
 21
85.425
  0
ENDBLK
  0
BLOCK
  2
*DIM_0063
 70
    65
 10
0.0
 20
0.0
  0
LINE
  8
寸法
  6
CONTINUOUS
 10
105.839048
 20
34.99508
 11
105.839048
 21
95.226672
  0
LINE
  8
寸法
  6
CONTINUOUS
 10
99.338985
 20
95.226672
 11
105.839048
 21
95.226672
  0
POINT
  8
寸法
 10
105.839048
 20
95.226672
 50
-90.0
  0
TEXT
  7
TextStyle03
  8
寸法
  6
CONTINUOUS
 10
104.9875
 20
94.8
  1
6.5
 40
3.0
 50
180.0
 72
     5
 11
100.1125
 21
94.8
  0
ENDBLK
  0
BLOCK
  2
*GRP_0064
 70
    65
 10
0.0
 20
0.0
  0
POLYLINE
  8
寸法
  6
BYBLOCK
 62
     0
 66
     1
  0
VERTEX
  8
寸法
 10
99.53547
 20
-80.003032
  0
VERTEX
  8
寸法
 10
101.03547
 20
-77.404957
  0
VERTEX
  8
寸法
 10
98.437395
 20
-78.904957
  0
SEQEND
  0
POLYLINE
  8
寸法
  6
BYBLOCK
 62
     0
 66
     1
  0
VERTEX
  8
寸法
 10
101.03547
 20
-77.404957
  0
VERTEX
  8
寸法
 10
93.194515
 20
-85.245913
  0
VERTEX
  8
寸法
 10
93.194515
 20
-104.672403
  0
SEQEND
  0
ENDBLK
  0
BLOCK
  2
*GRP_0065
 70
    65
 10
0.0
 20
0.0
  0
POLYLINE
  8
寸法
  6
BYBLOCK
 62
     0
 66
     1
  0
VERTEX
  8
寸法
 10
108.924048
 20
7.214727
  0
VERTEX
  8
寸法
 10
107.424048
 20
4.616653
  0
VERTEX
  8
寸法
 10
110.022122
 20
6.116653
  0
SEQEND
  0
POLYLINE
  8
寸法
  6
BYBLOCK
 62
     0
 66
     1
  0
VERTEX
  8
寸法
 10
107.424048
 20
4.616653
  0
VERTEX
  8
寸法
 10
119.786875
 20
16.97948
  0
VERTEX
  8
寸法
 10
119.786875
 20
23.976973
  0
SEQEND
  0
ENDBLK
  0
BLOCK
  2
*GRP_0066
 70
    65
 10
0.0
 20
0.0
  0
POLYLINE
  8
寸法
  6
BYBLOCK
 62
     0
 66
     1
  0
VERTEX
  8
寸法
 10
2.009702
 20
-42.248963
  0
VERTEX
  8
寸法
 10
0.509702
 20
-44.847037
  0
VERTEX
  8
寸法
 10
3.107777
 20
-43.347037
  0
SEQEND
  0
POLYLINE
  8
寸法
  6
BYBLOCK
 62
     0
 66
     1
  0
VERTEX
  8
寸法
 10
0.509702
 20
-44.847037
  0
VERTEX
  8
寸法
 10
9.869375
 20
-35.487365
  0
VERTEX
  8
寸法
 10
9.869375
 20
-34.04085
  0
SEQEND
  0
ENDBLK
  0
BLOCK
  2
*GRP_0067
 70
    65
 10
0.0
 20
0.0
  0
POLYLINE
  8
寸法
  6
BYBLOCK
 62
     0
 66
     1
  0
VERTEX
  8
寸法
 10
4.86671
 20
-62.853425
  0
VERTEX
  8
寸法
 10
2.701347
 20
-64.929767
  0
VERTEX
  8
寸法
 10
5.614777
 20
-64.214285
  0
SEQEND
  0
POLYLINE
  8
寸法
  6
BYBLOCK
 62
     0
 66
     1
  0
VERTEX
  8
寸法
 10
2.701347
 20
-64.929767
  0
VERTEX
  8
寸法
 10
24.737773
 20
-52.81629
  0
VERTEX
  8
寸法
 10
24.737773
 20
-55.18471
  0
SEQEND
  0
ENDBLK
  0
BLOCK
  2
*DIM_0068
 70
    65
 10
0.0
 20
0.0
  0
LINE
  8
寸法
  6
CONTINUOUS
 10
-115.96215
 20
-50.944365
 11
-115.96215
 21
-95.419625
  0
LINE
  8
寸法
  6
CONTINUOUS
 10
127.639042
 20
-82.405047
 11
127.639042
 21
-95.419625
  0
LINE
  8
寸法
  6
CONTINUOUS
 10
-115.96215
 20
-95.419625
 11
127.639042
 21
-95.419625
  0
POINT
  8
寸法
 10
-115.96215
 20
-95.419625
 50
-180.0
  0
POINT
  8
寸法
 10
127.639042
 20
-95.419625
 50
-180.0
  0
TEXT
  7
TextStyle03
  8
寸法
  6
CONTINUOUS
 10
9.975
 20
-95.85
  1
243.5
 40
3.0
 50
180.0
 72
     5
 11
1.725
 21
-95.85
  0
ENDBLK
  0
BLOCK
  2
*DIM_0069
 70
    65
 10
0.0
 20
0.0
  0
LINE
  8
寸法
  6
CONTINUOUS
 10
127.639042
 20
-82.405047
 11
127.639042
 21
-95.419625
  0
LINE
  8
寸法
  6
CONTINUOUS
 10
137.739045
 20
-57.405043
 11
137.739045
 21
-95.419625
  0
LINE
  8
寸法
  6
CONTINUOUS
 10
127.639042
 20
-95.419625
 11
137.739045
 21
-95.419625
  0
POINT
  8
寸法
 10
137.739045
 20
-95.419625
 50
-180.0
  0
TEXT
  7
TextStyle03
  8
寸法
  6
CONTINUOUS
 10
135.98125
 20
-95.85
  1
10.1
 40
3.0
 50
180.0
 72
     5
 11
129.41875
 21
-95.85
  0
ENDBLK
  0
BLOCK
  2
*DIM_0070
 70
    65
 10
0.0
 20
0.0
  0
LINE
  8
寸法
  6
CONTINUOUS
 10
105.839048
 20
34.995012
 11
105.839048
 21
98.348322
  0
LINE
  8
寸法
  6
CONTINUOUS
 10
137.739045
 20
-45.405048
 11
137.739045
 21
98.348322
  0
LINE
  8
寸法
  6
CONTINUOUS
 10
105.839048
 20
98.348322
 11
137.739045
 21
98.348322
  0
POINT
  8
寸法
 10
105.839048
 20
98.348322
 50
-180.0
  0
POINT
  8
寸法
 10
137.739045
 20
98.348322
 50
-180.0
  0
TEXT
  7
TextStyle03
  8
寸法
  6
CONTINUOUS
 10
125.08125
 20
97.925
  1
31.9
 40
3.0
 50
180.0
 72
     5
 11
118.51875
 21
97.925
  0
ENDBLK
  0
BLOCK
  2
*DIM_0071
 70
    65
 10
0.0
 20
0.0
  0
LINE
  8
寸法
  6
CONTINUOUS
 10
142.739045
 20
-52.405043
 11
162.973475
 21
-52.405043
  0
LINE
  8
寸法
  6
CONTINUOUS
 10
132.639042
 20
-77.405047
 11
162.973475
 21
-77.405047
  0
LINE
  8
寸法
  6
CONTINUOUS
 10
162.973475
 20
-52.405043
 11
162.973475
 21
-77.405047
  0
POINT
  8
寸法
 10
162.973475
 20
-52.405043
  0
POINT
  8
寸法
 10
162.973475
 20
-77.405047
  0
TEXT
  7
TextStyle03
  8
寸法
  6
CONTINUOUS
 10
162.575
 20
-66.54375
  1
25
 40
3.0
 50
90.0
 72
     5
 11
162.575
 21
-63.35625
  0
ENDBLK
  0
BLOCK
  2
*DIM_0072
 70
    65
 10
0.0
 20
0.0
  0
LINE
  8
寸法
  6
CONTINUOUS
 10
4.639042
 20
-76.504993
 11
4.639042
 21
-84.93841
  0
LINE
  8
寸法
  6
CONTINUOUS
 10
127.639042
 20
-82.405047
 11
127.639042
 21
-84.93841
  0
LINE
  8
寸法
  6
CONTINUOUS
 10
4.639042
 20
-84.93841
 11
127.639042
 21
-84.93841
  0
POINT
  8
寸法
 10
4.639042
 20
-84.93841
 50
-180.0
  0
POINT
  8
寸法
 10
127.639042
 20
-84.93841
 50
-180.0
  0
TEXT
  7
TextStyle03
  8
寸法
  6
CONTINUOUS
 10
68.5625
 20
-85.325
  1
123
 40
3.0
 50
180.0
 72
     5
 11
63.6875
 21
-85.325
  0
ENDBLK
  0
BLOCK
  2
*GRP_0073
 70
    65
 10
0.0
 20
0.0
  0
LINE
  8
別途部材
  6
CONTINUOUS
 10
-110.96103
 20
-49.504987
 11
-110.96103
 21
-48.004987
  0
LINE
  8
別途部材
  6
CONTINUOUS
 10
-112.961032
 20
-49.504987
 11
-110.96103
 21
-49.504987
  0
ARC
  8
別途部材
  6
CONTINUOUS
 10
-112.961037
 20
-46.504992
 40
3.0
 50
180.0
 51
270.0
  0
LINE
  8
別途部材
  6
CONTINUOUS
 10
-112.961032
 20
-48.004987
 11
-110.96103
 21
-48.004987
  0
ARC
  8
別途部材
  6
CONTINUOUS
 10
-112.961037
 20
-46.504992
 40
1.5
 50
180.0
 51
270.0
  0
LINE
  8
別途部材
  6
CONTINUOUS
 10
-114.461032
 20
-46.504987
 11
-114.461032
 21
-44.809343
  0
LINE
  8
別途部材
  6
CONTINUOUS
 10
-112.76103
 20
17.49501
 11
-113.96103
 21
17.49501
  0
LINE
  8
別途部材
  6
CONTINUOUS
 10
-114.961035
 20
25.495012
 11
-112.76103
 21
25.495012
  0
ARC
  8
別途部材
  6
CONTINUOUS
 10
-114.961037
 20
24.495008
 40
1.0
 50
90.0
 51
180.0
  0
LINE
  8
別途部材
  6
CONTINUOUS
 10
-112.76103
 20
25.495012
 11
-112.76103
 21
17.49501
  0
LINE
  8
別途部材
  6
CONTINUOUS
 10
-115.961032
 20
-46.504987
 11
-115.961032
 21
24.495015
  0
LINE
  8
別途部材
  6
CONTINUOUS
 10
-113.96103
 20
-2.30934
 11
-113.96103
 21
17.49501
  0
ARC
  8
別途部材
  6
CONTINUOUS
 10
-110.961027
 20
-2.309349
 40
3.0
 50
180.0
 51
270.0
  0
LINE
  8
別途部材
  6
CONTINUOUS
 10
-102.961013
 20
-5.60934
 11
-103.261013
 21
-5.30934
  0
LINE
  8
別途部材
  6
CONTINUOUS
 10
-102.961013
 20
-5.60934
 11
-102.661013
 21
-5.30934
  0
LINE
  8
別途部材
  6
CONTINUOUS
 10
-110.96103
 20
-5.30934
 11
-103.261013
 21
-5.30934
  0
LINE
  8
別途部材
  6
CONTINUOUS
 10
-102.661013
 20
-5.30934
 11
-96.46101
 21
-5.30934
  0
LINE
  8
別途部材
  6
CONTINUOUS
 10
-79.461007
 20
-44.509343
 11
-79.761007
 21
-44.809343
  0
LINE
  8
別途部材
  6
CONTINUOUS
 10
-79.461007
 20
-44.509343
 11
-79.161007
 21
-44.809343
  0
LINE
  8
別途部材
  6
CONTINUOUS
 10
-114.461032
 20
-44.809343
 11
-79.761007
 21
-44.809343
  0
LINE
  8
別途部材
  6
CONTINUOUS
 10
-79.161007
 20
-44.809343
 11
-65.96103
 21
-44.809343
  0
LINE
  8
別途部材
  6
CONTINUOUS
 10
-91.461007
 20
-36.309345
 11
-74.461005
 21
-36.309345
  0
LINE
  8
別途部材
  6
CONTINUOUS
 10
-74.461005
 20
-37.809345
 11
-74.461005
 21
-36.309345
  0
LINE
  8
別途部材
  6
CONTINUOUS
 10
-65.96103
 20
-44.809343
 11
-65.96103
 21
-43.309343
  0
LINE
  8
別途部材
  6
CONTINUOUS
 10
-91.461007
 20
-36.309345
 11
-91.461007
 21
-43.309343
  0
LINE
  8
別途部材
  6
CONTINUOUS
 10
-89.961007
 20
-37.809345
 11
-89.961007
 21
-43.309343
  0
LINE
  8
別途部材
  6
CONTINUOUS
 10
-89.961007
 20
-43.309343
 11
-65.96103
 21
-43.309343
  0
LINE
  8
別途部材
  6
CONTINUOUS
 10
-96.46101
 20
-43.309343
 11
-91.461007
 21
-43.309343
  0
LINE
  8
別途部材
  6
CONTINUOUS
 10
-79.461007
 20
-37.509345
 11
-79.761007
 21
-37.809345
  0
LINE
  8
別途部材
  6
CONTINUOUS
 10
-79.461007
 20
-37.509345
 11
-79.161007
 21
-37.809345
  0
LINE
  8
別途部材
  6
CONTINUOUS
 10
-89.961007
 20
-37.809345
 11
-79.761007
 21
-37.809345
  0
LINE
  8
別途部材
  6
CONTINUOUS
 10
-79.161007
 20
-37.809345
 11
-74.461005
 21
-37.809345
  0
LINE
  8
別途部材
  6
DOT
 10
-84.46101
 20
-44.809343
 11
-84.46101
 21
-43.309343
  0
LINE
  8
別途部材
  6
DOT
 10
-74.461005
 20
-44.809343
 11
-74.461005
 21
-43.309343
  0
LINE
  8
別途部材
  6
CONTINUOUS
 10
-114.461032
 20
-43.309343
 11
-114.461032
 21
-6.80934
  0
LINE
  8
別途部材
  6
DOT
 10
-84.46101
 20
-44.434343
 11
-74.461005
 21
-44.434343
  0
LINE
  8
別途部材
  6
DOT
 10
-84.46101
 20
-44.059343
 11
-74.461005
 21
-44.059343
  0
LINE
  8
別途部材
  6
DOT
 10
-84.46101
 20
-43.684343
 11
-74.461005
 21
-43.684343
  0
LINE
  8
別途部材
  6
CONTINUOUS
 10
-114.461032
 20
-6.80934
 11
-97.96101
 21
-6.80934
  0
LINE
  8
別途部材
  6
CONTINUOUS
 10
-114.461032
 20
-43.309343
 11
-97.96101
 21
-43.309343
  0
LINE
  8
別途部材
  6
CONTINUOUS
 10
-97.96101
 20
-6.80934
 11
-97.96101
 21
-43.309343
  0
LINE
  8
別途部材
  6
CONTINUOUS
 10
-96.76101
 20
-28.559347
 11
-96.46101
 21
-28.259347
  0
LINE
  8
別途部材
  6
CONTINUOUS
 10
-96.76101
 20
-28.559347
 11
-96.46101
 21
-28.859347
  0
LINE
  8
別途部材
  6
CONTINUOUS
 10
-96.76101
 20
-16.059345
 11
-96.46101
 21
-15.759345
  0
LINE
  8
別途部材
  6
CONTINUOUS
 10
-96.76101
 20
-16.059345
 11
-96.46101
 21
-16.359345
  0
LINE
  8
別途部材
  6
CONTINUOUS
 10
-96.46101
 20
-28.259347
 11
-96.46101
 21
-16.359345
  0
LINE
  8
別途部材
  6
CONTINUOUS
 10
-96.46101
 20
-5.30934
 11
-96.46101
 21
-15.759345
  0
LINE
  8
別途部材
  6
CONTINUOUS
 10
-96.46101
 20
-43.309343
 11
-96.46101
 21
-28.859347
  0
ENDBLK
  0
BLOCK
  2
*GRP_0074
 70
    65
 10
0.0
 20
0.0
  0
LINE
  8
別途部材
  6
DOT
 10
116.139045
 20
-65.90505
 11
116.139045
 21
-75.905047
  0
LINE
  8
別途部材
  6
DOT
 10
126.139042
 20
-75.905047
 11
116.139045
 21
-75.905047
  0
INSERT
  2
*HAT_0006
  8
別途部材
 10
0.0
 20
0.0
  0
LINE
  8
別途部材
  6
DOT
 10
126.139042
 20
-65.90505
 11
116.139045
 21
-65.90505
  0
LINE
  8
別途部材
  6
DOT
 10
126.139042
 20
-65.90505
 11
126.139042
 21
-75.905047
  0
ENDBLK
  0
BLOCK
  2
*GRP_0075
 70
    65
 10
0.0
 20
0.0
  0
LINE
  8
曲げ物
  6
CONTINUOUS
 10
-106.461007
 20
-8.30934
 11
-99.46101
 21
-8.30934
  0
LINE
  8
曲げ物
  6
CONTINUOUS
 10
-99.46101
 20
-8.30934
 11
-99.46101
 21
-35.30934
  0
LINE
  8
曲げ物
  6
CONTINUOUS
 10
-99.46101
 20
-35.30934
 11
-106.461007
 21
-35.30934
  0
LINE
  8
曲げ物
  6
CONTINUOUS
 10
-106.461007
 20
-8.30934
 11
-106.461007
 21
-35.30934
  0
LINE
  8
曲げ物
  6
CONTINUOUS
 10
-107.961007
 20
-36.80934
 11
-97.96101
 21
-36.80934
  0
LINE
  8
曲げ物
  6
CONTINUOUS
 10
-97.96101
 20
-36.80934
 11
-97.96101
 21
-6.80934
  0
LINE
  8
曲げ物
  6
CONTINUOUS
 10
-97.96101
 20
-6.80934
 11
-107.961007
 21
-6.80934
  0
LINE
  8
曲げ物
  6
CONTINUOUS
 10
-107.961007
 20
-36.80934
 11
-107.961007
 21
-6.80934
  0
ENDBLK
  0
BLOCK
  2
*GRP_0076
 70
    65
 10
0.0
 20
0.0
  0
LINE
  8
鉄骨等
  6
CONTINUOUS
 10
3.538995
 20
-77.404943
 11
3.538995
 21
-75.904943
  0
LINE
  8
鉄骨等
  6
CONTINUOUS
 10
3.538995
 20
-75.904943
 11
-5.66247
 21
-75.904943
  0
LINE
  8
鉄骨等
  6
CONTINUOUS
 10
-7.16247
 20
-73.404945
 11
-7.16247
 21
-75.904943
  0
LINE
  8
鉄骨等
  6
CONTINUOUS
 10
-7.16247
 20
-73.404945
 11
-9.162472
 21
-73.404945
  0
LINE
  8
鉄骨等
  6
CONTINUOUS
 10
-7.16247
 20
-72.404947
 11
-9.162472
 21
-72.404947
  0
LINE
  8
鉄骨等
  6
CONTINUOUS
 10
-9.162472
 20
-73.404945
 11
-9.162472
 21
-72.404947
  0
LINE
  8
鉄骨等
  6
CONTINUOUS
 10
-12.261007
 20
-56.50494
 11
-12.261007
 21
-54.504937
  0
LINE
  8
鉄骨等
  6
CONTINUOUS
 10
-12.261007
 20
-62.50494
 11
-12.261007
 21
-64.504943
  0
LINE
  8
鉄骨等
  6
CONTINUOUS
 10
-12.261007
 20
-62.50494
 11
-7.16247
 21
-61.485232
  0
LINE
  8
鉄骨等
  6
CONTINUOUS
 10
-7.16247
 20
-61.485232
 11
-7.16247
 21
-57.524647
  0
LINE
  8
鉄骨等
  6
CONTINUOUS
 10
-12.261007
 20
-56.50494
 11
-7.16247
 21
-57.524647
  0
LINE
  8
鉄骨等
  6
CONTINUOUS
 10
-10.761007
 20
-64.504943
 11
-10.761007
 21
-63.504937
  0
LINE
  8
鉄骨等
  6
CONTINUOUS
 10
-12.261007
 20
-64.504943
 11
-10.761007
 21
-64.504943
  0
LINE
  8
鉄骨等
  6
CONTINUOUS
 10
-12.261007
 20
-54.504937
 11
-10.761007
 21
-54.504937
  0
LINE
  8
鉄骨等
  6
CONTINUOUS
 10
-10.761007
 20
-55.504943
 11
-10.761007
 21
-54.504937
  0
LINE
  8
鉄骨等
  6
CONTINUOUS
 10
-10.761007
 20
-55.504943
 11
-5.66247
 21
-55.504943
  0
LINE
  8
鉄骨等
  6
CONTINUOUS
 10
-10.761007
 20
-63.504937
 11
-7.16247
 21
-63.504937
  0
LINE
  8
鉄骨等
  6
CONTINUOUS
 10
-7.16247
 20
-72.404947
 11
-7.16247
 21
-63.504937
  0
LINE
  8
鉄骨等
  6
CONTINUOUS
 10
-64.43139
 20
-34.809338
 11
-61.199047
 21
-34.809338
  0
LINE
  8
鉄骨等
  6
CONTINUOUS
 10
-61.199047
 20
-34.809338
 11
-59.931293
 21
-36.356205
  0
LINE
  8
鉄骨等
  6
CONTINUOUS
 10
-59.931293
 20
-36.356205
 11
-59.157863
 21
-35.722328
  0
LINE
  8
鉄骨等
  6
CONTINUOUS
 10
3.538995
 20
-77.404943
 11
-31.461007
 21
-77.404943
  0
LINE
  8
鉄骨等
  6
CONTINUOUS
 10
-64.43139
 20
-34.809338
 11
-31.276927
 21
-75.26316
  0
LINE
  8
鉄骨等
  6
CONTINUOUS
 10
-7.16247
 20
-75.904943
 11
-29.921152
 21
-75.904943
  0
LINE
  8
鉄骨等
  6
CONTINUOUS
 10
-31.276927
 20
-75.26316
 11
-30.093495
 21
-72.763162
  0
LINE
  8
鉄骨等
  6
CONTINUOUS
 10
-29.921152
 20
-75.904943
 11
-28.73772
 21
-73.404945
  0
LINE
  8
鉄骨等
  6
CONTINUOUS
 10
-30.093495
 20
-72.763162
 11
-31.36125
 21
-71.216295
  0
LINE
  8
鉄骨等
  6
CONTINUOUS
 10
-31.36125
 20
-71.216295
 11
-30.587813
 21
-70.582417
  0
LINE
  8
鉄骨等
  6
CONTINUOUS
 10
-29.094135
 20
-72.404947
 11
-30.587813
 21
-70.582417
  0
LINE
  8
鉄骨等
  6
CONTINUOUS
 10
-28.73772
 20
-73.404945
 11
-26.737717
 21
-73.404945
  0
LINE
  8
鉄骨等
  6
CONTINUOUS
 10
-26.737717
 20
-73.404945
 11
-26.737717
 21
-72.404947
  0
LINE
  8
鉄骨等
  6
CONTINUOUS
 10
-29.094135
 20
-72.404947
 11
-26.737717
 21
-72.404947
  0
LINE
  8
鉄骨等
  6
CONTINUOUS
 10
-5.96247
 20
-59.50494
 11
-5.66247
 21
-59.20494
  0
LINE
  8
鉄骨等
  6
CONTINUOUS
 10
-5.96247
 20
-59.50494
 11
-5.66247
 21
-59.80494
  0
LINE
  8
鉄骨等
  6
CONTINUOUS
 10
-5.66247
 20
-59.20494
 11
-5.66247
 21
-55.504943
  0
ARC
  8
鉄骨等
  6
CONTINUOUS
 10
-0.962454
 20
-64.504935
 40
0.5
 50
270.0
 51
360.0
  0
LINE
  8
鉄骨等
  6
CONTINUOUS
 10
-0.462465
 20
-64.504935
 11
-0.462465
 21
-64.00494
  0
ARC
  8
鉄骨等
  6
CONTINUOUS
 10
-0.962454
 20
-64.004935
 40
0.5
 50
0.0
 51
90.0
  0
LINE
  8
鉄骨等
  6
CONTINUOUS
 10
-5.66247
 20
-75.904943
 11
-5.66247
 21
-65.004937
  0
LINE
  8
鉄骨等
  6
CONTINUOUS
 10
-0.962468
 20
-65.004937
 11
-5.66247
 21
-65.004937
  0
LINE
  8
鉄骨等
  6
CONTINUOUS
 10
-0.962468
 20
-63.504937
 11
-5.66247
 21
-63.504937
  0
LINE
  8
鉄骨等
  6
CONTINUOUS
 10
-5.66247
 20
-59.80494
 11
-5.66247
 21
-63.504937
  0
LINE
  8
鉄骨等
  6
CONTINUOUS
 10
-91.461007
 20
-33.80934
 11
-60.725677
 21
-33.80934
  0
LINE
  8
鉄骨等
  6
CONTINUOUS
 10
-59.157863
 20
-35.722328
 11
-60.725677
 21
-33.80934
  0
LINE
  8
鉄骨等
  6
CONTINUOUS
 10
-31.461007
 20
-77.404943
 11
-65.961015
 21
-35.30934
  0
LINE
  8
鉄骨等
  6
CONTINUOUS
 10
-91.461007
 20
-33.80934
 11
-91.461007
 21
-35.809343
  0
LINE
  8
鉄骨等
  6
CONTINUOUS
 10
-91.461007
 20
-35.809343
 11
-89.461005
 21
-35.809343
  0
LINE
  8
鉄骨等
  6
CONTINUOUS
 10
-89.461005
 20
-35.809343
 11
-89.461005
 21
-35.30934
  0
LINE
  8
鉄骨等
  6
CONTINUOUS
 10
-79.461007
 20
-35.509343
 11
-79.761007
 21
-35.809343
  0
LINE
  8
鉄骨等
  6
CONTINUOUS
 10
-79.461007
 20
-35.509343
 11
-79.161007
 21
-35.809343
  0
LINE
  8
鉄骨等
  6
CONTINUOUS
 10
-79.161007
 20
-35.809343
 11
-75.46101
 21
-35.809343
  0
LINE
  8
鉄骨等
  6
CONTINUOUS
 10
-79.761007
 20
-35.809343
 11
-83.461005
 21
-35.809343
  0
LINE
  8
鉄骨等
  6
CONTINUOUS
 10
-83.461005
 20
-35.809343
 11
-83.961007
 21
-35.30934
  0
LINE
  8
鉄骨等
  6
CONTINUOUS
 10
-89.461005
 20
-35.30934
 11
-83.961007
 21
-35.30934
  0
LINE
  8
鉄骨等
  6
CONTINUOUS
 10
-75.46101
 20
-35.809343
 11
-74.961007
 21
-35.30934
  0
LINE
  8
鉄骨等
  6
CONTINUOUS
 10
-65.961015
 20
-35.30934
 11
-74.961007
 21
-35.30934
  0
ENDBLK
  0
BLOCK
  2
*GRP_0077
 70
    65
 10
0.0
 20
0.0
  0
LINE
  8
St
  6
CONTINUOUS
 10
-5.662463
 20
-14.50494
 11
-5.662463
 21
-25.809338
  0
LINE
  8
St
  6
CONTINUOUS
 10
-73.96101
 20
-28.809338
 11
-73.96101
 21
-29.109338
  0
LINE
  8
St
  6
CONTINUOUS
 10
-73.96101
 20
-29.109338
 11
-74.461013
 21
-29.109338
  0
LINE
  8
St
  6
CONTINUOUS
 10
-74.461013
 20
-29.109338
 11
-74.461013
 21
-28.809338
  0
LINE
  8
St
  6
CONTINUOUS
 10
-88.461007
 20
-18.004972
 11
-89.461005
 21
-19.00497
  0
LINE
  8
St
  6
CONTINUOUS
 10
-69.660915
 20
-26.809335
 11
-7.162463
 21
-26.809335
  0
LINE
  8
St
  6
CONTINUOUS
 10
-89.461005
 20
-23.809335
 11
-89.461005
 21
-19.00497
  0
LINE
  8
St
  6
CONTINUOUS
 10
-86.461005
 20
-26.809335
 11
-71.660985
 21
-26.809335
  0
ARC
  8
St
  6
CONTINUOUS
 10
-86.460992
 20
-23.809337
 40
3.0
 50
180.0
 51
270.0
  0
LINE
  8
St
  6
CONTINUOUS
 10
-71.660985
 20
-26.809335
 11
-71.660985
 21
-14.50494
  0
LINE
  8
St
  6
CONTINUOUS
 10
-88.461007
 20
-11.004953
 11
-89.461005
 21
-10.004955
  0
LINE
  8
St
  6
CONTINUOUS
 10
-88.461007
 20
-18.004972
 11
-88.461007
 21
-11.004953
  0
LINE
  8
St
  6
CONTINUOUS
 10
-69.660938
 20
-16.504943
 11
-62.16099
 21
-16.504943
  0
LINE
  8
St
  6
CONTINUOUS
 10
-61.660988
 20
-16.00494
 11
-62.16099
 21
-16.504943
  0
LINE
  8
St
  6
CONTINUOUS
 10
-7.162463
 20
-21.504945
 11
-9.162465
 21
-21.504945
  0
LINE
  8
St
  6
CONTINUOUS
 10
-9.162465
 20
-21.504945
 11
-9.162465
 21
-20.004945
  0
LINE
  8
St
  6
CONTINUOUS
 10
-7.162463
 20
-20.004945
 11
-9.162465
 21
-20.004945
  0
LINE
  8
St
  6
CONTINUOUS
 10
-69.66093
 20
-21.504983
 11
-67.660927
 21
-21.504983
  0
LINE
  8
St
  6
CONTINUOUS
 10
-67.660927
 20
-21.504983
 11
-67.660927
 21
-20.004983
  0
LINE
  8
St
  6
CONTINUOUS
 10
-69.66093
 20
-20.004983
 11
-67.660927
 21
-20.004983
  0
LINE
  8
St
  6
CONTINUOUS
 10
-69.660915
 20
-26.809335
 11
-69.66093
 21
-21.504983
  0
LINE
  8
St
  6
CONTINUOUS
 10
-69.660938
 20
-16.504943
 11
-69.66093
 21
-20.004983
  0
LINE
  8
St
  6
CONTINUOUS
 10
-7.162463
 20
-26.809335
 11
-7.162463
 21
-21.504945
  0
LINE
  8
St
  6
CONTINUOUS
 10
-9.162465
 20
-16.504943
 11
-7.162463
 21
-16.504943
  0
LINE
  8
St
  6
CONTINUOUS
 10
-7.162463
 20
-20.004945
 11
-7.162463
 21
-16.504943
  0
LINE
  8
St
  6
CONTINUOUS
 10
-9.162465
 20
-16.504943
 11
-9.162465
 21
-16.00494
  0
LINE
  8
St
  6
CONTINUOUS
 10
-61.660988
 20
-16.00494
 11
-9.162465
 21
-16.00494
  0
LINE
  8
St
  6
CONTINUOUS
 10
-89.461005
 20
-10.004955
 11
-89.461005
 21
-6.80934
  0
LINE
  8
St
  6
CONTINUOUS
 10
-7.162463
 20
-46.704937
 11
-42.983415
 21
-46.704937
  0
LINE
  8
St
  6
CONTINUOUS
 10
-5.662463
 20
-25.809338
 11
-5.662463
 21
-46.704937
  0
LINE
  8
St
  6
CONTINUOUS
 10
-5.662463
 20
-14.50494
 11
-60.060945
 21
-14.50494
  0
LINE
  8
St
  6
CONTINUOUS
 10
-18.76101
 20
-48.204937
 11
-44.461005
 21
-48.204937
  0
LINE
  8
St
  6
CONTINUOUS
 10
-44.461005
 20
-48.204937
 11
-44.461005
 21
-28.809338
  0
LINE
  8
St
  6
CONTINUOUS
 10
-7.162463
 20
-28.809338
 11
-42.961005
 21
-28.809338
  0
LINE
  8
St
  6
CONTINUOUS
 10
-91.161007
 20
-14.504962
 11
-91.461007
 21
-14.204962
  0
LINE
  8
St
  6
CONTINUOUS
 10
-91.161007
 20
-14.504962
 11
-91.461007
 21
-14.804962
  0
LINE
  8
St
  6
CONTINUOUS
 10
-91.461007
 20
-28.809338
 11
-91.461007
 21
-14.804962
  0
LINE
  8
St
  6
CONTINUOUS
 10
-91.461007
 20
-14.204962
 11
-91.461007
 21
-5.30934
  0
LINE
  8
St
  6
CONTINUOUS
 10
-87.461002
 20
-28.509338
 11
-87.761002
 21
-28.809338
  0
LINE
  8
St
  6
CONTINUOUS
 10
-87.461002
 20
-28.509338
 11
-87.161002
 21
-28.809338
  0
LINE
  8
St
  6
CONTINUOUS
 10
-87.761002
 20
-28.809338
 11
-91.461007
 21
-28.809338
  0
LINE
  8
St
  6
CONTINUOUS
 10
-79.461007
 20
-28.509338
 11
-79.761007
 21
-28.809338
  0
LINE
  8
St
  6
CONTINUOUS
 10
-79.461007
 20
-28.509338
 11
-79.161007
 21
-28.809338
  0
LINE
  8
St
  6
CONTINUOUS
 10
-74.461013
 20
-28.809338
 11
-79.161007
 21
-28.809338
  0
LINE
  8
St
  6
CONTINUOUS
 10
-79.761007
 20
-28.809338
 11
-87.161002
 21
-28.809338
  0
LINE
  8
St
  6
CONTINUOUS
 10
-17.56101
 20
-59.504932
 11
-17.26101
 21
-59.804932
  0
LINE
  8
St
  6
CONTINUOUS
 10
-17.26101
 20
-59.204932
 11
-17.56101
 21
-59.504932
  0
LINE
  8
St
  6
CONTINUOUS
 10
-17.26101
 20
-59.204932
 11
-17.26101
 21
-48.204937
  0
ARC
  8
St
  6
CONTINUOUS
 10
-38.77066
 20
-36.362996
 40
0.75
 50
227.457576
 51
407.457232
  0
ARC
  8
St
  6
CONTINUOUS
 10
-38.77066
 20
-40.046882
 40
0.75
 50
312.542364
 51
492.542397
  0
ARC
  8
St
  6
CONTINUOUS
 10
-40.460999
 20
-38.204939
 40
1.75
 50
47.457615
 51
312.542407
  0
ARC
  8
St
  6
CONTINUOUS
 10
-40.460999
 20
-38.204939
 40
3.25
 50
237.769086
 51
312.542389
  0
ARC
  8
St
  6
CONTINUOUS
 10
-42.460997
 20
-41.377085
 40
0.5
 50
57.769086
 51
180.0
  0
ARC
  8
St
  6
CONTINUOUS
 10
-40.460999
 20
-38.204939
 40
3.25
 50
47.457518
 51
122.230914
  0
ARC
  8
St
  6
CONTINUOUS
 10
-42.460997
 20
-35.032793
 40
0.5
 50
180.0
 51
302.230914
  0
ARC
  8
St
  6
CONTINUOUS
 10
-10.852789
 20
-36.362996
 40
0.75
 50
132.542768
 51
312.542424
  0
ARC
  8
St
  6
CONTINUOUS
 10
-10.852789
 20
-40.046882
 40
0.75
 50
47.457603
 51
227.457636
  0
ARC
  8
St
  6
CONTINUOUS
 10
-9.16245
 20
-38.204939
 40
1.75
 50
227.457593
 51
492.542385
  0
ARC
  8
St
  6
CONTINUOUS
 10
-9.16245
 20
-38.204939
 40
3.25
 50
66.421841
 51
132.542482
  0
ARC
  8
St
  6
CONTINUOUS
 10
-7.662451
 20
-34.768007
 40
0.5
 50
246.421841
 51
360.0
  0
ARC
  8
St
  6
CONTINUOUS
 10
-9.16245
 20
-38.204939
 40
3.25
 50
227.457611
 51
293.578159
  0
ARC
  8
St
  6
CONTINUOUS
 10
-7.662451
 20
-41.641871
 40
0.5
 50
0.0
 51
113.578159
  0
LINE
  8
St
  6
CONTINUOUS
 10
-42.961005
 20
-28.809338
 11
-42.961005
 21
-35.032792
  0
LINE
  8
St
  6
CONTINUOUS
 10
-42.961005
 20
-46.704937
 11
-42.961005
 21
-41.377088
  0
LINE
  8
St
  6
CONTINUOUS
 10
-7.162463
 20
-46.704937
 11
-7.162463
 21
-41.641875
  0
LINE
  8
St
  6
CONTINUOUS
 10
-7.162463
 20
-28.809338
 11
-7.162463
 21
-34.768012
  0
LINE
  8
St
  6
CONTINUOUS
 10
-19.261005
 20
-57.004935
 11
-18.76101
 21
-56.504932
  0
LINE
  8
St
  6
CONTINUOUS
 10
-18.76101
 20
-48.204937
 11
-18.76101
 21
-56.504932
  0
LINE
  8
St
  6
CONTINUOUS
 10
-19.261005
 20
-62.004937
 11
-18.76101
 21
-62.504932
  0
LINE
  8
St
  6
CONTINUOUS
 10
-19.261005
 20
-62.004937
 11
-19.261005
 21
-57.004935
  0
LINE
  8
St
  6
CONTINUOUS
 10
-17.26101
 20
-59.804932
 11
-17.26101
 21
-64.504935
  0
LINE
  8
St
  6
CONTINUOUS
 10
-18.76101
 20
-62.504932
 11
-18.76101
 21
-64.504935
  0
LINE
  8
St
  6
CONTINUOUS
 10
-17.26101
 20
-64.504935
 11
-18.76101
 21
-64.504935
  0
LINE
  8
St
  6
CONTINUOUS
 10
-5.662463
 20
-46.704937
 11
-2.862495
 21
-46.704937
  0
ARC
  8
St
  6
CONTINUOUS
 10
-2.862488
 20
-47.704936
 40
0.5
 50
270.0
 51
360.0
  0
LINE
  8
St
  6
CONTINUOUS
 10
-2.3625
 20
-47.704935
 11
-2.3625
 21
-47.20494
  0
ARC
  8
St
  6
CONTINUOUS
 10
-2.862488
 20
-47.204936
 40
0.5
 50
0.0
 51
90.0
  0
LINE
  8
St
  6
CONTINUOUS
 10
-71.660985
 20
-14.50494
 11
-61.560945
 21
-14.50494
  0
LINE
  8
St
  6
CONTINUOUS
 10
-69.360945
 20
-10.00494
 11
-69.360945
 21
-11.50494
  0
LINE
  8
St
  6
CONTINUOUS
 10
-69.360945
 20
-11.50494
 11
-61.560945
 21
-11.50494
  0
LINE
  8
St
  6
CONTINUOUS
 10
-64.560945
 20
-10.30494
 11
-64.860945
 21
-10.00494
  0
LINE
  8
St
  6
CONTINUOUS
 10
-64.560945
 20
-10.30494
 11
-64.260945
 21
-10.00494
  0
LINE
  8
St
  6
CONTINUOUS
 10
-69.360945
 20
-10.00494
 11
-64.860945
 21
-10.00494
  0
LINE
  8
St
  6
CONTINUOUS
 10
-64.260945
 20
-10.00494
 11
-60.060945
 21
-10.00494
  0
LINE
  8
St
  6
CONTINUOUS
 10
-61.560945
 20
-14.50494
 11
-61.560945
 21
-11.50494
  0
LINE
  8
St
  6
CONTINUOUS
 10
-60.060945
 20
-14.50494
 11
-60.060945
 21
-10.00494
  0
LINE
  8
St
  6
CONTINUOUS
 10
-86.461005
 20
-5.30934
 11
-86.461005
 21
-6.80934
  0
LINE
  8
St
  6
CONTINUOUS
 10
-89.461005
 20
-6.80934
 11
-86.461005
 21
-6.80934
  0
LINE
  8
St
  6
CONTINUOUS
 10
-91.461007
 20
-5.30934
 11
-86.461005
 21
-5.30934
  0
LINE
  8
St
  6
CONTINUOUS
 10
-11.6625
 20
-47.904937
 11
-11.3625
 21
-48.204937
  0
LINE
  8
St
  6
CONTINUOUS
 10
-2.862495
 20
-48.204937
 11
-11.3625
 21
-48.204937
  0
LINE
  8
St
  6
CONTINUOUS
 10
-11.6625
 20
-47.904937
 11
-11.9625
 21
-48.204937
  0
LINE
  8
St
  6
CONTINUOUS
 10
-17.26101
 20
-48.204937
 11
-11.9625
 21
-48.204937
  0
LINE
  8
St
  6
CONTINUOUS
 10
-49.661002
 20
-28.509338
 11
-49.961002
 21
-28.809338
  0
LINE
  8
St
  6
CONTINUOUS
 10
-49.661002
 20
-28.509338
 11
-49.361002
 21
-28.809338
  0
LINE
  8
St
  6
CONTINUOUS
 10
-44.461005
 20
-28.809338
 11
-49.361002
 21
-28.809338
  0
LINE
  8
St
  6
CONTINUOUS
 10
-73.96101
 20
-28.809338
 11
-49.961002
 21
-28.809338
  0
ENDBLK
  0
BLOCK
  2
*GRP_0078
 70
    65
 10
0.0
 20
0.0
  0
LINE
  8
St
  6
CONTINUOUS
 10
119.132085
 20
-18.804953
 11
122.332095
 21
-22.004955
  0
LINE
  8
St
  6
CONTINUOUS
 10
118.42497
 20
-18.804953
 11
121.62498
 21
-22.004955
  0
ARC
  8
St
  6
CONTINUOUS
 62
   127
 10
109.039052
 20
-18.804953
 40
3.2
 50
180.0
 51
270.0
  0
LINE
  8
St
  6
CONTINUOUS
 10
105.839048
 20
18.429532
 11
109.03905
 21
15.229537
  0
LINE
  8
St
  6
CONTINUOUS
 10
105.839048
 20
17.722425
 11
109.03905
 21
14.52243
  0
LINE
  8
St
  6
CONTINUOUS
 10
105.839048
 20
-10.21194
 11
109.03905
 21
-13.411935
  0
LINE
  8
St
  6
CONTINUOUS
 10
105.839048
 20
-10.919048
 11
109.03905
 21
-14.119042
  0
LINE
  8
St
  6
CONTINUOUS
 10
105.839048
 20
-26.204932
 11
109.03905
 21
-26.204932
  0
LINE
  8
St
  6
CONTINUOUS
 10
105.839048
 20
-29.704928
 11
109.03905
 21
-29.704928
  0
LINE
  8
St
  6
CONTINUOUS
 10
105.839048
 20
23.245065
 11
109.03905
 21
23.245065
  0
LINE
  8
St
  6
CONTINUOUS
 10
105.839048
 20
26.74506
 11
109.03905
 21
26.74506
  0
LINE
  8
St
  6
CONTINUOUS
 10
110.86614
 20
-27.95493
 11
104.20908
 21
-27.95493
  0
LINE
  8
St
  6
CONTINUOUS
 10
110.86614
 20
24.995062
 11
104.20908
 21
24.995062
  0
LINE
  8
St
  6
CONTINUOUS
 10
106.63905
 20
26.74506
 11
106.63905
 21
23.245065
  0
LINE
  8
St
  6
CONTINUOUS
 10
107.439045
 20
26.74506
 11
107.439045
 21
23.245065
  0
LINE
  8
St
  6
CONTINUOUS
 10
108.239048
 20
26.74506
 11
108.239048
 21
23.245065
  0
LINE
  8
St
  6
CONTINUOUS
 10
106.63905
 20
-26.204932
 11
106.63905
 21
-29.704928
  0
LINE
  8
St
  6
CONTINUOUS
 10
107.439045
 20
-26.204932
 11
107.439045
 21
-29.704928
  0
LINE
  8
St
  6
CONTINUOUS
 10
108.239048
 20
-26.204932
 11
108.239048
 21
-29.704928
  0
LINE
  8
St
  6
CONTINUOUS
 10
105.839048
 20
-31.811377
 11
109.03905
 21
-31.811377
  0
LINE
  8
St
  6
CONTINUOUS
 62
   127
 10
105.839048
 20
-31.811377
 11
105.839048
 21
29.995073
  0
LINE
  8
St
  6
CONTINUOUS
 62
   127
 10
109.03905
 20
-31.811377
 11
109.03905
 21
29.995073
  0
LINE
  8
St
  6
CONTINUOUS
 10
105.839048
 20
29.995073
 11
109.03905
 21
29.995073
  0
LINE
  8
St
  6
CONTINUOUS
 10
155.839035
 20
-18.804953
 11
155.839035
 21
-22.004955
  0
LINE
  8
St
  6
CONTINUOUS
 10
145.83903
 20
-18.804953
 11
145.83903
 21
-22.004955
  0
LINE
  8
St
  6
CONTINUOUS
 62
   127
 10
145.83903
 20
-19.604955
 11
155.839035
 21
-19.604955
  0
LINE
  8
St
  6
CONTINUOUS
 62
   127
 10
145.83903
 20
-20.40495
 11
155.839035
 21
-20.40495
  0
LINE
  8
St
  6
CONTINUOUS
 62
   127
 10
145.83903
 20
-21.204953
 11
155.839035
 21
-21.204953
  0
LINE
  8
St
  6
CONTINUOUS
 10
150.839033
 20
-15.67671
 11
150.839033
 21
-25.424543
  0
LINE
  8
St
  6
CONTINUOUS
 10
166.139048
 20
-18.804953
 11
166.139048
 21
-22.004955
  0
LINE
  8
St
  6
CONTINUOUS
 62
   127
 10
109.03905
 20
-18.804953
 11
166.139048
 21
-18.804953
  0
LINE
  8
St
  6
CONTINUOUS
 62
   127
 10
109.03905
 20
-22.004955
 11
166.139048
 21
-22.004955
  0
ENDBLK
  0
BLOCK
  2
*GRP_0079
 70
    65
 10
0.0
 20
0.0
  0
LINE
  8
St
  6
CONTINUOUS
 10
-7.162495
 20
-19.704922
 11
-7.162495
 21
-16.50492
  0
LINE
  8
St
  6
CONTINUOUS
 10
-15.424578
 20
-16.50492
 11
-12.224582
 21
-19.704922
  0
LINE
  8
St
  6
CONTINUOUS
 10
-14.717478
 20
-16.50492
 11
-11.517483
 21
-19.704922
  0
LINE
  8
St
  6
CONTINUOUS
 10
-68.660935
 20
-16.504928
 11
-68.660935
 21
-19.70493
  0
LINE
  8
St
  6
CONTINUOUS
 10
-64.592815
 20
-16.504928
 11
-61.39282
 21
-19.70493
  0
LINE
  8
St
  6
CONTINUOUS
 10
-63.885715
 20
-16.504928
 11
-60.68572
 21
-19.70493
  0
LINE
  8
St
  6
CONTINUOUS
 10
-7.162495
 20
-19.704922
 11
-68.660935
 21
-19.704922
  0
LINE
  8
St
  6
CONTINUOUS
 10
-7.162495
 20
-16.50492
 11
-68.660935
 21
-16.50492
  0
ENDBLK
  0
BLOCK
  2
*GRP_0080
 70
    65
 10
0.0
 20
0.0
  0
LINE
  8
St
  6
CONTINUOUS
 62
   127
 10
80.839005
 20
-19.20492
 11
80.838998
 21
-16.004925
  0
LINE
  8
St
  6
CONTINUOUS
 62
   127
 10
39.83892
 20
-19.20492
 11
39.838927
 21
-16.004925
  0
LINE
  8
St
  6
CONTINUOUS
 62
   127
 10
80.839005
 20
-19.20492
 11
39.83892
 21
-19.20492
  0
LINE
  8
St
  6
CONTINUOUS
 62
   127
 10
67.610273
 20
-16.004925
 11
70.810268
 21
-19.20492
  0
LINE
  8
St
  6
CONTINUOUS
 62
   127
 10
66.903173
 20
-16.004925
 11
70.103168
 21
-19.20492
  0
LINE
  8
St
  6
CONTINUOUS
 62
   127
 10
41.127487
 20
-16.004925
 11
44.327483
 21
-19.20492
  0
LINE
  8
St
  6
CONTINUOUS
 62
   127
 10
40.420387
 20
-16.004925
 11
43.620383
 21
-19.20492
  0
ENDBLK
  0
BLOCK
  2
*GRP_0081
 70
    65
 10
0.0
 20
0.0
  0
LINE
  8
ボルト／ビス
  6
CONTINUOUS
 10
-21.364228
 20
-72.90494
 11
-15.364228
 21
-72.90494
  0
LINE
  8
ボルト／ビス
  6
CONTINUOUS
 10
-21.364228
 20
-72.90494
 11
-21.364228
 21
-73.904945
  0
LINE
  8
ボルト／ビス
  6
CONTINUOUS
 10
-15.364228
 20
-72.90494
 11
-15.364228
 21
-73.904937
  0
LINE
  8
ボルト／ビス
  6
CONTINUOUS
 10
-21.364228
 20
-73.904945
 11
-15.364228
 21
-73.904937
  0
LINE
  8
ボルト／ビス
  6
CONTINUOUS
 10
-20.364222
 20
-72.90494
 11
-20.364222
 21
-72.90494
  0
ARC
  8
ボルト／ビス
  6
CONTINUOUS
 10
-19.864224
 20
-72.90494
 40
0.5
 50
90.000036
 51
180.0
  0
LINE
  8
ボルト／ビス
  6
CONTINUOUS
 10
-19.864228
 20
-72.404945
 11
-16.864228
 21
-72.404937
  0
LINE
  8
ボルト／ビス
  6
CONTINUOUS
 10
-16.364225
 20
-72.90494
 11
-16.364225
 21
-72.90494
  0
ARC
  8
ボルト／ビス
  6
CONTINUOUS
 10
-16.864224
 20
-72.904939
 40
0.5
 50
0.0
 51
90.000041
  0
LINE
  8
ボルト／ビス
  6
CONTINUOUS
 10
-21.364228
 20
-77.404943
 11
-15.364228
 21
-77.404943
  0
LINE
  8
ボルト／ビス
  6
CONTINUOUS
 10
-21.364228
 20
-77.404943
 11
-20.864225
 21
-77.904945
  0
LINE
  8
ボルト／ビス
  6
CONTINUOUS
 10
-15.364228
 20
-77.404943
 11
-15.864222
 21
-77.904937
  0
LINE
  8
ボルト／ビス
  6
CONTINUOUS
 10
-20.864225
 20
-77.904945
 11
-15.864222
 21
-77.904937
  0
LINE
  8
ボルト／ビス
  6
CONTINUOUS
 10
-20.364222
 20
-73.904945
 11
-20.364222
 21
-77.404943
  0
LINE
  8
ボルト／ビス
  6
CONTINUOUS
 10
-16.364225
 20
-73.904937
 11
-16.364225
 21
-77.404943
  0
ENDBLK
  0
BLOCK
  2
*GRP_0082
 70
    65
 10
0.0
 20
0.0
  0
LINE
  8
ボルト／ビス
  6
CONTINUOUS
 10
-39.390352
 20
-60.630692
 11
-35.587087
 21
-65.271292
  0
LINE
  8
ボルト／ビス
  6
CONTINUOUS
 10
-39.390352
 20
-60.630692
 11
-40.16379
 21
-61.264573
  0
LINE
  8
ボルト／ビス
  6
CONTINUOUS
 10
-35.587087
 20
-65.271292
 11
-36.36052
 21
-65.905167
  0
LINE
  8
ボルト／ビス
  6
CONTINUOUS
 10
-40.16379
 20
-61.264573
 11
-36.36052
 21
-65.905167
  0
LINE
  8
ボルト／ビス
  6
CONTINUOUS
 10
-38.756473
 20
-61.404127
 11
-38.756473
 21
-61.404127
  0
ARC
  8
ボルト／ビス
  6
CONTINUOUS
 10
-38.439533
 20
-61.790844
 40
0.5
 50
39.336826
 51
129.33679
  0
LINE
  8
ボルト／ビス
  6
CONTINUOUS
 10
-38.052825
 20
-61.473905
 11
-36.151185
 21
-63.7942
  0
LINE
  8
ボルト／ビス
  6
CONTINUOUS
 10
-36.220963
 20
-64.49786
 11
-36.220963
 21
-64.49786
  0
ARC
  8
ボルト／ビス
  6
CONTINUOUS
 10
-36.537898
 20
-64.111143
 40
0.5
 50
-50.66321
 51
39.336831
  0
LINE
  8
ボルト／ビス
  6
CONTINUOUS
 10
-42.870805
 20
-63.483143
 11
-39.06754
 21
-68.123743
  0
LINE
  8
ボルト／ビス
  6
CONTINUOUS
 10
-42.870805
 20
-63.483143
 11
-42.940582
 21
-64.186802
  0
LINE
  8
ボルト／ビス
  6
CONTINUOUS
 10
-39.06754
 20
-68.123743
 11
-39.771187
 21
-68.053965
  0
LINE
  8
ボルト／ビス
  6
CONTINUOUS
 10
-42.940582
 20
-64.186802
 11
-39.771187
 21
-68.053965
  0
LINE
  8
ボルト／ビス
  6
CONTINUOUS
 10
-39.52991
 20
-62.03801
 11
-42.236925
 21
-64.25658
  0
LINE
  8
ボルト／ビス
  6
CONTINUOUS
 10
-36.994395
 20
-65.131737
 11
-39.701415
 21
-67.35031
  0
ENDBLK
  0
BLOCK
  2
*GRP_0083
 70
    65
 10
0.0
 20
0.0
  0
LINE
  8
ボルト／ビス
  6
CONTINUOUS
 10
-58.043422
 20
-37.870925
 11
-54.240157
 21
-42.511525
  0
LINE
  8
ボルト／ビス
  6
CONTINUOUS
 10
-58.043422
 20
-37.870925
 11
-58.81686
 21
-38.504805
  0
LINE
  8
ボルト／ビス
  6
CONTINUOUS
 10
-54.240157
 20
-42.511525
 11
-55.01359
 21
-43.1454
  0
LINE
  8
ボルト／ビス
  6
CONTINUOUS
 10
-58.81686
 20
-38.504805
 11
-55.01359
 21
-43.1454
  0
LINE
  8
ボルト／ビス
  6
CONTINUOUS
 10
-57.409543
 20
-38.64436
 11
-57.409543
 21
-38.64436
  0
ARC
  8
ボルト／ビス
  6
CONTINUOUS
 10
-57.092603
 20
-39.031076
 40
0.5
 50
39.336826
 51
129.33679
  0
LINE
  8
ボルト／ビス
  6
CONTINUOUS
 10
-56.705895
 20
-38.714138
 11
-54.804255
 21
-41.034433
  0
LINE
  8
ボルト／ビス
  6
CONTINUOUS
 10
-54.874032
 20
-41.738093
 11
-54.874032
 21
-41.738093
  0
ARC
  8
ボルト／ビス
  6
CONTINUOUS
 10
-55.190968
 20
-41.351375
 40
0.5
 50
-50.66321
 51
39.336831
  0
LINE
  8
ボルト／ビス
  6
CONTINUOUS
 10
-61.523875
 20
-40.723375
 11
-57.72061
 21
-45.363975
  0
LINE
  8
ボルト／ビス
  6
CONTINUOUS
 10
-61.523875
 20
-40.723375
 11
-61.593653
 21
-41.427035
  0
LINE
  8
ボルト／ビス
  6
CONTINUOUS
 10
-57.72061
 20
-45.363975
 11
-58.424258
 21
-45.294197
  0
LINE
  8
ボルト／ビス
  6
CONTINUOUS
 10
-61.593653
 20
-41.427035
 11
-58.424258
 21
-45.294197
  0
LINE
  8
ボルト／ビス
  6
CONTINUOUS
 10
-58.18298
 20
-39.278243
 11
-60.889995
 21
-41.496813
  0
LINE
  8
ボルト／ビス
  6
CONTINUOUS
 10
-55.647465
 20
-42.37197
 11
-58.354485
 21
-44.590542
  0
ENDBLK
  0
BLOCK
  2
*GRP_0084
 70
    65
 10
0.0
 20
0.0
  0
LINE
  8
ボルト／ビス
  6
CONTINUOUS
 10
-21.364228
 20
-72.90494
 11
-15.364228
 21
-72.90494
  0
LINE
  8
ボルト／ビス
  6
CONTINUOUS
 10
-21.364228
 20
-72.90494
 11
-21.364228
 21
-73.904945
  0
LINE
  8
ボルト／ビス
  6
CONTINUOUS
 10
-15.364228
 20
-72.90494
 11
-15.364228
 21
-73.904937
  0
LINE
  8
ボルト／ビス
  6
CONTINUOUS
 10
-21.364228
 20
-73.904945
 11
-15.364228
 21
-73.904937
  0
LINE
  8
ボルト／ビス
  6
CONTINUOUS
 10
-20.364222
 20
-72.90494
 11
-20.364222
 21
-72.90494
  0
ARC
  8
ボルト／ビス
  6
CONTINUOUS
 10
-19.864224
 20
-72.90494
 40
0.5
 50
90.000036
 51
180.0
  0
LINE
  8
ボルト／ビス
  6
CONTINUOUS
 10
-19.864228
 20
-72.404945
 11
-16.864228
 21
-72.404937
  0
LINE
  8
ボルト／ビス
  6
CONTINUOUS
 10
-16.364225
 20
-72.90494
 11
-16.364225
 21
-72.90494
  0
ARC
  8
ボルト／ビス
  6
CONTINUOUS
 10
-16.864224
 20
-72.904939
 40
0.5
 50
0.0
 51
90.000041
  0
LINE
  8
ボルト／ビス
  6
CONTINUOUS
 10
-21.364228
 20
-77.404943
 11
-15.364228
 21
-77.404943
  0
LINE
  8
ボルト／ビス
  6
CONTINUOUS
 10
-21.364228
 20
-77.404943
 11
-20.864225
 21
-77.904945
  0
LINE
  8
ボルト／ビス
  6
CONTINUOUS
 10
-15.364228
 20
-77.404943
 11
-15.864222
 21
-77.904937
  0
LINE
  8
ボルト／ビス
  6
CONTINUOUS
 10
-20.864225
 20
-77.904945
 11
-15.864222
 21
-77.904937
  0
LINE
  8
ボルト／ビス
  6
CONTINUOUS
 10
-20.364222
 20
-73.904945
 11
-20.364222
 21
-77.404943
  0
LINE
  8
ボルト／ビス
  6
CONTINUOUS
 10
-16.364225
 20
-73.904937
 11
-16.364225
 21
-77.404943
  0
ENDBLK
  0
BLOCK
  2
*GRP_0085
 70
    65
 10
0.0
 20
0.0
  0
LINE
  8
通り芯
  6
CONTINUOUS
 10
36.839055
 20
-72.08859
 11
36.839055
 21
-76.713458
  0
LINE
  8
通り芯
  6
CONTINUOUS
 10
35.189055
 20
-75.904957
 11
35.189055
 21
-73.904955
  0
LINE
  8
通り芯
  6
CONTINUOUS
 10
38.489055
 20
-75.904957
 11
38.489055
 21
-73.904955
  0
LINE
  8
通り芯
  6
CONTINUOUS
 10
35.189055
 20
-74.404957
 11
38.489055
 21
-74.404957
  0
LINE
  8
通り芯
  6
CONTINUOUS
 10
35.189055
 20
-74.90496
 11
38.489055
 21
-74.90496
  0
LINE
  8
通り芯
  6
CONTINUOUS
 10
35.189055
 20
-75.404955
 11
38.489055
 21
-75.404955
  0
LINE
  8
型材断面
  6
CONTINUOUS
 10
36.839055
 20
-74.404965
 11
36.839055
 21
-79.281278
  0
LINE
  8
型材断面
  6
CONTINUOUS
 10
38.489055
 20
-77.404957
 11
38.489055
 21
-75.404962
  0
LINE
  8
型材断面
  6
CONTINUOUS
 10
35.189055
 20
-77.404957
 11
35.189055
 21
-75.404962
  0
LINE
  8
型材断面
  6
CONTINUOUS
 10
35.189055
 20
-76.904955
 11
38.489055
 21
-76.904955
  0
LINE
  8
型材断面
  6
CONTINUOUS
 10
35.189055
 20
-76.40496
 11
38.489055
 21
-76.40496
  0
LINE
  8
型材断面
  6
CONTINUOUS
 10
35.189055
 20
-75.904957
 11
38.489055
 21
-75.904957
  0
LINE
  8
ボルト／ビス
  6
CONTINUOUS
 10
33.839055
 20
-77.404957
 11
39.839055
 21
-77.404957
  0
LINE
  8
ボルト／ビス
  6
CONTINUOUS
 10
33.839055
 20
-77.404957
 11
34.339057
 21
-77.90496
  0
LINE
  8
ボルト／ビス
  6
CONTINUOUS
 10
39.839055
 20
-77.404957
 11
39.33906
 21
-77.904953
  0
LINE
  8
ボルト／ビス
  6
CONTINUOUS
 10
34.339057
 20
-77.90496
 11
39.33906
 21
-77.904953
  0
LINE
  8
ボルト／ビス
  6
CONTINUOUS
 10
33.839055
 20
-72.90495
 11
39.839055
 21
-72.90495
  0
LINE
  8
ボルト／ビス
  6
CONTINUOUS
 10
33.839055
 20
-72.90495
 11
33.839055
 21
-73.904955
  0
LINE
  8
ボルト／ビス
  6
CONTINUOUS
 10
39.839055
 20
-72.90495
 11
39.839055
 21
-73.904947
  0
LINE
  8
ボルト／ビス
  6
CONTINUOUS
 10
33.839055
 20
-73.904955
 11
39.839055
 21
-73.904947
  0
LINE
  8
ボルト／ビス
  6
CONTINUOUS
 10
34.83906
 20
-72.90495
 11
34.83906
 21
-72.90495
  0
ARC
  8
ボルト／ビス
  6
CONTINUOUS
 10
35.339052
 20
-72.904958
 40
0.5
 50
90.000036
 51
180.0
  0
LINE
  8
ボルト／ビス
  6
CONTINUOUS
 10
35.339055
 20
-72.404955
 11
38.339055
 21
-72.404947
  0
LINE
  8
ボルト／ビス
  6
CONTINUOUS
 10
38.839057
 20
-72.90495
 11
38.839057
 21
-72.90495
  0
ARC
  8
ボルト／ビス
  6
CONTINUOUS
 10
38.339052
 20
-72.904956
 40
0.5
 50
0.0
 51
90.000041
  0
LINE
  8
ボルト／ビス
  6
CONTINUOUS
 10
34.83906
 20
-77.404957
 11
34.83906
 21
-73.904955
  0
LINE
  8
ボルト／ビス
  6
CONTINUOUS
 10
38.839057
 20
-77.404957
 11
38.839057
 21
-73.904955
  0
ENDBLK
  0
BLOCK
  2
*GRP_0086
 70
    65
 10
0.0
 20
0.0
  0
LINE
  8
通り芯
  6
CONTINUOUS
 10
101.139038
 20
-72.08859
 11
101.139038
 21
-76.713458
  0
LINE
  8
通り芯
  6
CONTINUOUS
 10
99.489038
 20
-75.904957
 11
99.489038
 21
-73.904955
  0
LINE
  8
通り芯
  6
CONTINUOUS
 10
102.789038
 20
-75.904957
 11
102.789038
 21
-73.904955
  0
LINE
  8
通り芯
  6
CONTINUOUS
 10
99.489038
 20
-74.404957
 11
102.789038
 21
-74.404957
  0
LINE
  8
通り芯
  6
CONTINUOUS
 10
99.489038
 20
-74.90496
 11
102.789038
 21
-74.90496
  0
LINE
  8
通り芯
  6
CONTINUOUS
 10
99.489038
 20
-75.404955
 11
102.789038
 21
-75.404955
  0
LINE
  8
型材断面
  6
CONTINUOUS
 10
101.139038
 20
-74.404965
 11
101.139038
 21
-79.281278
  0
LINE
  8
型材断面
  6
CONTINUOUS
 10
102.789038
 20
-77.404957
 11
102.789038
 21
-75.404962
  0
LINE
  8
型材断面
  6
CONTINUOUS
 10
99.489038
 20
-77.404957
 11
99.489038
 21
-75.404962
  0
LINE
  8
型材断面
  6
CONTINUOUS
 10
99.489038
 20
-76.904955
 11
102.789038
 21
-76.904955
  0
LINE
  8
型材断面
  6
CONTINUOUS
 10
99.489038
 20
-76.40496
 11
102.789038
 21
-76.40496
  0
LINE
  8
型材断面
  6
CONTINUOUS
 10
99.489038
 20
-75.904957
 11
102.789038
 21
-75.904957
  0
LINE
  8
ボルト／ビス
  6
CONTINUOUS
 10
98.139038
 20
-77.404957
 11
104.139038
 21
-77.404957
  0
LINE
  8
ボルト／ビス
  6
CONTINUOUS
 10
98.139038
 20
-77.404957
 11
98.63904
 21
-77.90496
  0
LINE
  8
ボルト／ビス
  6
CONTINUOUS
 10
104.139038
 20
-77.404957
 11
103.639042
 21
-77.904953
  0
LINE
  8
ボルト／ビス
  6
CONTINUOUS
 10
98.63904
 20
-77.90496
 11
103.639042
 21
-77.904953
  0
LINE
  8
ボルト／ビス
  6
CONTINUOUS
 10
98.139038
 20
-72.90495
 11
104.139038
 21
-72.90495
  0
LINE
  8
ボルト／ビス
  6
CONTINUOUS
 10
98.139038
 20
-72.90495
 11
98.139038
 21
-73.904955
  0
LINE
  8
ボルト／ビス
  6
CONTINUOUS
 10
104.139038
 20
-72.90495
 11
104.139038
 21
-73.904947
  0
LINE
  8
ボルト／ビス
  6
CONTINUOUS
 10
98.139038
 20
-73.904955
 11
104.139038
 21
-73.904947
  0
LINE
  8
ボルト／ビス
  6
CONTINUOUS
 10
99.139042
 20
-72.90495
 11
99.139042
 21
-72.90495
  0
ARC
  8
ボルト／ビス
  6
CONTINUOUS
 10
99.639035
 20
-72.904958
 40
0.5
 50
90.000036
 51
180.0
  0
LINE
  8
ボルト／ビス
  6
CONTINUOUS
 10
99.639038
 20
-72.404955
 11
102.639038
 21
-72.404947
  0
LINE
  8
ボルト／ビス
  6
CONTINUOUS
 10
103.13904
 20
-72.90495
 11
103.13904
 21
-72.90495
  0
ARC
  8
ボルト／ビス
  6
CONTINUOUS
 10
102.639035
 20
-72.904956
 40
0.5
 50
0.0
 51
90.000041
  0
LINE
  8
ボルト／ビス
  6
CONTINUOUS
 10
99.139042
 20
-77.404957
 11
99.139042
 21
-73.904955
  0
LINE
  8
ボルト／ビス
  6
CONTINUOUS
 10
103.13904
 20
-77.404957
 11
103.13904
 21
-73.904955
  0
ENDBLK
  0
BLOCK
  2
*GRP_0087
 70
    65
 10
0.0
 20
0.0
  0
LINE
  8
別途部材
  6
CONTINUOUS
 10
-49.662465
 20
-3.998498
 11
-5.662463
 21
-3.998498
  0
ARC
  8
別途部材
  6
CONTINUOUS
 10
-49.66246
 20
2.001513
 40
6.0
 50
180.0
 51
270.0
  0
LINE
  8
別途部材
  6
CONTINUOUS
 10
-49.662465
 20
8.001503
 11
-5.662463
 21
8.001503
  0
ARC
  8
別途部材
  6
CONTINUOUS
 10
-49.66246
 20
2.001513
 40
6.0
 50
90.0
 51
180.0
  0
CIRCLE
  8
別途部材
  6
CONTINUOUS
 10
-49.662465
 20
2.001503
 40
3.0
  0
LINE
  8
別途部材
  6
CONTINUOUS
 10
-49.662465
 20
-0.998498
 11
-49.662465
 21
5.001503
  0
LINE
  8
別途部材
  6
CONTINUOUS
 10
-52.662465
 20
2.001503
 11
-46.662465
 21
2.001503
  0
LINE
  8
別途部材
  6
CONTINUOUS
 10
-5.662463
 20
-3.998498
 11
-5.662463
 21
-1.998488
  0
LINE
  8
別途部材
  6
CONTINUOUS
 10
-5.662463
 20
6.001507
 11
-5.662463
 21
8.001503
  0
LINE
  8
別途部材
  6
CONTINUOUS
 10
-5.662463
 20
-1.998488
 11
-43.662465
 21
-1.998488
  0
LINE
  8
別途部材
  6
CONTINUOUS
 10
-43.662465
 20
-1.998488
 11
-43.662465
 21
6.001507
  0
LINE
  8
別途部材
  6
CONTINUOUS
 10
-5.662463
 20
6.001507
 11
-43.662465
 21
6.001507
  0
ARC
  8
別途部材
  6
CONTINUOUS
 10
-6.120792
 20
2.001513
 40
2.541667
 50
100.38896
 51
259.61104
  0
LINE
  8
別途部材
  6
CONTINUOUS
 10
-5.662463
 20
5.501512
 11
-5.662463
 21
4.501507
  0
LINE
  8
別途部材
  6
CONTINUOUS
 10
-5.662463
 20
-1.498492
 11
-5.662463
 21
-0.498488
  0
CIRCLE
  8
別途部材
  6
CONTINUOUS
 10
-39.662468
 20
2.001503
 40
0.999997
  0
LINE
  8
別途部材
  6
CONTINUOUS
 10
-39.662468
 20
3.001507
 11
-39.662468
 21
1.001512
  0
LINE
  8
別途部材
  6
CONTINUOUS
 10
-40.662465
 20
2.001503
 11
-38.662463
 21
2.001503
  0
ARC
  8
別途部材
  6
CONTINUOUS
 10
-41.204132
 20
2.001513
 40
2.541667
 50
280.38896
 51
439.61104
  0
LINE
  8
別途部材
  6
CONTINUOUS
 10
-41.662463
 20
5.501512
 11
-41.662463
 21
4.501507
  0
LINE
  8
別途部材
  6
CONTINUOUS
 10
-41.662463
 20
-0.498488
 11
-41.662463
 21
-1.498492
  0
LINE
  8
別途部材
  6
CONTINUOUS
 10
-5.662463
 20
4.501507
 11
-41.662463
 21
4.501507
  0
LINE
  8
別途部材
  6
CONTINUOUS
 10
-5.662463
 20
5.501512
 11
-41.662463
 21
5.501512
  0
LINE
  8
別途部材
  6
CONTINUOUS
 10
-5.662463
 20
-0.498488
 11
-41.662463
 21
-0.498488
  0
LINE
  8
別途部材
  6
CONTINUOUS
 10
-5.662463
 20
-1.498492
 11
-41.662463
 21
-1.498492
  0
ENDBLK
  0
BLOCK
  2
*GRP_0088
 70
    65
 10
0.0
 20
0.0
  0
LINE
  8
別途部材
  6
CONTINUOUS
 10
-55.662465
 20
2.001503
 11
-55.662465
 21
2.001503
  0
LINE
  8
別途部材
  6
CONTINUOUS
 10
-42.66246
 20
-3.998498
 11
-42.66246
 21
-6.498495
  0
LINE
  8
別途部材
  6
CONTINUOUS
 10
-56.16246
 20
2.001503
 11
-55.662457
 21
2.00151
  0
LINE
  8
別途部材
  6
CONTINUOUS
 10
-43.662465
 20
-14.498498
 11
-43.662465
 21
-6.498495
  0
ARC
  8
別途部材
  6
CONTINUOUS
 10
-6.662461
 20
-13.498493
 40
1.0
 50
270.0
 51
360.0
  0
LINE
  8
別途部材
  6
CONTINUOUS
 10
-5.662463
 20
-7.498492
 11
-5.662463
 21
-13.498492
  0
ARC
  8
別途部材
  6
CONTINUOUS
 10
-6.662461
 20
-7.498493
 40
1.0
 50
0.0
 51
90.0
  0
LINE
  8
別途部材
  6
CONTINUOUS
 10
-6.66246
 20
-14.498498
 11
-55.162463
 21
-14.498498
  0
ARC
  8
別途部材
  6
CONTINUOUS
 10
-55.162461
 20
-13.498493
 40
1.0
 50
180.0
 51
270.0
  0
LINE
  8
別途部材
  6
CONTINUOUS
 10
-6.66246
 20
-6.498495
 11
-55.162463
 21
-6.498495
  0
ARC
  8
別途部材
  6
CONTINUOUS
 10
-55.162461
 20
-7.498493
 40
1.0
 50
90.0
 51
180.0
  0
LINE
  8
別途部材
  6
CONTINUOUS
 10
-56.16246
 20
-13.498492
 11
-56.16246
 21
2.001503
  0
LINE
  8
別途部材
  6
CONTINUOUS
 10
-36.66246
 20
-8.798498
 11
-31.662465
 21
-8.798498
  0
LINE
  8
別途部材
  6
CONTINUOUS
 10
-16.662465
 20
-8.798498
 11
-11.662455
 21
-8.798498
  0
POLYLINE
  8
別途部材
  6
CONTINUOUS
 66
     1
  0
VERTEX
  8
別途部材
 10
-38.16246
 20
-6.498495
  0
VERTEX
  8
別途部材
 10
-36.66246
 20
-8.798498
  0
VERTEX
  8
別途部材
 10
-36.66246
 20
-14.498498
  0
SEQEND
  0
LINE
  8
別途部材
  6
CONTINUOUS
 10
-34.162455
 20
-6.498495
 11
-34.162455
 21
-14.498498
  0
POLYLINE
  8
別途部材
  6
CONTINUOUS
 66
     1
  0
VERTEX
  8
別途部材
 10
-30.162465
 20
-6.498495
  0
VERTEX
  8
別途部材
 10
-31.662465
 20
-8.798498
  0
VERTEX
  8
別途部材
 10
-31.662465
 20
-14.498498
  0
SEQEND
  0
POLYLINE
  8
別途部材
  6
CONTINUOUS
 66
     1
  0
VERTEX
  8
別途部材
 10
-18.162465
 20
-6.498495
  0
VERTEX
  8
別途部材
 10
-16.662465
 20
-8.798498
  0
VERTEX
  8
別途部材
 10
-16.662465
 20
-14.498498
  0
SEQEND
  0
LINE
  8
別途部材
  6
CONTINUOUS
 10
-14.16246
 20
-6.498495
 11
-14.16246
 21
-14.498498
  0
POLYLINE
  8
別途部材
  6
CONTINUOUS
 66
     1
  0
VERTEX
  8
別途部材
 10
-10.162455
 20
-6.498495
  0
VERTEX
  8
別途部材
 10
-11.662455
 20
-8.798498
  0
VERTEX
  8
別途部材
 10
-11.662455
 20
-14.498498
  0
SEQEND
  0
ENDBLK
  0
BLOCK
  2
*GRP_0089
 70
    65
 10
0.0
 20
0.0
  0
LINE
  8
ボルト／ビス
  6
CONTINUOUS
 10
-18.162465
 20
-6.498495
 11
-16.662465
 21
-8.798498
  0
LINE
  8
ボルト／ビス
  6
CONTINUOUS
 10
-10.162463
 20
-6.498495
 11
-11.662463
 21
-8.798498
  0
LINE
  8
ボルト／ビス
  6
CONTINUOUS
 10
-18.162465
 20
-6.498495
 11
-10.162463
 21
-6.498495
  0
LINE
  8
ボルト／ビス
  6
CONTINUOUS
 10
-16.662465
 20
-8.798498
 11
-11.662463
 21
-8.798498
  0
LINE
  8
ボルト／ビス
  6
CONTINUOUS
 10
-16.662465
 20
-25.99849
 11
-16.162463
 21
-26.498492
  0
LINE
  8
ボルト／ビス
  6
CONTINUOUS
 10
-11.662463
 20
-25.99849
 11
-12.162465
 21
-26.498492
  0
LINE
  8
ボルト／ビス
  6
CONTINUOUS
 10
-12.162465
 20
-26.498492
 11
-16.162463
 21
-26.498492
  0
LINE
  8
ボルト／ビス
  6
CONTINUOUS
 10
-11.662463
 20
-25.99849
 11
-16.662465
 21
-25.99849
  0
LINE
  8
ボルト／ビス
  6
CONTINUOUS
 10
-16.162463
 20
-8.798498
 11
-16.162463
 21
-26.498492
  0
LINE
  8
ボルト／ビス
  6
CONTINUOUS
 10
-16.662465
 20
-8.798498
 11
-16.662465
 21
-25.99849
  0
LINE
  8
ボルト／ビス
  6
CONTINUOUS
 10
-12.162465
 20
-8.798498
 11
-12.162465
 21
-26.498492
  0
LINE
  8
ボルト／ビス
  6
CONTINUOUS
 10
-11.662463
 20
-8.798498
 11
-11.662463
 21
-25.99849
  0
LINE
  8
ボルト／ビス
  6
CONTINUOUS
 10
-14.16246
 20
-4.113292
 11
-14.16246
 21
-26.498492
  0
ENDBLK
  0
BLOCK
  2
*GRP_0090
 70
    65
 10
0.0
 20
0.0
  0
LINE
  8
ボルト／ビス
  6
CONTINUOUS
 10
-38.16246
 20
-6.498495
 11
-36.66246
 21
-8.798498
  0
LINE
  8
ボルト／ビス
  6
CONTINUOUS
 10
-30.162457
 20
-6.498495
 11
-31.662457
 21
-8.798498
  0
LINE
  8
ボルト／ビス
  6
CONTINUOUS
 10
-38.16246
 20
-6.498495
 11
-30.162457
 21
-6.498495
  0
LINE
  8
ボルト／ビス
  6
CONTINUOUS
 10
-36.66246
 20
-8.798498
 11
-31.662457
 21
-8.798498
  0
LINE
  8
ボルト／ビス
  6
CONTINUOUS
 10
-36.66246
 20
-25.99849
 11
-36.162457
 21
-26.498492
  0
LINE
  8
ボルト／ビス
  6
CONTINUOUS
 10
-31.662457
 20
-25.99849
 11
-32.16246
 21
-26.498492
  0
LINE
  8
ボルト／ビス
  6
CONTINUOUS
 10
-32.16246
 20
-26.498492
 11
-36.162457
 21
-26.498492
  0
LINE
  8
ボルト／ビス
  6
CONTINUOUS
 10
-31.662457
 20
-25.99849
 11
-36.66246
 21
-25.99849
  0
LINE
  8
ボルト／ビス
  6
CONTINUOUS
 10
-36.162457
 20
-8.798498
 11
-36.162457
 21
-26.498492
  0
LINE
  8
ボルト／ビス
  6
CONTINUOUS
 10
-36.66246
 20
-8.798498
 11
-36.66246
 21
-25.99849
  0
LINE
  8
ボルト／ビス
  6
CONTINUOUS
 10
-32.16246
 20
-8.798498
 11
-32.16246
 21
-26.498492
  0
LINE
  8
ボルト／ビス
  6
CONTINUOUS
 10
-31.662457
 20
-8.798498
 11
-31.662457
 21
-25.99849
  0
LINE
  8
ボルト／ビス
  6
CONTINUOUS
 10
-34.162455
 20
-4.113292
 11
-34.162455
 21
-26.498492
  0
ENDBLK
  0
BLOCK
  2
*GRP_0091
 70
    65
 10
0.0
 20
0.0
  0
INSERT
  2
*GRP_0101
  8
別途部材
  6
CONTINUOUS
 10
0.0
 20
0.0
  0
INSERT
  2
*GRP_0102
  8
別途部材
  6
CONTINUOUS
 10
0.0
 20
0.0
  0
ENDBLK
  0
BLOCK
  2
*GRP_0092
 70
    65
 10
0.0
 20
0.0
  0
INSERT
  2
*GRP_0103
  8
別途部材
  6
CONTINUOUS
 10
0.0
 20
0.0
  0
INSERT
  2
*GRP_0104
  8
別途部材
  6
CONTINUOUS
 10
0.0
 20
0.0
  0
ENDBLK
  0
BLOCK
  2
*GRP_0093
 70
    65
 10
0.0
 20
0.0
  0
LINE
  8
ボルト／ビス
  6
CONTINUOUS
 10
49.538977
 20
-6.509343
 11
51.038977
 21
-8.809345
  0
LINE
  8
ボルト／ビス
  6
CONTINUOUS
 10
57.53898
 20
-6.509343
 11
56.03898
 21
-8.809345
  0
LINE
  8
ボルト／ビス
  6
CONTINUOUS
 10
49.538977
 20
-6.509343
 11
57.53898
 21
-6.509343
  0
LINE
  8
ボルト／ビス
  6
CONTINUOUS
 10
51.038977
 20
-8.809345
 11
56.03898
 21
-8.809345
  0
LINE
  8
ボルト／ビス
  6
CONTINUOUS
 10
51.038977
 20
-26.009338
 11
51.53898
 21
-26.50934
  0
LINE
  8
ボルト／ビス
  6
CONTINUOUS
 10
56.03898
 20
-26.009338
 11
55.538977
 21
-26.50934
  0
LINE
  8
ボルト／ビス
  6
CONTINUOUS
 10
55.538977
 20
-26.50934
 11
51.53898
 21
-26.50934
  0
LINE
  8
ボルト／ビス
  6
CONTINUOUS
 10
56.03898
 20
-26.009338
 11
51.038977
 21
-26.009338
  0
LINE
  8
ボルト／ビス
  6
CONTINUOUS
 10
51.53898
 20
-8.809345
 11
51.53898
 21
-26.50934
  0
LINE
  8
ボルト／ビス
  6
CONTINUOUS
 10
51.038977
 20
-8.809345
 11
51.038977
 21
-26.009338
  0
LINE
  8
ボルト／ビス
  6
CONTINUOUS
 10
55.538977
 20
-8.809345
 11
55.538977
 21
-26.50934
  0
LINE
  8
ボルト／ビス
  6
CONTINUOUS
 10
56.03898
 20
-8.809345
 11
56.03898
 21
-26.009338
  0
LINE
  8
ボルト／ビス
  6
CONTINUOUS
 10
53.538983
 20
-4.12414
 11
53.538983
 21
-26.50934
  0
ENDBLK
  0
BLOCK
  2
*GRP_0094
 70
    65
 10
0.0
 20
0.0
  0
LINE
  8
ボルト／ビス
  6
CONTINUOUS
 10
59.038983
 20
-6.509343
 11
60.538983
 21
-8.809345
  0
LINE
  8
ボルト／ビス
  6
CONTINUOUS
 10
67.038985
 20
-6.509343
 11
65.538985
 21
-8.809345
  0
LINE
  8
ボルト／ビス
  6
CONTINUOUS
 10
59.038983
 20
-6.509343
 11
67.038985
 21
-6.509343
  0
LINE
  8
ボルト／ビス
  6
CONTINUOUS
 10
60.538983
 20
-8.809345
 11
65.538985
 21
-8.809345
  0
LINE
  8
ボルト／ビス
  6
CONTINUOUS
 10
60.538983
 20
-26.009338
 11
61.038985
 21
-26.50934
  0
LINE
  8
ボルト／ビス
  6
CONTINUOUS
 10
65.538985
 20
-26.009338
 11
65.038983
 21
-26.50934
  0
LINE
  8
ボルト／ビス
  6
CONTINUOUS
 10
65.038983
 20
-26.50934
 11
61.038985
 21
-26.50934
  0
LINE
  8
ボルト／ビス
  6
CONTINUOUS
 10
65.538985
 20
-26.009338
 11
60.538983
 21
-26.009338
  0
LINE
  8
ボルト／ビス
  6
CONTINUOUS
 10
61.038985
 20
-8.809345
 11
61.038985
 21
-26.50934
  0
LINE
  8
ボルト／ビス
  6
CONTINUOUS
 10
60.538983
 20
-8.809345
 11
60.538983
 21
-26.009338
  0
LINE
  8
ボルト／ビス
  6
CONTINUOUS
 10
65.038983
 20
-8.809345
 11
65.038983
 21
-26.50934
  0
LINE
  8
ボルト／ビス
  6
CONTINUOUS
 10
65.538985
 20
-8.809345
 11
65.538985
 21
-26.009338
  0
LINE
  8
ボルト／ビス
  6
CONTINUOUS
 10
63.038988
 20
-4.12414
 11
63.038988
 21
-26.50934
  0
ENDBLK
  0
BLOCK
  2
*GRP_0095
 70
    65
 10
0.0
 20
0.0
  0
LINE
  8
ボルト／ビス
  6
CONTINUOUS
 10
69.538973
 20
-6.509343
 11
71.038973
 21
-8.809345
  0
LINE
  8
ボルト／ビス
  6
CONTINUOUS
 10
77.538975
 20
-6.509343
 11
76.038975
 21
-8.809345
  0
LINE
  8
ボルト／ビス
  6
CONTINUOUS
 10
69.538973
 20
-6.509343
 11
77.538975
 21
-6.509343
  0
LINE
  8
ボルト／ビス
  6
CONTINUOUS
 10
71.038973
 20
-8.809345
 11
76.038975
 21
-8.809345
  0
LINE
  8
ボルト／ビス
  6
CONTINUOUS
 10
71.038973
 20
-26.009338
 11
71.538975
 21
-26.50934
  0
LINE
  8
ボルト／ビス
  6
CONTINUOUS
 10
76.038975
 20
-26.009338
 11
75.538973
 21
-26.50934
  0
LINE
  8
ボルト／ビス
  6
CONTINUOUS
 10
75.538973
 20
-26.50934
 11
71.538975
 21
-26.50934
  0
LINE
  8
ボルト／ビス
  6
CONTINUOUS
 10
76.038975
 20
-26.009338
 11
71.038973
 21
-26.009338
  0
LINE
  8
ボルト／ビス
  6
CONTINUOUS
 10
71.538975
 20
-8.809345
 11
71.538975
 21
-26.50934
  0
LINE
  8
ボルト／ビス
  6
CONTINUOUS
 10
71.038973
 20
-8.809345
 11
71.038973
 21
-26.009338
  0
LINE
  8
ボルト／ビス
  6
CONTINUOUS
 10
75.538973
 20
-8.809345
 11
75.538973
 21
-26.50934
  0
LINE
  8
ボルト／ビス
  6
CONTINUOUS
 10
76.038975
 20
-8.809345
 11
76.038975
 21
-26.009338
  0
LINE
  8
ボルト／ビス
  6
CONTINUOUS
 10
73.538977
 20
-4.12414
 11
73.538977
 21
-26.50934
  0
ENDBLK
  0
BLOCK
  2
*GRP_0096
 70
    65
 10
0.0
 20
0.0
  0
INSERT
  2
*GRP_0105
  8
別途部材
  6
CONTINUOUS
 10
0.0
 20
0.0
  0
INSERT
  2
*GRP_0106
  8
別途部材
  6
CONTINUOUS
 10
0.0
 20
0.0
  0
ENDBLK
  0
BLOCK
  2
*GRP_0097
 70
    65
 10
0.0
 20
0.0
  0
INSERT
  2
*GRP_0107
  8
別途部材
  6
CONTINUOUS
 10
0.0
 20
0.0
  0
INSERT
  2
*GRP_0108
  8
別途部材
  6
CONTINUOUS
 10
0.0
 20
0.0
  0
ENDBLK
  0
BLOCK
  2
*GRP_0098
 70
    65
 10
0.0
 20
0.0
  0
LINE
  8
ボルト／ビス
  6
CONTINUOUS
 10
49.538992
 20
-6.509355
 11
51.038992
 21
-8.809357
  0
LINE
  8
ボルト／ビス
  6
CONTINUOUS
 10
57.538995
 20
-6.509355
 11
56.038995
 21
-8.809357
  0
LINE
  8
ボルト／ビス
  6
CONTINUOUS
 10
49.538992
 20
-6.509355
 11
57.538995
 21
-6.509355
  0
LINE
  8
ボルト／ビス
  6
CONTINUOUS
 10
51.038992
 20
-8.809357
 11
56.038995
 21
-8.809357
  0
LINE
  8
ボルト／ビス
  6
CONTINUOUS
 10
51.038992
 20
-26.009355
 11
51.538995
 21
-26.509357
  0
LINE
  8
ボルト／ビス
  6
CONTINUOUS
 10
56.038995
 20
-26.009355
 11
55.538992
 21
-26.509357
  0
LINE
  8
ボルト／ビス
  6
CONTINUOUS
 10
55.538992
 20
-26.509357
 11
51.538995
 21
-26.509357
  0
LINE
  8
ボルト／ビス
  6
CONTINUOUS
 10
56.038995
 20
-26.009355
 11
51.038992
 21
-26.009355
  0
LINE
  8
ボルト／ビス
  6
CONTINUOUS
 10
51.538995
 20
-8.809357
 11
51.538995
 21
-26.509357
  0
LINE
  8
ボルト／ビス
  6
CONTINUOUS
 10
51.038992
 20
-8.809357
 11
51.038992
 21
-26.009355
  0
LINE
  8
ボルト／ビス
  6
CONTINUOUS
 10
55.538992
 20
-8.809357
 11
55.538992
 21
-26.509357
  0
LINE
  8
ボルト／ビス
  6
CONTINUOUS
 10
56.038995
 20
-8.809357
 11
56.038995
 21
-26.009355
  0
LINE
  8
ボルト／ビス
  6
CONTINUOUS
 10
53.538998
 20
-4.124153
 11
53.538998
 21
-26.509357
  0
ENDBLK
  0
BLOCK
  2
*GRP_0099
 70
    65
 10
0.0
 20
0.0
  0
LINE
  8
ボルト／ビス
  6
CONTINUOUS
 10
59.038995
 20
-6.509355
 11
60.538995
 21
-8.809357
  0
LINE
  8
ボルト／ビス
  6
CONTINUOUS
 10
67.038998
 20
-6.509355
 11
65.538998
 21
-8.809357
  0
LINE
  8
ボルト／ビス
  6
CONTINUOUS
 10
59.038995
 20
-6.509355
 11
67.038998
 21
-6.509355
  0
LINE
  8
ボルト／ビス
  6
CONTINUOUS
 10
60.538995
 20
-8.809357
 11
65.538998
 21
-8.809357
  0
LINE
  8
ボルト／ビス
  6
CONTINUOUS
 10
60.538995
 20
-26.009355
 11
61.038998
 21
-26.509357
  0
LINE
  8
ボルト／ビス
  6
CONTINUOUS
 10
65.538998
 20
-26.009355
 11
65.038995
 21
-26.509357
  0
LINE
  8
ボルト／ビス
  6
CONTINUOUS
 10
65.038995
 20
-26.509357
 11
61.038998
 21
-26.509357
  0
LINE
  8
ボルト／ビス
  6
CONTINUOUS
 10
65.538998
 20
-26.009355
 11
60.538995
 21
-26.009355
  0
LINE
  8
ボルト／ビス
  6
CONTINUOUS
 10
61.038998
 20
-8.809357
 11
61.038998
 21
-26.509357
  0
LINE
  8
ボルト／ビス
  6
CONTINUOUS
 10
60.538995
 20
-8.809357
 11
60.538995
 21
-26.009355
  0
LINE
  8
ボルト／ビス
  6
CONTINUOUS
 10
65.038995
 20
-8.809357
 11
65.038995
 21
-26.509357
  0
LINE
  8
ボルト／ビス
  6
CONTINUOUS
 10
65.538998
 20
-8.809357
 11
65.538998
 21
-26.009355
  0
LINE
  8
ボルト／ビス
  6
CONTINUOUS
 10
63.039
 20
-4.124153
 11
63.039
 21
-26.509357
  0
ENDBLK
  0
BLOCK
  2
*GRP_0100
 70
    65
 10
0.0
 20
0.0
  0
LINE
  8
ボルト／ビス
  6
CONTINUOUS
 10
69.538988
 20
-6.509355
 11
71.038988
 21
-8.809357
  0
LINE
  8
ボルト／ビス
  6
CONTINUOUS
 10
77.53899
 20
-6.509355
 11
76.03899
 21
-8.809357
  0
LINE
  8
ボルト／ビス
  6
CONTINUOUS
 10
69.538988
 20
-6.509355
 11
77.53899
 21
-6.509355
  0
LINE
  8
ボルト／ビス
  6
CONTINUOUS
 10
71.038988
 20
-8.809357
 11
76.03899
 21
-8.809357
  0
LINE
  8
ボルト／ビス
  6
CONTINUOUS
 10
71.038988
 20
-26.009355
 11
71.53899
 21
-26.509357
  0
LINE
  8
ボルト／ビス
  6
CONTINUOUS
 10
76.03899
 20
-26.009355
 11
75.538988
 21
-26.509357
  0
LINE
  8
ボルト／ビス
  6
CONTINUOUS
 10
75.538988
 20
-26.509357
 11
71.53899
 21
-26.509357
  0
LINE
  8
ボルト／ビス
  6
CONTINUOUS
 10
76.03899
 20
-26.009355
 11
71.038988
 21
-26.009355
  0
LINE
  8
ボルト／ビス
  6
CONTINUOUS
 10
71.53899
 20
-8.809357
 11
71.53899
 21
-26.509357
  0
LINE
  8
ボルト／ビス
  6
CONTINUOUS
 10
71.038988
 20
-8.809357
 11
71.038988
 21
-26.009355
  0
LINE
  8
ボルト／ビス
  6
CONTINUOUS
 10
75.538988
 20
-8.809357
 11
75.538988
 21
-26.509357
  0
LINE
  8
ボルト／ビス
  6
CONTINUOUS
 10
76.03899
 20
-8.809357
 11
76.03899
 21
-26.009355
  0
LINE
  8
ボルト／ビス
  6
CONTINUOUS
 10
73.538992
 20
-4.124153
 11
73.538992
 21
-26.509357
  0
ENDBLK
  0
BLOCK
  2
*GRP_0101
 70
    65
 10
0.0
 20
0.0
  0
LINE
  8
別途部材
  6
CONTINUOUS
 10
73.03899
 20
-8.004922
 11
73.03899
 21
35.995073
  0
ARC
  8
別途部材
  6
CONTINUOUS
 10
79.038977
 20
-8.004934
 40
6.0
 50
179.999999
 51
269.999999
  0
LINE
  8
別途部材
  6
CONTINUOUS
 10
85.03899
 20
-8.004922
 11
85.03899
 21
35.995073
  0
ARC
  8
別途部材
  6
CONTINUOUS
 10
79.038977
 20
-8.004934
 40
6.0
 50
269.999999
 51
359.999999
  0
CIRCLE
  8
別途部材
  6
CONTINUOUS
 10
79.03899
 20
-8.004922
 40
3.0
  0
LINE
  8
別途部材
  6
CONTINUOUS
 10
76.03899
 20
-8.004922
 11
82.03899
 21
-8.004915
  0
LINE
  8
別途部材
  6
CONTINUOUS
 10
79.038998
 20
-11.004922
 11
79.03899
 21
-5.004922
  0
LINE
  8
別途部材
  6
CONTINUOUS
 10
73.03899
 20
35.995073
 11
75.039
 21
35.995073
  0
LINE
  8
別途部材
  6
CONTINUOUS
 10
83.038995
 20
35.99508
 11
85.03899
 21
35.995073
  0
LINE
  8
別途部材
  6
CONTINUOUS
 10
75.039
 20
35.995073
 11
75.038992
 21
-2.004922
  0
LINE
  8
別途部材
  6
CONTINUOUS
 10
75.038992
 20
-2.004922
 11
83.038995
 21
-2.004922
  0
LINE
  8
別途部材
  6
CONTINUOUS
 10
83.038995
 20
35.99508
 11
83.038995
 21
-2.004922
  0
ARC
  8
別途部材
  6
CONTINUOUS
 10
79.038977
 20
-0.546602
 40
2.541667
 50
269.999999
 51
269.999999
  0
ARC
  8
別途部材
  6
CONTINUOUS
 10
79.038977
 20
35.536733
 40
2.541667
 50
190.388959
 51
349.611039
  0
LINE
  8
別途部材
  6
CONTINUOUS
 10
82.539
 20
35.995073
 11
81.538995
 21
35.995073
  0
LINE
  8
別途部材
  6
CONTINUOUS
 10
75.538995
 20
35.995073
 11
76.539
 21
35.995073
  0
CIRCLE
  8
別途部材
  6
CONTINUOUS
 10
79.03899
 20
1.995068
 40
0.999997
  0
LINE
  8
別途部材
  6
CONTINUOUS
 10
80.039003
 20
1.995068
 11
78.038992
 21
1.995068
  0
LINE
  8
別途部材
  6
CONTINUOUS
 10
79.038998
 20
0.995062
 11
79.03899
 21
2.995073
  0
ARC
  8
別途部材
  6
CONTINUOUS
 10
79.038977
 20
0.453393
 40
2.541667
 50
10.388959
 51
169.611039
  0
LINE
  8
別途部材
  6
CONTINUOUS
 10
82.538992
 20
-0.004928
 11
81.538995
 21
-0.00492
  0
LINE
  8
別途部材
  6
CONTINUOUS
 10
76.539
 20
-0.004928
 11
75.538995
 21
-0.004928
  0
LINE
  8
別途部材
  6
CONTINUOUS
 10
81.538995
 20
35.995073
 11
81.538995
 21
-0.00492
  0
LINE
  8
別途部材
  6
CONTINUOUS
 10
82.539
 20
35.995073
 11
82.538992
 21
-0.004928
  0
LINE
  8
別途部材
  6
CONTINUOUS
 10
76.539
 20
35.995073
 11
76.539
 21
-0.004928
  0
LINE
  8
別途部材
  6
CONTINUOUS
 10
75.538995
 20
35.995073
 11
75.538995
 21
-0.004928
  0
ENDBLK
  0
BLOCK
  2
*GRP_0102
 70
    65
 10
0.0
 20
0.0
  0
LINE
  8
別途部材
  6
CONTINUOUS
 10
79.03899
 20
-14.004922
 11
79.03899
 21
-14.004922
  0
LINE
  8
別途部材
  6
CONTINUOUS
 10
60.53898
 20
-8.804925
 11
65.538983
 21
-8.804925
  0
LINE
  8
別途部材
  6
CONTINUOUS
 10
63.038992
 20
-6.504915
 11
63.038985
 21
-14.504925
  0
POLYLINE
  8
別途部材
  6
CONTINUOUS
 66
     1
  0
VERTEX
  8
別途部材
 10
67.038983
 20
-6.504922
  0
VERTEX
  8
別途部材
 10
65.538983
 20
-8.804925
  0
VERTEX
  8
別途部材
 10
65.538983
 20
-14.504925
  0
SEQEND
  0
POLYLINE
  8
別途部材
  6
CONTINUOUS
 66
     1
  0
VERTEX
  8
別途部材
 10
59.03898
 20
-6.504922
  0
VERTEX
  8
別途部材
 10
60.53898
 20
-8.804925
  0
VERTEX
  8
別途部材
 10
60.53898
 20
-14.504925
  0
SEQEND
  0
LINE
  8
別途部材
  6
CONTINUOUS
 10
79.03899
 20
-14.504925
 11
79.03899
 21
-14.004922
  0
ARC
  8
別途部材
  6
CONTINUOUS
 10
54.038968
 20
-7.504935
 40
1.0
 50
89.999999
 51
179.999999
  0
LINE
  8
別途部材
  6
CONTINUOUS
 10
53.038988
 20
-7.50492
 11
53.038988
 21
-13.50492
  0
ARC
  8
別途部材
  6
CONTINUOUS
 10
54.038968
 20
-13.504935
 40
1.0
 50
179.999999
 51
269.999999
  0
ARC
  8
別途部材
  6
CONTINUOUS
 10
70.038968
 20
-7.504935
 40
1.0
 50
-0.000001
 51
89.999999
  0
LINE
  8
別途部材
  6
CONTINUOUS
 10
71.038988
 20
-13.504928
 11
71.038988
 21
-7.504928
  0
ARC
  8
別途部材
  6
CONTINUOUS
 10
70.038968
 20
-13.504935
 40
1.0
 50
269.999999
 51
359.999999
  0
LINE
  8
別途部材
  6
CONTINUOUS
 10
54.038985
 20
-14.504925
 11
79.03899
 21
-14.504925
  0
LINE
  8
別途部材
  6
CONTINUOUS
 10
54.038992
 20
-6.504922
 11
73.03899
 21
-6.504922
  0
ENDBLK
  0
BLOCK
  2
*GRP_0103
 70
    65
 10
0.0
 20
0.0
  0
LINE
  8
別途部材
  6
CONTINUOUS
 10
89.038988
 20
-4.004925
 11
45.038985
 21
-4.004925
  0
ARC
  8
別途部材
  6
CONTINUOUS
 10
89.03897
 20
1.995076
 40
6.0
 50
269.999999
 51
359.999999
  0
LINE
  8
別途部材
  6
CONTINUOUS
 10
89.038988
 20
7.995075
 11
45.038985
 21
7.995075
  0
ARC
  8
別途部材
  6
CONTINUOUS
 10
89.03897
 20
1.995076
 40
6.0
 50
-0.000001
 51
89.999999
  0
CIRCLE
  8
別途部材
  6
CONTINUOUS
 10
89.038988
 20
1.995075
 40
3.0
  0
LINE
  8
別途部材
  6
CONTINUOUS
 10
89.038988
 20
-1.004925
 11
89.038988
 21
4.995075
  0
LINE
  8
別途部材
  6
CONTINUOUS
 10
92.038988
 20
1.995075
 11
86.038988
 21
1.995075
  0
LINE
  8
別途部材
  6
CONTINUOUS
 10
45.038985
 20
-4.004925
 11
45.038985
 21
-2.004907
  0
LINE
  8
別途部材
  6
CONTINUOUS
 10
45.038985
 20
5.99508
 11
45.038985
 21
7.995075
  0
LINE
  8
別途部材
  6
CONTINUOUS
 10
45.038985
 20
-2.004907
 11
83.038995
 21
-2.004915
  0
LINE
  8
別途部材
  6
CONTINUOUS
 10
83.038995
 20
-2.004915
 11
83.038995
 21
5.99508
  0
LINE
  8
別途部材
  6
CONTINUOUS
 10
45.038985
 20
5.99508
 11
83.038995
 21
5.99508
  0
ARC
  8
別途部材
  6
CONTINUOUS
 10
45.497302
 20
1.995077
 40
2.541667
 50
280.388959
 51
439.611039
  0
LINE
  8
別途部材
  6
CONTINUOUS
 10
45.038985
 20
5.495092
 11
45.038992
 21
4.49508
  0
LINE
  8
別途部材
  6
CONTINUOUS
 10
45.038985
 20
-1.50492
 11
45.038985
 21
-0.504907
  0
CIRCLE
  8
別途部材
  6
CONTINUOUS
 10
79.03899
 20
1.995075
 40
0.999997
  0
LINE
  8
別途部材
  6
CONTINUOUS
 10
79.03899
 20
2.99508
 11
79.038998
 21
0.995077
  0
LINE
  8
別途部材
  6
CONTINUOUS
 10
80.038988
 20
1.995075
 11
78.038985
 21
1.995075
  0
ARC
  8
別途部材
  6
CONTINUOUS
 10
80.580642
 20
1.995076
 40
2.541667
 50
100.388959
 51
259.611039
  0
LINE
  8
別途部材
  6
CONTINUOUS
 10
81.038985
 20
5.495085
 11
81.038992
 21
4.49508
  0
LINE
  8
別途部材
  6
CONTINUOUS
 10
81.038985
 20
-0.504915
 11
81.038985
 21
-1.50492
  0
LINE
  8
別途部材
  6
CONTINUOUS
 10
45.038992
 20
4.49508
 11
81.038992
 21
4.49508
  0
LINE
  8
別途部材
  6
CONTINUOUS
 10
45.038985
 20
5.495092
 11
81.038985
 21
5.495085
  0
LINE
  8
別途部材
  6
CONTINUOUS
 10
45.038985
 20
-0.504907
 11
81.038985
 21
-0.504915
  0
LINE
  8
別途部材
  6
CONTINUOUS
 10
45.038985
 20
-1.50492
 11
81.038985
 21
-1.50492
  0
ENDBLK
  0
BLOCK
  2
*GRP_0104
 70
    65
 10
0.0
 20
0.0
  0
LINE
  8
別途部材
  6
CONTINUOUS
 10
95.038988
 20
1.995075
 11
95.038988
 21
1.995075
  0
LINE
  8
別途部材
  6
CONTINUOUS
 10
82.038983
 20
-4.004925
 11
82.038983
 21
-6.504915
  0
LINE
  8
別途部材
  6
CONTINUOUS
 10
95.538983
 20
1.995075
 11
95.038988
 21
1.995082
  0
LINE
  8
別途部材
  6
CONTINUOUS
 10
83.038995
 20
-14.504925
 11
83.038988
 21
-6.504922
  0
ARC
  8
別途部材
  6
CONTINUOUS
 10
46.038971
 20
-13.50493
 40
1.0
 50
179.999999
 51
269.999999
  0
LINE
  8
別途部材
  6
CONTINUOUS
 10
45.038985
 20
-7.50492
 11
45.038985
 21
-13.50492
  0
ARC
  8
別途部材
  6
CONTINUOUS
 10
46.038971
 20
-7.50493
 40
1.0
 50
89.999999
 51
179.999999
  0
LINE
  8
別途部材
  6
CONTINUOUS
 10
46.038983
 20
-14.504925
 11
94.538985
 21
-14.504925
  0
ARC
  8
別途部材
  6
CONTINUOUS
 10
94.538971
 20
-13.504931
 40
1.0
 50
269.999999
 51
359.999999
  0
LINE
  8
別途部材
  6
CONTINUOUS
 10
46.038983
 20
-6.504922
 11
94.538992
 21
-6.504922
  0
ARC
  8
別途部材
  6
CONTINUOUS
 10
94.538971
 20
-7.504931
 40
1.0
 50
-0.000001
 51
89.999999
  0
LINE
  8
別途部材
  6
CONTINUOUS
 10
95.538983
 20
-13.50492
 11
95.538983
 21
1.995075
  0
LINE
  8
別途部材
  6
CONTINUOUS
 10
76.038983
 20
-8.804925
 11
71.038988
 21
-8.804925
  0
LINE
  8
別途部材
  6
CONTINUOUS
 10
56.038988
 20
-8.804925
 11
51.038977
 21
-8.804925
  0
POLYLINE
  8
別途部材
  6
CONTINUOUS
 66
     1
  0
VERTEX
  8
別途部材
 10
77.538983
 20
-6.504922
  0
VERTEX
  8
別途部材
 10
76.038983
 20
-8.804925
  0
VERTEX
  8
別途部材
 10
76.038983
 20
-14.504925
  0
SEQEND
  0
LINE
  8
別途部材
  6
CONTINUOUS
 10
73.538977
 20
-6.504922
 11
73.538977
 21
-14.504925
  0
POLYLINE
  8
別途部材
  6
CONTINUOUS
 66
     1
  0
VERTEX
  8
別途部材
 10
69.538988
 20
-6.504915
  0
VERTEX
  8
別途部材
 10
71.038988
 20
-8.804925
  0
VERTEX
  8
別途部材
 10
71.038995
 20
-14.504925
  0
SEQEND
  0
POLYLINE
  8
別途部材
  6
CONTINUOUS
 66
     1
  0
VERTEX
  8
別途部材
 10
57.538988
 20
-6.504922
  0
VERTEX
  8
別途部材
 10
56.038988
 20
-8.804925
  0
VERTEX
  8
別途部材
 10
56.038995
 20
-14.504925
  0
SEQEND
  0
LINE
  8
別途部材
  6
CONTINUOUS
 10
53.538983
 20
-6.504922
 11
53.538983
 21
-14.504918
  0
POLYLINE
  8
別途部材
  6
CONTINUOUS
 66
     1
  0
VERTEX
  8
別途部材
 10
49.538985
 20
-6.504922
  0
VERTEX
  8
別途部材
 10
51.038977
 20
-8.804925
  0
VERTEX
  8
別途部材
 10
51.038977
 20
-14.504925
  0
SEQEND
  0
ENDBLK
  0
BLOCK
  2
*GRP_0105
 70
    65
 10
0.0
 20
0.0
  0
LINE
  8
別途部材
  6
CONTINUOUS
 10
73.039005
 20
-8.004937
 11
73.039005
 21
35.995058
  0
ARC
  8
別途部材
  6
CONTINUOUS
 10
79.038997
 20
-8.00495
 40
6.0
 50
179.999999
 51
269.999999
  0
LINE
  8
別途部材
  6
CONTINUOUS
 10
85.039005
 20
-8.004937
 11
85.039005
 21
35.995058
  0
ARC
  8
別途部材
  6
CONTINUOUS
 10
79.038997
 20
-8.00495
 40
6.0
 50
269.999999
 51
359.999999
  0
CIRCLE
  8
別途部材
  6
CONTINUOUS
 10
79.039005
 20
-8.004937
 40
3.0
  0
LINE
  8
別途部材
  6
CONTINUOUS
 10
76.039005
 20
-8.004937
 11
82.039005
 21
-8.00493
  0
LINE
  8
別途部材
  6
CONTINUOUS
 10
79.039012
 20
-11.004937
 11
79.039005
 21
-5.004937
  0
LINE
  8
別途部材
  6
CONTINUOUS
 10
73.039005
 20
35.995058
 11
75.039015
 21
35.995058
  0
LINE
  8
別途部材
  6
CONTINUOUS
 10
83.03901
 20
35.995065
 11
85.039005
 21
35.995058
  0
LINE
  8
別途部材
  6
CONTINUOUS
 10
75.039015
 20
35.995058
 11
75.039007
 21
-2.004937
  0
LINE
  8
別途部材
  6
CONTINUOUS
 10
75.039007
 20
-2.004937
 11
83.03901
 21
-2.004937
  0
LINE
  8
別途部材
  6
CONTINUOUS
 10
83.03901
 20
35.995065
 11
83.03901
 21
-2.004937
  0
ARC
  8
別途部材
  6
CONTINUOUS
 10
79.038998
 20
-0.546617
 40
2.541667
 50
269.999999
 51
269.999999
  0
ARC
  8
別途部材
  6
CONTINUOUS
 10
79.038998
 20
35.536718
 40
2.541667
 50
190.388959
 51
349.611039
  0
LINE
  8
別途部材
  6
CONTINUOUS
 10
82.539015
 20
35.995058
 11
81.53901
 21
35.995058
  0
LINE
  8
別途部材
  6
CONTINUOUS
 10
75.53901
 20
35.995058
 11
76.539015
 21
35.995058
  0
CIRCLE
  8
別途部材
  6
CONTINUOUS
 10
79.039005
 20
1.995053
 40
0.999997
  0
LINE
  8
別途部材
  6
CONTINUOUS
 10
80.039018
 20
1.995053
 11
78.039007
 21
1.995053
  0
LINE
  8
別途部材
  6
CONTINUOUS
 10
79.039012
 20
0.995047
 11
79.039005
 21
2.995058
  0
ARC
  8
別途部材
  6
CONTINUOUS
 10
79.038998
 20
0.453378
 40
2.541667
 50
10.388959
 51
169.611039
  0
LINE
  8
別途部材
  6
CONTINUOUS
 10
82.539007
 20
-0.004943
 11
81.53901
 21
-0.004935
  0
LINE
  8
別途部材
  6
CONTINUOUS
 10
76.539015
 20
-0.004943
 11
75.53901
 21
-0.004943
  0
LINE
  8
別途部材
  6
CONTINUOUS
 10
81.53901
 20
35.995058
 11
81.53901
 21
-0.004935
  0
LINE
  8
別途部材
  6
CONTINUOUS
 10
82.539015
 20
35.995058
 11
82.539007
 21
-0.004943
  0
LINE
  8
別途部材
  6
CONTINUOUS
 10
76.539015
 20
35.995058
 11
76.539015
 21
-0.004943
  0
LINE
  8
別途部材
  6
CONTINUOUS
 10
75.53901
 20
35.995058
 11
75.53901
 21
-0.004943
  0
ENDBLK
  0
BLOCK
  2
*GRP_0106
 70
    65
 10
0.0
 20
0.0
  0
LINE
  8
別途部材
  6
CONTINUOUS
 10
79.039005
 20
-14.004937
 11
79.039005
 21
-14.004937
  0
LINE
  8
別途部材
  6
CONTINUOUS
 10
60.538995
 20
-8.80494
 11
65.538998
 21
-8.80494
  0
LINE
  8
別途部材
  6
CONTINUOUS
 10
63.039007
 20
-6.50493
 11
63.039
 21
-14.50494
  0
POLYLINE
  8
別途部材
  6
CONTINUOUS
 66
     1
  0
VERTEX
  8
別途部材
 10
67.038998
 20
-6.504937
  0
VERTEX
  8
別途部材
 10
65.538998
 20
-8.80494
  0
VERTEX
  8
別途部材
 10
65.538998
 20
-14.50494
  0
SEQEND
  0
POLYLINE
  8
別途部材
  6
CONTINUOUS
 66
     1
  0
VERTEX
  8
別途部材
 10
59.038995
 20
-6.504937
  0
VERTEX
  8
別途部材
 10
60.538995
 20
-8.80494
  0
VERTEX
  8
別途部材
 10
60.538995
 20
-14.50494
  0
SEQEND
  0
LINE
  8
別途部材
  6
CONTINUOUS
 10
79.039005
 20
-14.50494
 11
79.039005
 21
-14.004937
  0
ARC
  8
別途部材
  6
CONTINUOUS
 10
54.038989
 20
-7.50495
 40
1.0
 50
89.999999
 51
179.999999
  0
LINE
  8
別途部材
  6
CONTINUOUS
 10
53.039003
 20
-7.504935
 11
53.039003
 21
-13.504935
  0
ARC
  8
別途部材
  6
CONTINUOUS
 10
54.038988
 20
-13.50495
 40
1.0
 50
179.999999
 51
269.999999
  0
ARC
  8
別途部材
  6
CONTINUOUS
 10
70.038989
 20
-7.504951
 40
1.0
 50
-0.000001
 51
89.999999
  0
LINE
  8
別途部材
  6
CONTINUOUS
 10
71.039003
 20
-13.504943
 11
71.039003
 21
-7.504943
  0
ARC
  8
別途部材
  6
CONTINUOUS
 10
70.038988
 20
-13.504951
 40
1.0
 50
269.999999
 51
359.999999
  0
LINE
  8
別途部材
  6
CONTINUOUS
 10
54.039
 20
-14.50494
 11
79.039005
 21
-14.50494
  0
LINE
  8
別途部材
  6
CONTINUOUS
 10
54.039007
 20
-6.504937
 11
73.039005
 21
-6.504937
  0
ENDBLK
  0
BLOCK
  2
*GRP_0107
 70
    65
 10
0.0
 20
0.0
  0
LINE
  8
別途部材
  6
CONTINUOUS
 10
89.039003
 20
-4.00494
 11
45.039
 21
-4.00494
  0
ARC
  8
別途部材
  6
CONTINUOUS
 10
89.03899
 20
1.99506
 40
6.0
 50
269.999999
 51
359.999999
  0
LINE
  8
別途部材
  6
CONTINUOUS
 10
89.039003
 20
7.99506
 11
45.039
 21
7.99506
  0
ARC
  8
別途部材
  6
CONTINUOUS
 10
89.03899
 20
1.99506
 40
6.0
 50
-0.000001
 51
89.999999
  0
CIRCLE
  8
別途部材
  6
CONTINUOUS
 10
89.039003
 20
1.99506
 40
3.0
  0
LINE
  8
別途部材
  6
CONTINUOUS
 10
89.039003
 20
-1.00494
 11
89.039003
 21
4.99506
  0
LINE
  8
別途部材
  6
CONTINUOUS
 10
92.039003
 20
1.99506
 11
86.039003
 21
1.99506
  0
LINE
  8
別途部材
  6
CONTINUOUS
 10
45.039
 20
-4.00494
 11
45.039
 21
-2.004922
  0
LINE
  8
別途部材
  6
CONTINUOUS
 10
45.039
 20
5.995065
 11
45.039
 21
7.99506
  0
LINE
  8
別途部材
  6
CONTINUOUS
 10
45.039
 20
-2.004922
 11
83.03901
 21
-2.00493
  0
LINE
  8
別途部材
  6
CONTINUOUS
 10
83.03901
 20
-2.00493
 11
83.03901
 21
5.995065
  0
LINE
  8
別途部材
  6
CONTINUOUS
 10
45.039
 20
5.995065
 11
83.03901
 21
5.995065
  0
ARC
  8
別途部材
  6
CONTINUOUS
 10
45.497323
 20
1.995061
 40
2.541667
 50
280.388959
 51
439.611039
  0
LINE
  8
別途部材
  6
CONTINUOUS
 10
45.039
 20
5.495077
 11
45.039007
 21
4.495065
  0
LINE
  8
別途部材
  6
CONTINUOUS
 10
45.039
 20
-1.504935
 11
45.039
 21
-0.504922
  0
CIRCLE
  8
別途部材
  6
CONTINUOUS
 10
79.039005
 20
1.99506
 40
0.999997
  0
LINE
  8
別途部材
  6
CONTINUOUS
 10
79.039005
 20
2.995065
 11
79.039012
 21
0.995062
  0
LINE
  8
別途部材
  6
CONTINUOUS
 10
80.039003
 20
1.99506
 11
78.039
 21
1.99506
  0
ARC
  8
別途部材
  6
CONTINUOUS
 10
80.580663
 20
1.995061
 40
2.541667
 50
100.388959
 51
259.611039
  0
LINE
  8
別途部材
  6
CONTINUOUS
 10
81.039
 20
5.49507
 11
81.039007
 21
4.495065
  0
LINE
  8
別途部材
  6
CONTINUOUS
 10
81.039
 20
-0.50493
 11
81.039
 21
-1.504935
  0
LINE
  8
別途部材
  6
CONTINUOUS
 10
45.039007
 20
4.495065
 11
81.039007
 21
4.495065
  0
LINE
  8
別途部材
  6
CONTINUOUS
 10
45.039
 20
5.495077
 11
81.039
 21
5.49507
  0
LINE
  8
別途部材
  6
CONTINUOUS
 10
45.039
 20
-0.504922
 11
81.039
 21
-0.50493
  0
LINE
  8
別途部材
  6
CONTINUOUS
 10
45.039
 20
-1.504935
 11
81.039
 21
-1.504935
  0
ENDBLK
  0
BLOCK
  2
*GRP_0108
 70
    65
 10
0.0
 20
0.0
  0
LINE
  8
別途部材
  6
CONTINUOUS
 10
95.039003
 20
1.99506
 11
95.039003
 21
1.99506
  0
LINE
  8
別途部材
  6
CONTINUOUS
 10
82.038998
 20
-4.00494
 11
82.038998
 21
-6.50493
  0
LINE
  8
別途部材
  6
CONTINUOUS
 10
95.538998
 20
1.99506
 11
95.039003
 21
1.995068
  0
LINE
  8
別途部材
  6
CONTINUOUS
 10
83.03901
 20
-14.50494
 11
83.039003
 21
-6.504937
  0
ARC
  8
別途部材
  6
CONTINUOUS
 10
46.038992
 20
-13.504945
 40
1.0
 50
179.999999
 51
269.999999
  0
LINE
  8
別途部材
  6
CONTINUOUS
 10
45.039
 20
-7.504935
 11
45.039
 21
-13.504935
  0
ARC
  8
別途部材
  6
CONTINUOUS
 10
46.038992
 20
-7.504945
 40
1.0
 50
89.999999
 51
179.999999
  0
LINE
  8
別途部材
  6
CONTINUOUS
 10
46.038998
 20
-14.50494
 11
94.539
 21
-14.50494
  0
ARC
  8
別途部材
  6
CONTINUOUS
 10
94.538992
 20
-13.504946
 40
1.0
 50
269.999999
 51
359.999999
  0
LINE
  8
別途部材
  6
CONTINUOUS
 10
46.038998
 20
-6.504937
 11
94.539007
 21
-6.504937
  0
ARC
  8
別途部材
  6
CONTINUOUS
 10
94.538992
 20
-7.504946
 40
1.0
 50
-0.000001
 51
89.999999
  0
LINE
  8
別途部材
  6
CONTINUOUS
 10
95.538998
 20
-13.504935
 11
95.538998
 21
1.99506
  0
LINE
  8
別途部材
  6
CONTINUOUS
 10
76.038998
 20
-8.80494
 11
71.039003
 21
-8.80494
  0
LINE
  8
別途部材
  6
CONTINUOUS
 10
56.039003
 20
-8.80494
 11
51.038992
 21
-8.80494
  0
POLYLINE
  8
別途部材
  6
CONTINUOUS
 66
     1
  0
VERTEX
  8
別途部材
 10
77.538998
 20
-6.504937
  0
VERTEX
  8
別途部材
 10
76.038998
 20
-8.80494
  0
VERTEX
  8
別途部材
 10
76.038998
 20
-14.50494
  0
SEQEND
  0
LINE
  8
別途部材
  6
CONTINUOUS
 10
73.538992
 20
-6.504937
 11
73.538992
 21
-14.50494
  0
POLYLINE
  8
別途部材
  6
CONTINUOUS
 66
     1
  0
VERTEX
  8
別途部材
 10
69.539003
 20
-6.50493
  0
VERTEX
  8
別途部材
 10
71.039003
 20
-8.80494
  0
VERTEX
  8
別途部材
 10
71.03901
 20
-14.50494
  0
SEQEND
  0
POLYLINE
  8
別途部材
  6
CONTINUOUS
 66
     1
  0
VERTEX
  8
別途部材
 10
57.539003
 20
-6.504937
  0
VERTEX
  8
別途部材
 10
56.039003
 20
-8.80494
  0
VERTEX
  8
別途部材
 10
56.03901
 20
-14.50494
  0
SEQEND
  0
LINE
  8
別途部材
  6
CONTINUOUS
 10
53.538998
 20
-6.504937
 11
53.538998
 21
-14.504932
  0
POLYLINE
  8
別途部材
  6
CONTINUOUS
 66
     1
  0
VERTEX
  8
別途部材
 10
49.539
 20
-6.504937
  0
VERTEX
  8
別途部材
 10
51.038992
 20
-8.80494
  0
VERTEX
  8
別途部材
 10
51.038992
 20
-14.50494
  0
SEQEND
  0
ENDBLK
  0
ENDSEC
  0
SECTION
  2
ENTITIES
  0
POLYLINE
  8
通り芯
  6
CONTINUOUS
 66
     1
 70
     1
  0
VERTEX
  8
通り芯
 10
-210.0
 20
-148.5
  0
VERTEX
  8
通り芯
 10
210.0
 20
-148.5
  0
VERTEX
  8
通り芯
 10
210.0
 20
148.5
  0
VERTEX
  8
通り芯
 10
-210.0
 20
148.5
  0
SEQEND
  0
INSERT
  2
*GRP_0002
  8
通り芯
  6
CONTINUOUS
 10
0.0
 20
0.0
  0
LINE
  8
通り芯
  6
CONTINUOUS
 10
-62.815693
 20
-36.78075
 11
-61.036795
 21
-35.322833
  0
LINE
  8
通り芯
  6
CONTINUOUS
 10
-32.344032
 20
-73.96115
 11
-30.56512
 21
-72.50322
  0
LINE
  8
通り芯
  6
CONTINUOUS
 10
-32.344032
 20
-73.96115
 11
-62.815693
 21
-36.78075
  0
LINE
  8
通り芯
  6
CONTINUOUS
 10
-30.56512
 20
-72.50322
 11
-61.036795
 21
-35.322833
  0
LINE
  8
通り芯
  6
CONTINUOUS
 10
-28.66247
 20
-75.904943
 11
-28.66247
 21
-73.904943
  0
LINE
  8
通り芯
  6
CONTINUOUS
 10
-7.16247
 20
-73.904943
 11
-28.66247
 21
-73.904943
  0
LINE
  8
通り芯
  6
CONTINUOUS
 10
-7.16247
 20
-75.904943
 11
-28.66247
 21
-75.904943
  0
LINE
  8
通り芯
  6
CONTINUOUS
 10
-7.16247
 20
-73.904943
 11
-7.16247
 21
-75.904943
  0
INSERT
  2
*GRP_0003
  8
通り芯
  6
CONTINUOUS
 10
0.0
 20
0.0
  0
INSERT
  2
*GRP_0004
  8
通り芯
  6
CONTINUOUS
 10
0.0
 20
0.0
  0
INSERT
  2
*GRP_0005
  8
通り芯
  6
CONTINUOUS
 10
0.0
 20
0.0
  0
LINE
  8
通り芯
  6
CONTINUOUS
 10
-51.263772
 20
-47.247505
 11
-51.58475
 21
-50.484332
  0
LINE
  8
通り芯
  6
CONTINUOUS
 10
-50.815555
 20
-47.794402
 11
-51.136532
 21
-51.031232
  0
LINE
  8
通り芯
  6
CONTINUOUS
 10
-34.740867
 20
-67.40813
 11
-35.061848
 21
-70.644973
  0
LINE
  8
通り芯
  6
CONTINUOUS
 10
-34.29265
 20
-67.955027
 11
-34.61363
 21
-71.191873
  0
LINE
  8
通り芯
  6
CONTINUOUS
 10
-11.594498
 20
-73.904943
 11
-9.594495
 21
-75.904943
  0
LINE
  8
通り芯
  6
CONTINUOUS
 10
-10.887392
 20
-73.904943
 11
-8.88739
 21
-75.904943
  0
LINE
  8
通り芯
  6
CONTINUOUS
 10
-26.752172
 20
-73.904943
 11
-24.75217
 21
-75.904943
  0
LINE
  8
通り芯
  6
CONTINUOUS
 10
-26.045068
 20
-73.904943
 11
-24.045065
 21
-75.904943
  0
INSERT
  2
*GRP_0006
  8
通り芯
  6
CONTINUOUS
 10
0.0
 20
0.0
  0
INSERT
  2
*GRP_0007
  8
通り芯
  6
CONTINUOUS
 10
0.0
 20
0.0
  0
LINE
  8
通り芯
  6
CONTINUOUS
 62
   127
 10
23.339003
 20
-16.004925
 11
80.838998
 21
-16.004925
  0
INSERT
  2
*GRP_0008
  8
通り芯
  6
CONTINUOUS
 10
0.0
 20
0.0
  0
INSERT
  2
*GRP_0001
  8
型材断面
  6
CONTINUOUS
 10
0.0
 20
0.0
  0
POLYLINE
  8
型材断面
  6
CONTINUOUS
 66
     1
  0
VERTEX
  8
型材断面
 10
-143.419073
 20
95.004585
  0
VERTEX
  8
型材断面
 10
-145.20823
 20
88.441532
  0
VERTEX
  8
型材断面
 10
-143.419073
 20
88.441532
  0
SEQEND
  0
POLYLINE
  8
型材断面
  6
CONTINUOUS
 66
     1
  0
VERTEX
  8
型材断面
 10
-143.419073
 20
92.335338
  0
VERTEX
  8
型材断面
 10
-145.20823
 20
85.772285
  0
VERTEX
  8
型材断面
 10
-143.419073
 20
85.772285
  0
SEQEND
  0
INSERT
  2
*GRP_0009
  8
型材断面
  6
CONTINUOUS
 62
    47
 10
0.0
 20
0.0
  0
LINE
  8
型材断面
  6
DOT
 10
50.538983
 20
-16.004925
 11
50.538983
 21
-14.504925
  0
LINE
  8
型材断面
  6
DOT
 10
56.538983
 20
-16.004918
 11
56.538983
 21
-14.504918
  0
LINE
  8
型材断面
  6
DOT
 10
56.538983
 20
-14.879925
 11
50.538983
 21
-14.879918
  0
LINE
  8
型材断面
  6
DOT
 10
56.538983
 20
-15.254918
 11
50.538983
 21
-15.254925
  0
LINE
  8
型材断面
  6
DOT
 10
56.538983
 20
-15.629925
 11
50.538983
 21
-15.629918
  0
LINE
  8
型材断面
  6
DOT
 10
60.038985
 20
-16.004925
 11
60.038985
 21
-14.504925
  0
LINE
  8
型材断面
  6
DOT
 10
66.038985
 20
-16.004918
 11
66.038985
 21
-14.504918
  0
LINE
  8
型材断面
  6
DOT
 10
66.038985
 20
-14.879925
 11
60.038985
 21
-14.879918
  0
LINE
  8
型材断面
  6
DOT
 10
66.038985
 20
-15.254918
 11
60.038985
 21
-15.254925
  0
LINE
  8
型材断面
  6
DOT
 10
66.038985
 20
-15.629925
 11
60.038985
 21
-15.629918
  0
LINE
  8
型材断面
  6
DOT
 10
70.538985
 20
-16.004918
 11
70.538977
 21
-14.504925
  0
LINE
  8
型材断面
  6
DOT
 10
76.538977
 20
-16.004925
 11
76.538977
 21
-14.504925
  0
LINE
  8
型材断面
  6
DOT
 10
76.538977
 20
-14.879918
 11
70.538977
 21
-14.879925
  0
LINE
  8
型材断面
  6
DOT
 10
76.538977
 20
-15.254925
 11
70.538977
 21
-15.254925
  0
LINE
  8
型材断面
  6
DOT
 10
76.538977
 20
-15.629918
 11
70.538977
 21
-15.629925
  0
INSERT
  2
*GRP_0010
  8
型材断面
  6
CONTINUOUS
 10
0.0
 20
0.0
  0
INSERT
  2
*GRP_0011
  8
型材断面
  6
DOT
 10
0.0
 20
0.0
  0
INSERT
  2
*GRP_0012
  8
型材断面
  6
CONTINUOUS
 10
0.0
 20
0.0
  0
LINE
  8
型材断面
  6
DOT
 10
89.339003
 20
-16.00494
 11
89.339003
 21
-14.50494
  0
LINE
  8
型材断面
  6
DOT
 10
97.33899
 20
-16.00494
 11
97.338998
 21
-14.50494
  0
LINE
  8
型材断面
  6
DOT
 10
97.338998
 20
-14.879932
 11
89.339003
 21
-14.87994
  0
LINE
  8
型材断面
  6
DOT
 10
97.338998
 20
-15.25494
 11
89.339003
 21
-15.25494
  0
LINE
  8
型材断面
  6
DOT
 10
97.338998
 20
-15.629932
 11
89.339003
 21
-15.62994
  0
LINE
  8
型材断面
  6
DOT
 10
50.538998
 20
-16.00494
 11
50.538998
 21
-14.50494
  0
LINE
  8
型材断面
  6
DOT
 10
56.538998
 20
-16.004932
 11
56.538998
 21
-14.504932
  0
LINE
  8
型材断面
  6
DOT
 10
56.538998
 20
-14.87994
 11
50.538998
 21
-14.879932
  0
LINE
  8
型材断面
  6
DOT
 10
56.538998
 20
-15.254932
 11
50.538998
 21
-15.25494
  0
LINE
  8
型材断面
  6
DOT
 10
56.538998
 20
-15.62994
 11
50.538998
 21
-15.629932
  0
LINE
  8
型材断面
  6
DOT
 10
60.039
 20
-16.00494
 11
60.039
 21
-14.50494
  0
LINE
  8
型材断面
  6
DOT
 10
66.039
 20
-16.004932
 11
66.039
 21
-14.504932
  0
LINE
  8
型材断面
  6
DOT
 10
66.039
 20
-14.87994
 11
60.039
 21
-14.879932
  0
LINE
  8
型材断面
  6
DOT
 10
66.039
 20
-15.254932
 11
60.039
 21
-15.25494
  0
LINE
  8
型材断面
  6
DOT
 10
66.039
 20
-15.62994
 11
60.039
 21
-15.629932
  0
LINE
  8
型材断面
  6
DOT
 10
70.539
 20
-16.004932
 11
70.538992
 21
-14.50494
  0
LINE
  8
型材断面
  6
DOT
 10
76.538992
 20
-16.00494
 11
76.538992
 21
-14.50494
  0
LINE
  8
型材断面
  6
DOT
 10
76.538992
 20
-14.879932
 11
70.538992
 21
-14.87994
  0
LINE
  8
型材断面
  6
DOT
 10
76.538992
 20
-15.25494
 11
70.538992
 21
-15.25494
  0
LINE
  8
型材断面
  6
DOT
 10
76.538992
 20
-15.629932
 11
70.538992
 21
-15.62994
  0
LINE
  8
型材断面
  6
DOT
 10
97.338998
 20
-54.504937
 11
97.338998
 21
-52.504935
  0
LINE
  8
型材断面
  6
DOT
 10
89.338995
 20
-54.504937
 11
89.338995
 21
-52.504935
  0
LINE
  8
型材断面
  6
DOT
 10
97.338998
 20
-54.10494
 11
89.338995
 21
-54.10494
  0
LINE
  8
型材断面
  6
DOT
 10
97.338998
 20
-53.704935
 11
89.338995
 21
-53.704935
  0
LINE
  8
型材断面
  6
DOT
 10
97.338998
 20
-53.304937
 11
89.338995
 21
-53.304937
  0
LINE
  8
型材断面
  6
DOT
 10
97.338998
 20
-52.904932
 11
89.338995
 21
-52.904932
  0
LINE
  8
ガラス
  6
CONTINUOUS
 10
-84.16101
 20
5.495032
 11
-101.961015
 21
5.495032
  0
LINE
  8
ガラス
  6
CONTINUOUS
 10
-96.961013
 20
11.495032
 11
-90.961013
 21
11.495032
  0
LINE
  8
ガラス
  6
CONTINUOUS
 10
-90.961013
 20
11.495032
 11
-96.961013
 21
5.495032
  0
LINE
  8
ガラス
  6
CONTINUOUS
 10
-96.961013
 20
11.495032
 11
-90.961013
 21
5.495032
  0
LINE
  8
ガラス
  6
CONTINUOUS
 10
-101.461015
 20
72.490098
 11
-101.461015
 21
5.495032
  0
LINE
  8
ガラス
  6
CONTINUOUS
 10
-101.961015
 20
72.490098
 11
-101.961015
 21
5.495032
  0
LINE
  8
ガラス
  6
CONTINUOUS
 10
-96.961015
 20
72.490098
 11
-96.961015
 21
5.495032
  0
LINE
  8
ガラス
  6
CONTINUOUS
 10
-97.461015
 20
72.490098
 11
-97.461015
 21
5.495032
  0
LINE
  8
ガラス
  6
CONTINUOUS
 10
-90.961015
 20
72.490098
 11
-90.961015
 21
5.495032
  0
LINE
  8
ガラス
  6
CONTINUOUS
 10
-90.461015
 20
72.490098
 11
-90.461015
 21
5.495032
  0
LINE
  8
ガラス
  6
CONTINUOUS
 10
-84.661015
 20
72.490098
 11
-84.661015
 21
5.495032
  0
LINE
  8
ガラス
  6
CONTINUOUS
 10
-84.161015
 20
72.490098
 11
-84.161015
 21
5.495032
  0
INSERT
  2
*GRP_0013
  8
ガラス
  6
CONTINUOUS
 10
0.0
 20
0.0
  0
INSERT
  2
*GRP_0014
  8
ガラス
  6
CONTINUOUS
 10
0.0
 20
0.0
  0
INSERT
  2
*GRP_0015
  8
ガラス
  6
CONTINUOUS
 10
0.0
 20
0.0
  0
INSERT
  2
*GRP_0016
  8
ガラス
  6
CONTINUOUS
 10
0.0
 20
0.0
  0
INSERT
  2
*GRP_0017
  8
ガラス
  6
CONTINUOUS
 10
0.0
 20
0.0
  0
INSERT
  2
*GRP_0018
  8
ガラス
  6
CONTINUOUS
 10
0.0
 20
0.0
  0
INSERT
  2
*GRP_0019
  8
ガラス
  6
CONTINUOUS
 10
0.0
 20
0.0
  0
INSERT
  2
*GRP_0020
  8
ガラス
  6
CONTINUOUS
 10
0.0
 20
0.0
  0
INSERT
  2
*GRP_0021
  8
ガラス
  6
CONTINUOUS
 10
0.0
 20
0.0
  0
INSERT
  2
*GRP_0022
  8
ゴム等
  6
CONTINUOUS
 10
0.0
 20
0.0
  0
INSERT
  2
*GRP_0023
  8
ゴム等
  6
CONTINUOUS
 10
0.0
 20
0.0
  0
INSERT
  2
*GRP_0024
  8
ゴム等
  6
CONTINUOUS
 10
0.0
 20
0.0
  0
INSERT
  2
*GRP_0025
  8
ゴム等
  6
CONTINUOUS
 10
0.0
 20
0.0
  0
INSERT
  2
*GRP_0026
  8
ゴム等
  6
DOT
 10
0.0
 20
0.0
  0
INSERT
  2
*GRP_0027
  8
ゴム等
  6
DOT
 10
0.0
 20
0.0
  0
INSERT
  2
*GRP_0028
  8
ゴム等
  6
CONTINUOUS
 10
0.0
 20
0.0
  0
INSERT
  2
*GRP_0029
  8
ゴム等
  6
CONTINUOUS
 10
0.0
 20
0.0
  0
INSERT
  2
*GRP_0030
  8
ボルト／ビス
  6
CONTINUOUS
 10
0.0
 20
0.0
  0
INSERT
  2
*GRP_0031
  8
ボルト／ビス
  6
CONTINUOUS
 10
0.0
 20
0.0
  0
INSERT
  2
*GRP_0032
  8
ボルト／ビス
  6
CONTINUOUS
 10
0.0
 20
0.0
  0
INSERT
  2
*GRP_0033
  8
ボルト／ビス
  6
CONTINUOUS
 10
0.0
 20
0.0
  0
INSERT
  2
*GRP_0034
  8
ボルト／ビス
  6
CONTINUOUS
 62
    64
 10
0.0
 20
0.0
  0
INSERT
  2
*GRP_0035
  8
ボルト／ビス
  6
CONTINUOUS
 62
    64
 10
0.0
 20
0.0
  0
INSERT
  2
*GRP_0036
  8
ボルト／ビス
  6
CONTINUOUS
 10
0.0
 20
0.0
  0
INSERT
  2
*GRP_0037
  8
ボルト／ビス
  6
CONTINUOUS
 10
0.0
 20
0.0
  0
TEXT
  7
TextStyle03
  8
文字
  6
CONTINUOUS
 10
58.5
 20
105.25
  1
ＮＳコード：ＮＳＦ
 40
5.0
 72
     5
 11
108.5
 21
105.25
  0
TEXT
  7
TextStyle03
  8
文字
  6
CONTINUOUS
 10
-107.95
 20
107.425
  1
※フラットタイプ取り付けは
 40
4.0
 72
     5
 11
-49.95
 21
107.425
  0
TEXT
  7
TextStyle03
  8
文字
  6
CONTINUOUS
 10
-107.95
 20
102.925
  1
　勾配取り付け。
 40
4.0
 72
     5
 11
-72.45
 21
102.925
  0
TEXT
  7
TextStyle03
  8
文字
  6
CONTINUOUS
 10
-143.4
 20
25.75
  1
ドーム呼称寸法
 40
4.0
 50
90.0
 72
     5
 11
-143.4
 21
56.75
  0
TEXT
  7
TextStyle03
  8
文字
  6
CONTINUOUS
 10
-57.225
 20
-66.5
  1
TKR-1401
 40
4.0
 50
90.0
 72
     5
 11
-57.225
 21
-48.75
  0
TEXT
  7
TextStyle03
  8
文字
  6
CONTINUOUS
 10
-35.325
 20
17.925
  1
滑車
 40
4.0
 50
90.0
 72
     5
 11
-35.325
 21
26.425
  0
TEXT
  7
TextStyle03
  8
文字
  6
CONTINUOUS
 10
-57.2
 20
-66.55
  1
TKR-1401
 40
4.0
 50
90.0
 72
     5
 11
-57.2
 21
-48.8
  0
TEXT
  7
TextStyle03
  8
文字
  6
CONTINUOUS
 10
-1.925
 20
-113.0
  1
TKR-1401
 40
4.0
 50
90.0
 72
     5
 11
-1.925
 21
-95.25
  0
TEXT
  7
TextStyle03
  8
文字
  6
CONTINUOUS
 10
-49.625
 20
-83.675
  1
TK-1112S
 40
4.0
 50
90.0
 72
     5
 11
-49.625
 21
-65.925
  0
TEXT
  7
TextStyle03
  8
文字
  6
CONTINUOUS
 10
-52.55
 20
16.025
  1
TK-1132S
 40
4.0
 50
90.0
 72
     5
 11
-52.55
 21
33.775
  0
TEXT
  7
TextStyle03
  8
文字
  6
CONTINUOUS
 10
59.075
 20
124.575
  1
シリーズ：ＴＦＦ
 40
5.0
 72
     5
 11
103.45
 21
124.575
  0
TEXT
  7
TextStyle03
  8
文字
  6
CONTINUOUS
 10
59.075
 20
118.95
  1
　　　　　（上下可動）
 40
5.0
 72
     5
 11
120.325
 21
118.95
  0
TEXT
  7
TextStyle03
  8
文字
  6
CONTINUOUS
 10
59.075
 20
113.325
  1
図面名　：下枠断面詳細図Ｂ
 40
5.0
 72
     5
 11
131.575
 21
113.325
  0
TEXT
  7
TextStyle03
  8
文字
  6
CONTINUOUS
 10
92.025
 20
-129.4
  1
M4リベット
 40
4.0
 50
90.0
 72
     5
 11
92.025
 21
-107.4
  0
TEXT
  7
TextStyle03
  8
文字
  6
CONTINUOUS
 10
96.525
 20
-129.4
  1
(コーナー)
 40
4.0
 50
90.0
 72
     5
 11
96.525
 21
-107.15
  0
TEXT
  7
TextStyle03
  8
文字
  6
CONTINUOUS
 10
121.9
 20
24.95
  1
アンカー　St-3.2t
 40
4.0
 50
90.0
 72
     5
 11
121.9
 21
62.95
  0
TEXT
  7
TextStyle03
  8
文字
  6
CONTINUOUS
 10
26.7
 20
-71.875
  1
TKR-1301
 40
4.0
 50
90.0
 72
     5
 11
26.7
 21
-54.125
  0
TEXT
  7
TextStyle03
  8
文字
  6
CONTINUOUS
 10
11.9
 20
-34.5
  1
TKR-1201
 40
4.0
 50
90.0
 72
     5
 11
11.9
 21
-16.75
  0
INSERT
  2
*GRP_0038
  8
文字
  6
DOT
 10
0.0
 20
0.0
  0
INSERT
  2
*GRP_0039
  8
文字
  6
DOT
 10
0.0
 20
0.0
  0
INSERT
  2
*GRP_0040
  8
文字
  6
DOT
 10
0.0
 20
0.0
  0
INSERT
  2
*DIM_0041
  8
寸法
  6
CONTINUOUS
 10
0.0
 20
0.0
  0
INSERT
  2
*GRP_0042
  8
寸法
  6
CONTINUOUS
 10
0.0
 20
0.0
  0
INSERT
  2
*GRP_0043
  8
寸法
  6
CONTINUOUS
 10
0.0
 20
0.0
  0
INSERT
  2
*DIM_0044
  8
寸法
  6
CONTINUOUS
 10
0.0
 20
0.0
  0
INSERT
  2
*DIM_0045
  8
寸法
  6
CONTINUOUS
 10
0.0
 20
0.0
  0
INSERT
  2
*DIM_0046
  8
寸法
  6
CONTINUOUS
 10
0.0
 20
0.0
  0
INSERT
  2
*DIM_0047
  8
寸法
  6
CONTINUOUS
 10
0.0
 20
0.0
  0
INSERT
  2
*DIM_0048
  8
寸法
  6
CONTINUOUS
 10
0.0
 20
0.0
  0
INSERT
  2
*GRP_0049
  8
寸法
  6
CONTINUOUS
 10
0.0
 20
0.0
  0
INSERT
  2
*GRP_0050
  8
寸法
  6
CONTINUOUS
 10
0.0
 20
0.0
  0
INSERT
  2
*DIM_0051
  8
寸法
  6
CONTINUOUS
 10
0.0
 20
0.0
  0
INSERT
  2
*DIM_0052
  8
寸法
  6
CONTINUOUS
 10
0.0
 20
0.0
  0
INSERT
  2
*DIM_0053
  8
寸法
  6
CONTINUOUS
 10
0.0
 20
0.0
  0
INSERT
  2
*DIM_0054
  8
寸法
  6
CONTINUOUS
 10
0.0
 20
0.0
  0
INSERT
  2
*DIM_0055
  8
寸法
  6
CONTINUOUS
 10
0.0
 20
0.0
  0
INSERT
  2
*DIM_0056
  8
寸法
  6
CONTINUOUS
 10
0.0
 20
0.0
  0
INSERT
  2
*DIM_0057
  8
寸法
  6
CONTINUOUS
 10
0.0
 20
0.0
  0
INSERT
  2
*DIM_0058
  8
寸法
  6
CONTINUOUS
 10
0.0
 20
0.0
  0
INSERT
  2
*DIM_0059
  8
寸法
  6
CONTINUOUS
 10
0.0
 20
0.0
  0
INSERT
  2
*DIM_0060
  8
寸法
  6
CONTINUOUS
 10
0.0
 20
0.0
  0
INSERT
  2
*DIM_0061
  8
寸法
  6
CONTINUOUS
 10
0.0
 20
0.0
  0
INSERT
  2
*DIM_0062
  8
寸法
  6
CONTINUOUS
 10
0.0
 20
0.0
  0
INSERT
  2
*DIM_0063
  8
寸法
  6
CONTINUOUS
 10
0.0
 20
0.0
  0
INSERT
  2
*GRP_0064
  8
寸法
  6
CONTINUOUS
 10
0.0
 20
0.0
  0
INSERT
  2
*GRP_0065
  8
寸法
  6
CONTINUOUS
 10
0.0
 20
0.0
  0
INSERT
  2
*GRP_0066
  8
寸法
  6
CONTINUOUS
 10
0.0
 20
0.0
  0
INSERT
  2
*GRP_0067
  8
寸法
  6
CONTINUOUS
 10
0.0
 20
0.0
  0
INSERT
  2
*DIM_0068
  8
寸法
  6
CONTINUOUS
 10
0.0
 20
0.0
  0
INSERT
  2
*DIM_0069
  8
寸法
  6
CONTINUOUS
 10
0.0
 20
0.0
  0
INSERT
  2
*DIM_0070
  8
寸法
  6
CONTINUOUS
 10
0.0
 20
0.0
  0
INSERT
  2
*DIM_0071
  8
寸法
  6
CONTINUOUS
 10
0.0
 20
0.0
  0
INSERT
  2
*DIM_0072
  8
寸法
  6
CONTINUOUS
 10
0.0
 20
0.0
  0
INSERT
  2
*HAT_0007
  8
ﾊｯﾁﾝｸﾞ
 10
0.0
 20
0.0
  0
INSERT
  2
*GRP_0073
  8
別途部材
  6
CONTINUOUS
 10
0.0
 20
0.0
  0
INSERT
  2
*GRP_0074
  8
別途部材
  6
DOT
 10
0.0
 20
0.0
  0
INSERT
  2
*GRP_0075
  8
曲げ物
  6
CONTINUOUS
 10
0.0
 20
0.0
  0
INSERT
  2
*GRP_0076
  8
鉄骨等
  6
CONTINUOUS
 10
0.0
 20
0.0
  0
INSERT
  2
*GRP_0077
  8
St
  6
CONTINUOUS
 10
0.0
 20
0.0
  0
INSERT
  2
*GRP_0078
  8
St
  6
CONTINUOUS
 10
0.0
 20
0.0
  0
INSERT
  2
*GRP_0079
  8
St
  6
CONTINUOUS
 10
0.0
 20
0.0
  0
INSERT
  2
*GRP_0080
  8
St
  6
CONTINUOUS
 10
0.0
 20
0.0
  0
LINE
  8
その他部品等
  6
CONTINUOUS
 62
    47
 10
-143.419073
 20
5.495097
 11
-143.419073
 21
95.004585
  0
LINE
  8
その他部品等
  6
CONTINUOUS
 10
-112.76103
 20
25.495012
 11
-101.961015
 21
25.495012
  0
LINE
  8
その他部品等
  6
CONTINUOUS
 10
-112.76103
 20
17.49501
 11
-101.961015
 21
17.49501
  0
LINE
  8
その他部品等
  6
CONTINUOUS
 10
-101.961015
 20
12.0447
 11
-113.96103
 21
12.0447
  0
LINE
  8
その他部品等
  6
CONTINUOUS
 10
-113.96103
 20
12.0447
 11
-101.961015
 21
17.49501
  0
ENDSEC
  0
EOF
