  0
SECTION
  2
HEADER
  9
$EXTMIN
 10
-210.0
 20
-148.5
  9
$EXTMAX
 10
210.0
 20
148.5
  9
$PDMODE
 70
    32
  9
$PDSIZE
 40
1.5
  9
$LTSCALE
 40
10.0
  0
ENDSEC
  0
SECTION
  2
TABLES
  0
TABLE
  2
LTYPE
 70
    15
  0
LTYPE
  2
CONTINUOUS
 70
    64
  3
実線
 72
    65
 73
     0
 40
0.0
  0
LTYPE
  2
DASHED
 70
    64
  3
破線A
 72
    65
 73
     2
 40
0.6
 49
0.4
 49
-0.2
  0
LTYPE
  2
DASHEDX2
 70
    64
  3
破線B
 72
    65
 73
     2
 40
1.3
 49
0.9
 49
-0.4
  0
LTYPE
  2
DASHDOT
 70
    64
  3
１点鎖線A
 72
    65
 73
     4
 40
0.5375
 49
0.375
 49
-0.05
 49
0.0625
 49
-0.05
  0
LTYPE
  2
DASHDOTX2
 70
    64
  3
１点鎖線B
 72
    65
 73
     4
 40
1.075
 49
0.75
 49
-0.1
 49
0.125
 49
-0.1
  0
LTYPE
  2
DIVIDE2
 70
    64
  3
２点鎖線A
 72
    65
 73
     6
 40
0.5125
 49
0.3
 49
-0.0375
 49
0.05
 49
-0.0375
 49
0.05
 49
-0.0375
  0
LTYPE
  2
DIVIDE
 70
    64
  3
２点鎖線B
 72
    65
 73
     6
 40
1.05
 49
0.55
 49
-0.1
 49
0.1
 49
-0.1
 49
0.1
 49
-0.1
  0
LTYPE
  2
DOT
 70
    64
  3
点線A
 72
    65
 73
     2
 40
0.1125
 49
0.0625
 49
-0.05
  0
LTYPE
  2
DOTX2
 70
    64
  3
点線B
 72
    65
 73
     2
 40
0.275
 49
0.15
 49
-0.125
  0
LTYPE
  2
CONTINUOUS
 70
    64
  3
実線
 72
    65
 73
     0
 40
0.0
  0
LTYPE
  2
CONTINUOUS
 70
    64
  3
実線
 72
    65
 73
     0
 40
0.0
  0
LTYPE
  2
CONTINUOUS
 70
    64
  3
実線
 72
    65
 73
     0
 40
0.0
  0
LTYPE
  2
CONTINUOUS
 70
    64
  3
実線
 72
    65
 73
     0
 40
0.0
  0
LTYPE
  2
CONTINUOUS
 70
    64
  3
実線
 72
    65
 73
     0
 40
0.0
  0
LTYPE
  2
CONTINUOUS
 70
    64
  3
実線
 72
    65
 73
     0
 40
0.0
  0
ENDTAB
  0
TABLE
  2
LAYER
 70
    34
  0
LAYER
  2
通り芯
 70
     0
 62
    15
  6
CONTINUOUS
  0
LAYER
  2
補助線
 70
     0
 62
    16
  6
DOT
  0
LAYER
  2
躯体
 70
     0
 62
    31
  6
CONTINUOUS
  0
LAYER
  2
型材
 70
     0
 62
    32
  6
CONTINUOUS
  0
LAYER
  2
型材断面
 70
     0
 62
    47
  6
CONTINUOUS
  0
LAYER
  2
ガラス
 70
     0
 62
    48
  6
CONTINUOUS
  0
LAYER
  2
ゴム等
 70
     0
 62
    63
  6
CONTINUOUS
  0
LAYER
  2
ボルト／ビス
 70
     0
 62
    64
  6
CONTINUOUS
  0
LAYER
  2
文字
 70
     0
 62
    79
  6
CONTINUOUS
  0
LAYER
  2
寸法
 70
     0
 62
    80
  6
CONTINUOUS
  0
LAYER
  2
ﾊｯﾁﾝｸﾞ
 70
     0
 62
    95
  6
CONTINUOUS
  0
LAYER
  2
別途部材
 70
     0
 62
    96
  6
CONTINUOUS
  0
LAYER
  2
曲げ物
 70
     0
 62
   111
  6
CONTINUOUS
  0
LAYER
  2
鉄骨等
 70
     0
 62
   112
  6
CONTINUOUS
  0
LAYER
  2
St
 70
     0
 62
   127
  6
CONTINUOUS
  0
LAYER
  2
その他部品等
 70
     0
 62
   128
  6
CONTINUOUS
  0
LAYER
  2
ｶﾞｽｹｯﾄ
 70
     0
 62
   143
  6
CONTINUOUS
  0
LAYER
  2
ｽｹｯﾁ
 70
     0
 62
    14
  6
CONTINUOUS
  0
LAYER
  2
0
 70
     0
 62
    17
  6
CONTINUOUS
  0
LAYER
  2
1
 70
     0
 62
    30
  6
CONTINUOUS
  0
LAYER
  2
4
 70
     0
 62
    33
  6
CONTINUOUS
  0
LAYER
  2
ﾚｲﾔ3
 70
     0
 62
    46
  6
CONTINUOUS
  0
LAYER
  2
外形線
 70
     0
 62
    49
  6
CONTINUOUS
  0
LAYER
  2
部品
 70
     0
 62
    14
  6
CONTINUOUS
  0
LAYER
  2
サッシ芯
 70
     0
 62
    17
  6
DASHDOTX2
  0
LAYER
  2
寸法線
 70
     0
 62
    62
  6
CONTINUOUS
  0
LAYER
  2
姿図外形線
 70
     0
 62
    65
  6
CONTINUOUS
  0
LAYER
  2
姿補助線
 70
     0
 62
    30
  6
CONTINUOUS
  0
LAYER
  2
透視線
 70
     0
 62
    78
  6
DOT
  0
LAYER
  2
用紙
 70
     0
 62
    81
  6
CONTINUOUS
  0
LAYER
  2
実線図枠
 70
     0
 62
    94
  6
CONTINUOUS
  0
LAYER
  2
補助図枠
 70
     0
 62
    97
  6
CONTINUOUS
  0
LAYER
  2
建具記号
 70
     0
 62
   110
  6
CONTINUOUS
  0
LAYER
  2
補助文字
 70
     0
 62
   113
  6
CONTINUOUS
  0
ENDTAB
  0
TABLE
  2
STYLE
 70
    10
  0
STYLE
  2
STANDARD
 70
     0
 40
1.0
 41
1.0
 42
1.0
 50
0.0
 71
     0
  3
TXT
  4
BIGFONT
  0
STYLE
  2
TATE
 70
     4
 40
1.0
 41
1.0
 42
1.0
 50
0.0
 71
     0
  3
TXT
  4
BIGFONT
  0
STYLE
  2
TextStyle03
 70
     0
 40
1.0
 41
1.0
 42
1.0
 50
0.0
 71
     0
  3
MONOTXT
  4
BIGFONT
  0
STYLE
  2
TextStyle04
 70
     0
 40
1.0
 41
1.0
 42
1.0
 50
0.0
 71
     0
  3
MONOTXT
  4
BIGFONT
  0
STYLE
  2
TextStyle05
 70
     0
 40
1.0
 41
1.0
 42
1.0
 50
0.0
 71
     0
  3
MONOTXT
  4
BIGFONT
  0
STYLE
  2
TextStyle06
 70
     0
 40
1.0
 41
1.0
 42
1.0
 50
0.0
 71
     0
  3
MONOTXT
  4
BIGFONT
  0
STYLE
  2
TextStyle07
 70
     0
 40
1.0
 41
1.0
 42
1.0
 50
0.0
 71
     0
  3
MONOTXT
  4
BIGFONT
  0
STYLE
  2
TextStyle08
 70
     0
 40
1.0
 41
1.0
 42
1.0
 50
0.0
 71
     0
  3
MONOTXT
  4
BIGFONT
  0
STYLE
  2
TextStyle09
 70
     0
 40
1.0
 41
1.0
 42
1.0
 50
0.0
 71
     0
  3
MONOTXT
  4
BIGFONT
  0
STYLE
  2
TextStyle10
 70
     0
 40
1.0
 41
1.0
 42
1.0
 50
0.0
 71
     0
  3
MONOTXT
  4
BIGFONT
  0
ENDTAB
  0
ENDSEC
  0
SECTION
  2
BLOCKS
  0
BLOCK
  2
*GRP_0001
 70
    65
 10
0.0
 20
0.0
  0
LINE
  8
型材断面
  6
CONTINUOUS
 10
195.0
 20
133.5
 11
195.0
 21
-133.5
  0
LINE
  8
型材断面
  6
CONTINUOUS
 10
195.0
 20
-133.5
 11
-185.0
 21
-133.5
  0
LINE
  8
型材断面
  6
CONTINUOUS
 10
-185.0
 20
-133.5
 11
-185.0
 21
133.5
  0
LINE
  8
型材断面
  6
CONTINUOUS
 10
195.0
 20
133.5
 11
-185.0
 21
133.5
  0
LINE
  8
型材断面
  6
CONTINUOUS
 10
145.0
 20
-133.5
 11
145.0
 21
-118.5
  0
LINE
  8
型材断面
  6
CONTINUOUS
 10
195.0
 20
-118.5
 11
145.0
 21
-118.5
  0
ENDBLK
  0
BLOCK
  2
*DIM_0002
 70
    65
 10
0.0
 20
0.0
  0
LINE
  8
寸法
  6
BYBLOCK
 62
     0
 10
-95.755937
 20
-35.080245
 11
-95.755937
 21
-33.416065
  0
LINE
  8
寸法
  6
BYBLOCK
 62
     0
 10
-30.755937
 20
-35.080245
 11
-30.755937
 21
-33.416065
  0
LINE
  8
寸法
  6
BYBLOCK
 62
     0
 10
-95.755937
 20
-33.416065
 11
-30.755937
 21
-33.416065
  0
POINT
  8
寸法
 62
     0
 10
-95.755937
 20
-33.416065
  0
POINT
  8
寸法
 62
     0
 10
-30.755937
 20
-33.416065
  0
TEXT
  7
TextStyle03
  8
寸法
  6
CONTINUOUS
 62
     0
 10
-74.99375
 20
-33.05
  1
呼称寸法　1300
 40
3.0
 72
     5
 11
-51.55625
 21
-33.05
  0
ENDBLK
  0
BLOCK
  2
*DIM_0003
 70
    65
 10
0.0
 20
0.0
  0
LINE
  8
寸法
  6
BYBLOCK
 62
     0
 10
-29.755937
 20
59.370385
 11
-9.20651
 21
59.370385
  0
LINE
  8
寸法
  6
BYBLOCK
 62
     0
 10
-21.732063
 20
53.820385
 11
-9.20651
 21
53.820385
  0
LINE
  8
寸法
  6
BYBLOCK
 62
     0
 10
-9.20651
 20
59.370385
 11
-9.20651
 21
53.820385
  0
POINT
  8
寸法
 62
     0
 10
-9.20651
 20
59.370385
  0
POINT
  8
寸法
 62
     0
 10
-9.20651
 20
53.820385
  0
TEXT
  7
TextStyle03
  8
寸法
  6
CONTINUOUS
 62
     0
 10
-9.6
 20
54.1375
  1
111
 40
3.0
 50
90.0
 72
     5
 11
-9.6
 21
59.0125
  0
ENDBLK
  0
BLOCK
  2
*DIM_0004
 70
    65
 10
0.0
 20
0.0
  0
LINE
  8
寸法
  6
BYBLOCK
 62
     0
 10
-29.755937
 20
-5.62962
 11
-9.20651
 21
-5.62962
  0
LINE
  8
寸法
  6
BYBLOCK
 62
     0
 10
-21.732063
 20
-0.07962
 11
-9.20651
 21
-0.07962
  0
LINE
  8
寸法
  6
BYBLOCK
 62
     0
 10
-9.20651
 20
-5.62962
 11
-9.20651
 21
-0.07962
  0
POINT
  8
寸法
 62
     0
 10
-9.20651
 20
-5.62962
  0
POINT
  8
寸法
 62
     0
 10
-9.20651
 20
-0.07962
  0
TEXT
  7
TextStyle03
  8
寸法
  6
CONTINUOUS
 62
     0
 10
-9.6
 20
-5.3125
  1
111
 40
3.0
 50
90.0
 72
     5
 11
-9.6
 21
-0.4375
  0
ENDBLK
  0
BLOCK
  2
*DIM_0005
 70
    65
 10
0.0
 20
0.0
  0
LINE
  8
寸法
  6
BYBLOCK
 62
     0
 10
-80.755937
 20
82.238818
 11
-80.755937
 21
92.594355
  0
LINE
  8
寸法
  6
BYBLOCK
 62
     0
 10
-45.755937
 20
82.238818
 11
-45.755937
 21
92.594355
  0
LINE
  8
寸法
  6
BYBLOCK
 62
     0
 10
-80.755937
 20
92.594355
 11
-45.755937
 21
92.594355
  0
POINT
  8
寸法
 62
     0
 10
-80.755937
 20
92.594355
  0
POINT
  8
寸法
 62
     0
 10
-45.755937
 20
92.594355
  0
TEXT
  7
TextStyle03
  8
寸法
  6
CONTINUOUS
 62
     0
 10
-65.7125
 20
92.975
  1
700
 40
3.0
 72
     5
 11
-60.8375
 21
92.975
  0
ENDBLK
  0
BLOCK
  2
*DIM_0006
 70
    65
 10
0.0
 20
0.0
  0
LINE
  8
寸法
  6
BYBLOCK
 62
     0
 10
-123.904373
 20
44.370385
 11
-134.25991
 21
44.370385
  0
LINE
  8
寸法
  6
BYBLOCK
 62
     0
 10
-123.904375
 20
9.370385
 11
-134.259912
 21
9.370385
  0
LINE
  8
寸法
  6
BYBLOCK
 62
     0
 10
-134.25991
 20
44.370385
 11
-134.259912
 21
9.370385
  0
POINT
  8
寸法
 62
     0
 10
-134.25991
 20
44.370385
  0
POINT
  8
寸法
 62
     0
 10
-134.259912
 20
9.370385
  0
TEXT
  7
TextStyle03
  8
寸法
  6
CONTINUOUS
 62
     0
 10
-134.65
 20
24.4375
  1
700
 40
3.0
 50
90.0
 72
     5
 11
-134.65
 21
29.3125
  0
ENDBLK
  0
BLOCK
  2
*DIM_0007
 70
    65
 10
0.0
 20
0.0
  0
LINE
  8
寸法
  6
CONTINUOUS
 10
-95.755937
 20
-33.416065
 11
-99.900717
 21
-33.416065
  0
POINT
  8
寸法
 10
-95.755937
 20
-33.416065
  0
POINT
  8
寸法
 10
-99.900717
 20
-33.416065
  0
TEXT
  7
TextStyle03
  8
寸法
  6
CONTINUOUS
 10
-103.63125
 20
-32.25
  1
82.9
 40
3.0
 72
     5
 11
-97.06875
 21
-32.25
  0
ENDBLK
  0
BLOCK
  2
*DIM_0008
 70
    65
 10
0.0
 20
0.0
  0
LINE
  8
寸法
  6
CONTINUOUS
 10
-30.755937
 20
-33.416065
 11
-26.61116
 21
-33.416065
  0
POINT
  8
寸法
 10
-30.755937
 20
-33.416065
  0
POINT
  8
寸法
 10
-26.61116
 20
-33.416065
  0
TEXT
  7
TextStyle03
  8
寸法
  6
CONTINUOUS
 10
-29.43125
 20
-32.35
  1
82.9
 40
3.0
 72
     5
 11
-22.86875
 21
-32.35
  0
ENDBLK
  0
BLOCK
  2
*GRP_0009
 70
    65
 10
0.0
 20
0.0
  0
LINE
  8
型材断面
  6
CONTINUOUS
 10
111.411097
 20
-76.085715
 11
111.77674
 21
-77.081358
  0
LINE
  8
型材断面
  6
CONTINUOUS
 10
111.77674
 20
-77.081358
 11
111.35674
 21
-77.988883
  0
LINE
  8
型材断面
  6
CONTINUOUS
 10
111.35674
 20
-77.988883
 11
110.361097
 21
-78.354525
  0
LINE
  8
型材断面
  6
CONTINUOUS
 10
67.39618
 20
-55.715712
 11
111.411097
 21
-76.085715
  0
LINE
  8
型材断面
  6
CONTINUOUS
 10
66.400535
 20
-56.081355
 11
67.39618
 21
-55.715712
  0
LINE
  8
型材断面
  6
CONTINUOUS
 10
66.400535
 20
-56.081355
 11
65.980535
 21
-56.98888
  0
LINE
  8
型材断面
  6
CONTINUOUS
 10
66.34618
 20
-57.984523
 11
110.361097
 21
-78.354525
  0
LINE
  8
型材断面
  6
CONTINUOUS
 10
65.980535
 20
-56.98888
 11
66.34618
 21
-57.984523
  0
INSERT
  2
*GRP_0012
  8
ボルト／ビス
  6
CONTINUOUS
 62
    64
 10
0.0
 20
0.0
  0
INSERT
  2
*GRP_0013
  8
ボルト／ビス
  6
CONTINUOUS
 62
    64
 10
0.0
 20
0.0
  0
INSERT
  2
*GRP_0014
  8
ボルト／ビス
  6
CONTINUOUS
 62
    64
 10
0.0
 20
0.0
  0
ENDBLK
  0
BLOCK
  2
*GRP_0010
 70
    65
 10
0.0
 20
0.0
  0
LINE
  8
型材断面
  6
CONTINUOUS
 10
66.346177
 20
-76.085715
 11
65.980535
 21
-77.081358
  0
LINE
  8
型材断面
  6
CONTINUOUS
 10
65.980535
 20
-77.081358
 11
66.400535
 21
-77.988883
  0
LINE
  8
型材断面
  6
CONTINUOUS
 10
66.400535
 20
-77.988883
 11
67.396177
 21
-78.354525
  0
LINE
  8
型材断面
  6
CONTINUOUS
 10
110.361095
 20
-55.715712
 11
66.346177
 21
-76.085715
  0
LINE
  8
型材断面
  6
CONTINUOUS
 10
111.35674
 20
-56.081355
 11
110.361095
 21
-55.715712
  0
LINE
  8
型材断面
  6
CONTINUOUS
 10
111.35674
 20
-56.081355
 11
111.77674
 21
-56.98888
  0
LINE
  8
型材断面
  6
CONTINUOUS
 10
111.411095
 20
-57.984523
 11
67.396177
 21
-78.354525
  0
LINE
  8
型材断面
  6
CONTINUOUS
 10
111.77674
 20
-56.98888
 11
111.411095
 21
-57.984523
  0
INSERT
  2
*GRP_0015
  8
ボルト／ビス
  6
CONTINUOUS
 62
    64
 10
0.0
 20
0.0
  0
INSERT
  2
*GRP_0016
  8
ボルト／ビス
  6
CONTINUOUS
 62
    64
 10
0.0
 20
0.0
  0
INSERT
  2
*GRP_0017
  8
ボルト／ビス
  6
CONTINUOUS
 62
    64
 10
0.0
 20
0.0
  0
ENDBLK
  0
BLOCK
  2
*GRP_0011
 70
    65
 10
0.0
 20
0.0
  0
LINE
  8
別途部材
  6
DOT
 62
    47
 10
47.682765
 20
-52.79505
 11
47.682765
 21
-52.89505
  0
ARC
  8
別途部材
  6
DOT
 62
    47
 10
47.832766
 20
-52.79505
 40
0.15
 50
90.0
 51
180.0
  0
LINE
  8
別途部材
  6
DOT
 62
    47
 10
47.91755
 20
-52.89505
 11
47.91755
 21
-55.14505
  0
LINE
  8
別途部材
  6
DOT
 62
    47
 10
118.182332
 20
-52.79505
 11
118.182332
 21
-52.89505
  0
ARC
  8
別途部材
  6
DOT
 62
    47
 10
118.032329
 20
-52.79505
 40
0.15
 50
0.0
 51
90.0
  0
LINE
  8
別途部材
  6
DOT
 62
    47
 10
117.947547
 20
-52.89505
 11
117.947547
 21
-55.14505
  0
LINE
  8
別途部材
  6
DOT
 62
    47
 10
118.182332
 20
-52.89505
 11
82.93255
 21
-52.89505
  0
LINE
  8
別途部材
  6
DOT
 62
    47
 10
118.032332
 20
-52.64505
 11
82.93255
 21
-52.64505
  0
LINE
  8
別途部材
  6
DOT
 62
    47
 10
117.947547
 20
-55.14505
 11
82.93255
 21
-55.14505
  0
LINE
  8
別途部材
  6
DOT
 62
    47
 10
119.577327
 20
-56.870053
 11
82.93255
 21
-56.870053
  0
LINE
  8
別途部材
  6
DOT
 62
    47
 10
119.577327
 20
-58.620053
 11
82.93255
 21
-58.620053
  0
LINE
  8
別途部材
  6
DOT
 62
    47
 10
46.28777
 20
-58.620053
 11
82.93255
 21
-58.620053
  0
LINE
  8
別途部材
  6
DOT
 62
    47
 10
46.28777
 20
-56.870053
 11
82.93255
 21
-56.870053
  0
LINE
  8
別途部材
  6
DOT
 62
    47
 10
47.91755
 20
-55.14505
 11
82.93255
 21
-55.14505
  0
LINE
  8
別途部材
  6
DOT
 62
    47
 10
47.832765
 20
-52.64505
 11
82.93255
 21
-52.64505
  0
LINE
  8
別途部材
  6
DOT
 62
    47
 10
47.682765
 20
-52.89505
 11
82.93255
 21
-52.89505
  0
LINE
  8
鉄骨等
  6
DOT
 62
    47
 10
46.28777
 20
-58.620053
 11
46.28777
 21
-56.870053
  0
LINE
  8
鉄骨等
  6
DOT
 62
    47
 10
46.28777
 20
-56.870053
 11
48.392547
 21
-55.145053
  0
LINE
  8
鉄骨等
  6
DOT
 62
    47
 10
119.577327
 20
-58.620053
 11
119.577327
 21
-56.870053
  0
LINE
  8
鉄骨等
  6
DOT
 62
    47
 10
119.577327
 20
-56.870053
 11
117.472547
 21
-55.145053
  0
ENDBLK
  0
BLOCK
  2
*GRP_0012
 70
    65
 10
0.0
 20
0.0
  0
INSERT
  2
*GRP_0018
  8
補助線
  6
CONTINUOUS
 62
    64
 10
0.0
 20
0.0
  0
LINE
  8
ボルト／ビス
  6
CONTINUOUS
 62
    64
 10
67.51893
 20
-56.64095
 11
67.058925
 21
-56.682535
  0
LINE
  8
ボルト／ビス
  6
CONTINUOUS
 62
    64
 10
67.51893
 20
-56.64095
 11
67.784945
 21
-57.018535
  0
LINE
  8
ボルト／ビス
  6
CONTINUOUS
 62
    64
 10
67.130953
 20
-57.479285
 11
66.864938
 21
-57.101703
  0
LINE
  8
ボルト／ビス
  6
CONTINUOUS
 62
    64
 10
67.130953
 20
-57.479285
 11
67.590955
 21
-57.437702
  0
CIRCLE
  8
ボルト／ビス
  6
CONTINUOUS
 62
    64
 10
67.32494
 20
-57.060117
 40
0.4
  0
LINE
  8
ボルト／ビス
  6
CONTINUOUS
 62
    64
 10
67.784945
 20
-57.018535
 11
67.590955
 21
-57.437702
  0
LINE
  8
ボルト／ビス
  6
CONTINUOUS
 62
    64
 10
67.058925
 20
-56.682535
 11
66.864938
 21
-57.101703
  0
ENDBLK
  0
BLOCK
  2
*GRP_0013
 70
    65
 10
0.0
 20
0.0
  0
INSERT
  2
*GRP_0019
  8
補助線
  6
CONTINUOUS
 62
    64
 10
0.0
 20
0.0
  0
LINE
  8
ボルト／ビス
  6
CONTINUOUS
 62
    64
 10
110.626325
 20
-76.590953
 11
110.89234
 21
-76.968537
  0
LINE
  8
ボルト／ビス
  6
CONTINUOUS
 62
    64
 10
110.626325
 20
-76.590953
 11
110.16632
 21
-76.632538
  0
LINE
  8
ボルト／ビス
  6
CONTINUOUS
 62
    64
 10
110.238345
 20
-77.429288
 11
110.69835
 21
-77.387702
  0
LINE
  8
ボルト／ビス
  6
CONTINUOUS
 62
    64
 10
110.238345
 20
-77.429288
 11
109.97233
 21
-77.051703
  0
CIRCLE
  8
ボルト／ビス
  6
CONTINUOUS
 62
    64
 10
110.432335
 20
-77.01012
 40
0.4
  0
LINE
  8
ボルト／ビス
  6
CONTINUOUS
 62
    64
 10
110.16632
 20
-76.632538
 11
109.97233
 21
-77.051703
  0
LINE
  8
ボルト／ビス
  6
CONTINUOUS
 62
    64
 10
110.89234
 20
-76.968537
 11
110.69835
 21
-77.387702
  0
ENDBLK
  0
BLOCK
  2
*GRP_0014
 70
    65
 10
0.0
 20
0.0
  0
INSERT
  2
*GRP_0020
  8
補助線
  6
CONTINUOUS
 62
    64
 10
0.0
 20
0.0
  0
LINE
  8
ボルト／ビス
  6
CONTINUOUS
 62
    64
 10
89.072628
 20
-66.615953
 11
88.612623
 21
-66.657535
  0
LINE
  8
ボルト／ビス
  6
CONTINUOUS
 62
    64
 10
89.072628
 20
-66.615953
 11
89.338643
 21
-66.993535
  0
LINE
  8
ボルト／ビス
  6
CONTINUOUS
 62
    64
 10
88.684648
 20
-67.454285
 11
88.418633
 21
-67.076703
  0
LINE
  8
ボルト／ビス
  6
CONTINUOUS
 62
    64
 10
88.684648
 20
-67.454285
 11
89.144652
 21
-67.412702
  0
CIRCLE
  8
ボルト／ビス
  6
CONTINUOUS
 62
    64
 10
88.878637
 20
-67.03512
 40
0.4
  0
LINE
  8
ボルト／ビス
  6
CONTINUOUS
 62
    64
 10
89.338643
 20
-66.993535
 11
89.144652
 21
-67.412702
  0
LINE
  8
ボルト／ビス
  6
CONTINUOUS
 62
    64
 10
88.612623
 20
-66.657535
 11
88.418633
 21
-67.076703
  0
ENDBLK
  0
BLOCK
  2
*GRP_0015
 70
    65
 10
0.0
 20
0.0
  0
INSERT
  2
*GRP_0021
  8
補助線
  6
CONTINUOUS
 62
    64
 10
0.0
 20
0.0
  0
LINE
  8
ボルト／ビス
  6
CONTINUOUS
 62
    64
 10
110.238345
 20
-56.64095
 11
110.69835
 21
-56.682535
  0
LINE
  8
ボルト／ビス
  6
CONTINUOUS
 62
    64
 10
110.238345
 20
-56.64095
 11
109.97233
 21
-57.018535
  0
LINE
  8
ボルト／ビス
  6
CONTINUOUS
 62
    64
 10
110.626323
 20
-57.479285
 11
110.892338
 21
-57.101703
  0
LINE
  8
ボルト／ビス
  6
CONTINUOUS
 62
    64
 10
110.626323
 20
-57.479285
 11
110.16632
 21
-57.437702
  0
CIRCLE
  8
ボルト／ビス
  6
CONTINUOUS
 62
    64
 10
110.432335
 20
-57.060117
 40
0.4
  0
LINE
  8
ボルト／ビス
  6
CONTINUOUS
 62
    64
 10
109.97233
 20
-57.018535
 11
110.16632
 21
-57.437702
  0
LINE
  8
ボルト／ビス
  6
CONTINUOUS
 62
    64
 10
110.69835
 20
-56.682535
 11
110.892338
 21
-57.101703
  0
ENDBLK
  0
BLOCK
  2
*GRP_0016
 70
    65
 10
0.0
 20
0.0
  0
INSERT
  2
*GRP_0022
  8
補助線
  6
CONTINUOUS
 62
    64
 10
0.0
 20
0.0
  0
LINE
  8
ボルト／ビス
  6
CONTINUOUS
 62
    64
 10
67.13095
 20
-76.590953
 11
66.864935
 21
-76.968537
  0
LINE
  8
ボルト／ビス
  6
CONTINUOUS
 62
    64
 10
67.13095
 20
-76.590953
 11
67.590955
 21
-76.632538
  0
LINE
  8
ボルト／ビス
  6
CONTINUOUS
 62
    64
 10
67.51893
 20
-77.429288
 11
67.058925
 21
-77.387702
  0
LINE
  8
ボルト／ビス
  6
CONTINUOUS
 62
    64
 10
67.51893
 20
-77.429288
 11
67.784945
 21
-77.051703
  0
CIRCLE
  8
ボルト／ビス
  6
CONTINUOUS
 62
    64
 10
67.32494
 20
-77.01012
 40
0.4
  0
LINE
  8
ボルト／ビス
  6
CONTINUOUS
 62
    64
 10
67.590955
 20
-76.632538
 11
67.784945
 21
-77.051703
  0
LINE
  8
ボルト／ビス
  6
CONTINUOUS
 62
    64
 10
66.864935
 20
-76.968537
 11
67.058925
 21
-77.387702
  0
ENDBLK
  0
BLOCK
  2
*GRP_0017
 70
    65
 10
0.0
 20
0.0
  0
INSERT
  2
*GRP_0023
  8
補助線
  6
CONTINUOUS
 62
    64
 10
0.0
 20
0.0
  0
LINE
  8
ボルト／ビス
  6
CONTINUOUS
 62
    64
 10
88.684648
 20
-66.615953
 11
89.144652
 21
-66.657535
  0
LINE
  8
ボルト／ビス
  6
CONTINUOUS
 62
    64
 10
88.684648
 20
-66.615953
 11
88.418633
 21
-66.993535
  0
LINE
  8
ボルト／ビス
  6
CONTINUOUS
 62
    64
 10
89.072628
 20
-67.454285
 11
89.338643
 21
-67.076703
  0
LINE
  8
ボルト／ビス
  6
CONTINUOUS
 62
    64
 10
89.072628
 20
-67.454285
 11
88.612623
 21
-67.412702
  0
CIRCLE
  8
ボルト／ビス
  6
CONTINUOUS
 62
    64
 10
88.878637
 20
-67.03512
 40
0.4
  0
LINE
  8
ボルト／ビス
  6
CONTINUOUS
 62
    64
 10
88.418633
 20
-66.993535
 11
88.612623
 21
-67.412702
  0
LINE
  8
ボルト／ビス
  6
CONTINUOUS
 62
    64
 10
89.144652
 20
-66.657535
 11
89.338643
 21
-67.076703
  0
ENDBLK
  0
BLOCK
  2
*GRP_0018
 70
    65
 10
0.0
 20
0.0
  0
LINE
  8
補助線
  6
BYBLOCK
 62
    64
 10
67.438383
 20
-57.112618
 11
67.2115
 21
-57.007618
  0
LINE
  8
補助線
  6
BYBLOCK
 62
    64
 10
67.37744
 20
-56.946677
 11
67.27244
 21
-57.173557
  0
ENDBLK
  0
BLOCK
  2
*GRP_0019
 70
    65
 10
0.0
 20
0.0
  0
LINE
  8
補助線
  6
BYBLOCK
 62
    64
 10
110.318895
 20
-76.95762
 11
110.545775
 21
-77.06262
  0
LINE
  8
補助線
  6
BYBLOCK
 62
    64
 10
110.484835
 20
-76.89668
 11
110.379835
 21
-77.12356
  0
ENDBLK
  0
BLOCK
  2
*GRP_0020
 70
    65
 10
0.0
 20
0.0
  0
LINE
  8
補助線
  6
BYBLOCK
 62
    64
 10
88.992078
 20
-67.08762
 11
88.765198
 21
-66.98262
  0
LINE
  8
補助線
  6
BYBLOCK
 62
    64
 10
88.931137
 20
-66.921677
 11
88.826138
 21
-67.14856
  0
ENDBLK
  0
BLOCK
  2
*GRP_0021
 70
    65
 10
0.0
 20
0.0
  0
LINE
  8
補助線
  6
BYBLOCK
 62
    64
 10
110.318893
 20
-57.112618
 11
110.545775
 21
-57.007618
  0
LINE
  8
補助線
  6
BYBLOCK
 62
    64
 10
110.379835
 20
-56.946677
 11
110.484835
 21
-57.173557
  0
ENDBLK
  0
BLOCK
  2
*GRP_0022
 70
    65
 10
0.0
 20
0.0
  0
LINE
  8
補助線
  6
BYBLOCK
 62
    64
 10
67.43838
 20
-76.95762
 11
67.2115
 21
-77.06262
  0
LINE
  8
補助線
  6
BYBLOCK
 62
    64
 10
67.27244
 20
-76.89668
 11
67.37744
 21
-77.12356
  0
ENDBLK
  0
BLOCK
  2
*GRP_0023
 70
    65
 10
0.0
 20
0.0
  0
LINE
  8
補助線
  6
BYBLOCK
 62
    64
 10
88.765198
 20
-67.08762
 11
88.992078
 21
-66.98262
  0
LINE
  8
補助線
  6
BYBLOCK
 62
    64
 10
88.826138
 20
-66.921677
 11
88.931137
 21
-67.14856
  0
ENDBLK
  0
BLOCK
  2
*DIM_0024
 70
    65
 10
0.0
 20
0.0
  0
LINE
  8
寸法
  6
BYBLOCK
 62
     0
 10
120.914718
 20
-52.64505
 11
137.475
 21
-52.64505
  0
LINE
  8
寸法
  6
BYBLOCK
 62
     0
 10
137.475
 20
-68.645053
 11
137.475
 21
-52.64505
  0
POINT
  8
寸法
 62
     0
 10
137.475
 20
-68.645053
  0
POINT
  8
寸法
 62
     0
 10
137.475
 20
-52.64505
  0
TEXT
  7
TextStyle03
  8
寸法
  6
CONTINUOUS
 62
     0
 10
136.675
 20
-50.66875
  1
上昇258以上
 40
3.0
 50
90.0
 72
     5
 11
136.675
 21
-32.48125
  0
ENDBLK
  0
BLOCK
  2
*DIM_0025
 70
    65
 10
0.0
 20
0.0
  0
LINE
  8
寸法
  6
CONTINUOUS
 10
172.304785
 20
60.41462
 11
183.73456
 21
60.41462
  0
LINE
  8
寸法
  6
CONTINUOUS
 10
172.304785
 20
-4.58538
 11
183.73456
 21
-4.58538
  0
LINE
  8
寸法
  6
CONTINUOUS
 10
183.73456
 20
60.41462
 11
183.73456
 21
-4.58538
  0
POINT
  8
寸法
 10
183.73456
 20
60.41462
  0
POINT
  8
寸法
 10
183.73456
 20
-4.58538
  0
TEXT
  7
TextStyle03
  8
寸法
  6
CONTINUOUS
 10
183.35
 20
24.61875
  1
1300
 40
3.0
 50
90.0
 72
     5
 11
183.35
 21
31.18125
  0
ENDBLK
  0
BLOCK
  2
*DIM_0026
 70
    65
 10
0.0
 20
0.0
  0
LINE
  8
寸法
  6
CONTINUOUS
 10
102.304785
 20
65.41462
 11
102.304785
 21
80.122428
  0
LINE
  8
寸法
  6
CONTINUOUS
 10
167.304785
 20
65.41462
 11
167.304785
 21
80.122428
  0
LINE
  8
寸法
  6
CONTINUOUS
 10
102.304785
 20
80.122428
 11
167.304785
 21
80.122428
  0
POINT
  8
寸法
 10
102.304785
 20
80.122428
  0
POINT
  8
寸法
 10
167.304785
 20
80.122428
  0
TEXT
  7
TextStyle03
  8
寸法
  6
CONTINUOUS
 10
131.51875
 20
80.475
  1
1300
 40
3.0
 72
     5
 11
138.08125
 21
80.475
  0
ENDBLK
  0
BLOCK
  2
*DIM_0027
 70
    65
 10
0.0
 20
0.0
  0
LINE
  8
寸法
  6
CONTINUOUS
 10
-23.721058
 20
-68.64505
 11
-4.643548
 21
-68.64505
  0
LINE
  8
寸法
  6
CONTINUOUS
 10
-21.611157
 20
-80.819877
 11
-4.643548
 21
-80.819877
  0
LINE
  8
寸法
  6
CONTINUOUS
 10
-4.643548
 20
-68.64505
 11
-4.643548
 21
-80.819877
  0
POINT
  8
寸法
 10
-4.643548
 20
-68.64505
  0
POINT
  8
寸法
 10
-4.643548
 20
-80.819877
  0
TEXT
  7
TextStyle03
  8
寸法
  6
CONTINUOUS
 10
-5.025
 20
-78.875
  1
243.5
 40
3.0
 50
90.0
 72
     5
 11
-5.025
 21
-70.625
  0
ENDBLK
  0
BLOCK
  2
*DIM_0028
 70
    65
 10
0.0
 20
0.0
  0
LINE
  8
寸法
  6
CONTINUOUS
 10
122.773447
 20
-68.64505
 11
137.475
 21
-68.64505
  0
LINE
  8
寸法
  6
CONTINUOUS
 10
124.57733
 20
-80.819877
 11
137.475
 21
-80.819877
  0
LINE
  8
寸法
  6
CONTINUOUS
 10
137.475
 20
-68.64505
 11
137.475
 21
-80.819877
  0
POINT
  8
寸法
 10
137.475
 20
-68.64505
  0
POINT
  8
寸法
 10
137.475
 20
-80.819877
  0
TEXT
  7
TextStyle03
  8
寸法
  6
CONTINUOUS
 10
137.1
 20
-78.875
  1
243.5
 40
3.0
 50
90.0
 72
     5
 11
137.1
 21
-70.625
  0
ENDBLK
  0
ENDSEC
  0
SECTION
  2
ENTITIES
  0
POLYLINE
  8
通り芯
  6
CONTINUOUS
 66
     1
 70
     1
  0
VERTEX
  8
通り芯
 10
-210.0
 20
-148.5
  0
VERTEX
  8
通り芯
 10
210.0
 20
-148.5
  0
VERTEX
  8
通り芯
 10
210.0
 20
148.5
  0
VERTEX
  8
通り芯
 10
-210.0
 20
148.5
  0
SEQEND
  0
INSERT
  2
*GRP_0001
  8
型材断面
  6
CONTINUOUS
 10
0.0
 20
0.0
  0
LINE
  8
型材断面
  6
DASHDOT
 10
-30.755937
 20
-85.083888
 11
-30.755937
 21
59.370383
  0
LINE
  8
型材断面
  6
DASHDOT
 10
-95.755937
 20
-85.083888
 11
-95.755937
 21
59.370383
  0
LINE
  8
型材断面
  6
DOT
 10
-35.865297
 20
59.370383
 11
-35.865297
 21
-5.629618
  0
LINE
  8
型材断面
  6
DOT
 10
-33.865297
 20
59.370383
 11
-33.865297
 21
-5.629618
  0
LINE
  8
型材断面
  6
CONTINUOUS
 10
-22.732063
 20
53.820385
 11
-18.846303
 21
52.9263
  0
LINE
  8
型材断面
  6
CONTINUOUS
 10
-22.732063
 20
53.820385
 11
-18.846303
 21
54.71447
  0
LINE
  8
型材断面
  6
CONTINUOUS
 10
-18.846303
 20
54.71447
 11
-18.846303
 21
52.9263
  0
LINE
  8
型材断面
  6
CONTINUOUS
 10
-22.732063
 20
-0.07962
 11
-18.846303
 21
0.814465
  0
LINE
  8
型材断面
  6
CONTINUOUS
 10
-22.732063
 20
-0.07962
 11
-18.846303
 21
-0.973705
  0
LINE
  8
型材断面
  6
CONTINUOUS
 10
-18.846303
 20
-0.973705
 11
-18.846303
 21
0.814465
  0
LINE
  8
型材断面
  6
CONTINUOUS
 10
-103.779813
 20
-0.07962
 11
-107.665572
 21
0.814465
  0
LINE
  8
型材断面
  6
CONTINUOUS
 10
-103.779813
 20
-0.07962
 11
-107.665572
 21
-0.973705
  0
LINE
  8
型材断面
  6
CONTINUOUS
 10
-107.665572
 20
-0.973705
 11
-107.665572
 21
0.814465
  0
LINE
  8
型材断面
  6
CONTINUOUS
 10
-103.779813
 20
53.820385
 11
-107.665572
 21
52.9263
  0
LINE
  8
型材断面
  6
CONTINUOUS
 10
-103.779813
 20
53.820385
 11
-107.665572
 21
54.71447
  0
LINE
  8
型材断面
  6
CONTINUOUS
 10
-107.665572
 20
54.71447
 11
-107.665572
 21
52.9263
  0
LINE
  8
型材断面
  6
CONTINUOUS
 10
-22.732063
 20
26.870383
 11
-18.846303
 21
24.626937
  0
LINE
  8
型材断面
  6
CONTINUOUS
 10
-22.732063
 20
26.870383
 11
-18.846303
 21
29.113827
  0
LINE
  8
型材断面
  6
CONTINUOUS
 10
-18.846303
 20
29.113827
 11
-18.846303
 21
24.626937
  0
LINE
  8
型材断面
  6
CONTINUOUS
 10
-63.255937
 20
67.394257
 11
-65.499382
 21
71.280018
  0
LINE
  8
型材断面
  6
CONTINUOUS
 10
-63.255937
 20
67.394257
 11
-61.012493
 21
71.280018
  0
LINE
  8
型材断面
  6
CONTINUOUS
 10
-61.012493
 20
71.280018
 11
-65.499382
 21
71.280018
  0
LINE
  8
型材断面
  6
CONTINUOUS
 10
-63.255937
 20
-13.653492
 11
-65.499382
 21
-17.539253
  0
LINE
  8
型材断面
  6
CONTINUOUS
 10
-63.255937
 20
-13.653492
 11
-61.012493
 21
-17.539253
  0
LINE
  8
型材断面
  6
CONTINUOUS
 10
-61.012493
 20
-17.539253
 11
-65.499382
 21
-17.539253
  0
LINE
  8
型材断面
  6
CONTINUOUS
 10
-103.779813
 20
26.870383
 11
-107.665572
 21
24.626937
  0
LINE
  8
型材断面
  6
CONTINUOUS
 10
-103.779813
 20
26.870383
 11
-107.665572
 21
29.113827
  0
LINE
  8
型材断面
  6
CONTINUOUS
 10
-107.665572
 20
29.113827
 11
-107.665572
 21
24.626937
  0
LINE
  8
型材断面
  6
CONTINUOUS
 10
4.930422
 20
-11.415415
 11
2.686977
 21
-15.301175
  0
LINE
  8
型材断面
  6
CONTINUOUS
 10
4.930422
 20
-11.415415
 11
7.173868
 21
-15.301175
  0
LINE
  8
型材断面
  6
CONTINUOUS
 10
7.173868
 20
-15.301175
 11
2.686977
 21
-15.301175
  0
LINE
  8
型材断面
  6
CONTINUOUS
 10
4.930422
 20
-19.104962
 11
5.824508
 21
-22.990722
  0
LINE
  8
型材断面
  6
CONTINUOUS
 10
4.930422
 20
-19.104962
 11
4.036338
 21
-22.990722
  0
LINE
  8
型材断面
  6
CONTINUOUS
 10
4.036338
 20
-22.990722
 11
5.824508
 21
-22.990722
  0
LINE
  8
型材断面
  6
CONTINUOUS
 10
-4.103457
 20
-16.709068
 11
48.553223
 21
-16.709068
  0
LINE
  8
型材断面
  6
CONTINUOUS
 10
-4.103457
 20
-27.90906
 11
48.553223
 21
-27.90906
  0
LINE
  8
型材断面
  6
CONTINUOUS
 10
-4.103457
 20
-34.749005
 11
48.553223
 21
-34.749005
  0
LINE
  8
型材断面
  6
DASHDOT
 10
-63.255937
 20
-85.083888
 11
-63.255937
 21
59.370383
  0
LINE
  8
型材断面
  6
DASHDOT
 10
-95.755937
 20
26.870383
 11
-30.755937
 21
26.870383
  0
POLYLINE
  8
型材断面
  6
CONTINUOUS
 66
     1
 70
     1
  0
VERTEX
  8
型材断面
 10
-53.966143
 20
76.9481
  0
VERTEX
  8
型材断面
 10
-72.521355
 20
76.9481
  0
VERTEX
  8
型材断面
 10
-72.521355
 20
72.156065
  0
VERTEX
  8
型材断面
 10
-53.966143
 20
72.156065
  0
SEQEND
  0
POLYLINE
  8
型材断面
  6
CONTINUOUS
 66
     1
 70
     1
  0
VERTEX
  8
型材断面
 10
-53.966143
 20
-18.772732
  0
VERTEX
  8
型材断面
 10
-72.521355
 20
-18.772732
  0
VERTEX
  8
型材断面
 10
-72.521355
 20
-23.564768
  0
VERTEX
  8
型材断面
 10
-53.966143
 20
-23.564768
  0
SEQEND
  0
LINE
  8
型材断面
  6
CONTINUOUS
 10
-4.103457
 20
-41.58895
 11
48.553223
 21
-41.58895
  0
INSERT
  2
*GRP_0009
  8
型材断面
  6
CONTINUOUS
 10
0.0
 20
0.0
  0
INSERT
  2
*GRP_0010
  8
型材断面
  6
CONTINUOUS
 10
0.0
 20
0.0
  0
LINE
  8
型材断面
  6
CONTINUOUS
 10
-99.900717
 20
63.51516
 11
-26.61116
 21
63.51516
  0
LINE
  8
型材断面
  6
CONTINUOUS
 10
-26.61116
 20
63.51516
 11
-26.61116
 21
-9.774398
  0
LINE
  8
型材断面
  6
CONTINUOUS
 10
-26.61116
 20
-9.774398
 11
-99.900717
 21
-9.774398
  0
LINE
  8
型材断面
  6
CONTINUOUS
 10
-99.900717
 20
63.51516
 11
-99.900717
 21
-9.774398
  0
LINE
  8
型材断面
  6
DASHDOT
 10
-30.755937
 20
59.370383
 11
-95.755937
 21
59.370383
  0
LINE
  8
型材断面
  6
DASHDOT
 10
-95.755937
 20
-5.62962
 11
-30.755937
 21
-5.62962
  0
LINE
  8
型材断面
  6
CONTINUOUS
 10
-29.20464
 20
-7.534685
 11
-28.85109
 21
-7.181135
  0
LINE
  8
型材断面
  6
CONTINUOUS
 10
-32.954643
 20
-3.784685
 11
-32.601092
 21
-3.431135
  0
LINE
  8
型材断面
  6
CONTINUOUS
 10
-32.601092
 20
-3.431135
 11
-28.85109
 21
-7.181135
  0
LINE
  8
型材断面
  6
CONTINUOUS
 10
-32.954643
 20
-3.784685
 11
-29.20464
 21
-7.534685
  0
LINE
  8
型材断面
  6
CONTINUOUS
 10
-63.255937
 20
-7.534435
 11
-29.204865
 21
-7.53446
  0
LINE
  8
型材断面
  6
CONTINUOUS
 10
-28.851185
 20
26.870387
 11
-28.85109
 21
-7.181135
  0
LINE
  8
型材断面
  6
CONTINUOUS
 10
-26.61116
 20
-9.77461
 11
-29.02787
 21
-7.357915
  0
LINE
  8
型材断面
  6
CONTINUOUS
 10
-29.20464
 20
61.27545
 11
-28.85109
 21
60.9219
  0
LINE
  8
型材断面
  6
CONTINUOUS
 10
-32.954643
 20
57.52545
 11
-32.601092
 21
57.1719
  0
LINE
  8
型材断面
  6
CONTINUOUS
 10
-32.601092
 20
57.1719
 11
-28.85109
 21
60.9219
  0
LINE
  8
型材断面
  6
CONTINUOUS
 10
-32.954643
 20
57.52545
 11
-29.20464
 21
61.27545
  0
LINE
  8
型材断面
  6
CONTINUOUS
 10
-26.61116
 20
63.515375
 11
-29.02787
 21
61.09868
  0
LINE
  8
型材断面
  6
CONTINUOUS
 10
-97.307235
 20
61.27545
 11
-97.660785
 21
60.9219
  0
LINE
  8
型材断面
  6
CONTINUOUS
 10
-93.557233
 20
57.52545
 11
-93.910783
 21
57.1719
  0
LINE
  8
型材断面
  6
CONTINUOUS
 10
-93.910783
 20
57.1719
 11
-97.660785
 21
60.9219
  0
LINE
  8
型材断面
  6
CONTINUOUS
 10
-93.557233
 20
57.52545
 11
-97.307235
 21
61.27545
  0
LINE
  8
型材断面
  6
CONTINUOUS
 10
-99.900715
 20
63.515375
 11
-97.484005
 21
61.09868
  0
LINE
  8
型材断面
  6
CONTINUOUS
 10
-97.307235
 20
-7.534685
 11
-97.660785
 21
-7.181135
  0
LINE
  8
型材断面
  6
CONTINUOUS
 10
-93.557233
 20
-3.784685
 11
-93.910783
 21
-3.431135
  0
LINE
  8
型材断面
  6
CONTINUOUS
 10
-93.910783
 20
-3.431135
 11
-97.660785
 21
-7.181135
  0
LINE
  8
型材断面
  6
CONTINUOUS
 10
-93.557233
 20
-3.784685
 11
-97.307235
 21
-7.534685
  0
LINE
  8
型材断面
  6
CONTINUOUS
 10
-99.900715
 20
-9.77461
 11
-97.484005
 21
-7.357915
  0
LINE
  8
型材断面
  6
CONTINUOUS
 10
-62.630937
 20
-3.784437
 11
-62.630937
 21
-7.534435
  0
LINE
  8
型材断面
  6
CONTINUOUS
 10
-63.880937
 20
-3.784437
 11
-63.880937
 21
-7.534435
  0
LINE
  8
型材断面
  6
CONTINUOUS
 10
-32.601555
 20
26.24513
 11
-28.851558
 21
26.245153
  0
LINE
  8
型材断面
  6
CONTINUOUS
 10
-32.601565
 20
27.49513
 11
-28.851567
 21
27.495153
  0
LINE
  8
型材断面
  6
CONTINUOUS
 10
-63.881442
 20
57.525213
 11
-63.881398
 21
61.27521
  0
LINE
  8
型材断面
  6
CONTINUOUS
 10
-62.631442
 20
57.525193
 11
-62.631398
 21
61.27519
  0
LINE
  8
型材断面
  6
CONTINUOUS
 10
-93.91033
 20
27.49614
 11
-97.660328
 21
27.496073
  0
LINE
  8
型材断面
  6
CONTINUOUS
 10
-93.9103
 20
26.24614
 11
-97.660297
 21
26.246073
  0
LINE
  8
型材断面
  6
CONTINUOUS
 10
-62.630937
 20
-3.784437
 11
-32.954417
 21
-3.78446
  0
LINE
  8
型材断面
  6
CONTINUOUS
 10
-32.60118
 20
26.24513
 11
-32.601098
 21
-3.43114
  0
LINE
  8
型材断面
  6
CONTINUOUS
 10
-32.60118
 20
27.49513
 11
-32.601098
 21
57.171905
  0
LINE
  8
型材断面
  6
CONTINUOUS
 10
-62.630937
 20
57.525202
 11
-32.954417
 21
57.525225
  0
LINE
  8
型材断面
  6
CONTINUOUS
 10
-28.851185
 20
26.870377
 11
-28.85109
 21
60.9219
  0
LINE
  8
型材断面
  6
CONTINUOUS
 10
-63.255937
 20
61.2752
 11
-29.204865
 21
61.275225
  0
LINE
  8
型材断面
  6
CONTINUOUS
 10
-63.880937
 20
57.525202
 11
-93.557457
 21
57.525225
  0
LINE
  8
型材断面
  6
CONTINUOUS
 10
-93.910695
 20
27.49614
 11
-93.910778
 21
57.171905
  0
LINE
  8
型材断面
  6
CONTINUOUS
 10
-63.255937
 20
61.2752
 11
-97.30701
 21
61.275225
  0
LINE
  8
型材断面
  6
CONTINUOUS
 10
-97.66069
 20
26.870377
 11
-97.660785
 21
60.9219
  0
LINE
  8
型材断面
  6
CONTINUOUS
 10
-63.880937
 20
-3.784437
 11
-93.557457
 21
-3.78446
  0
LINE
  8
型材断面
  6
CONTINUOUS
 10
-93.910695
 20
26.24614
 11
-93.910778
 21
-3.43114
  0
LINE
  8
型材断面
  6
CONTINUOUS
 10
-63.255937
 20
-7.534435
 11
-97.30701
 21
-7.53446
  0
LINE
  8
型材断面
  6
CONTINUOUS
 10
-97.66069
 20
26.870387
 11
-97.660785
 21
-7.181135
  0
LINE
  8
型材断面
  6
CONTINUOUS
 10
-63.255937
 20
-74.970055
 11
-99.900717
 21
-74.970055
  0
LINE
  8
型材断面
  6
CONTINUOUS
 10
-63.255937
 20
-80.819877
 11
-99.900717
 21
-80.819877
  0
LINE
  8
型材断面
  6
CONTINUOUS
 10
-63.255937
 20
-81.324875
 11
-99.150717
 21
-81.324875
  0
LINE
  8
型材断面
  6
CONTINUOUS
 62
    47
 10
-63.255937
 20
-74.67512
 11
-99.605782
 21
-74.67512
  0
LINE
  8
型材断面
  6
CONTINUOUS
 10
-99.150717
 20
-80.819877
 11
-99.150717
 21
-81.324875
  0
LINE
  8
型材断面
  6
CONTINUOUS
 10
-99.605717
 20
-74.675055
 11
-99.900717
 21
-74.970055
  0
LINE
  8
型材断面
  6
CONTINUOUS
 10
-99.900717
 20
-74.970055
 11
-99.900717
 21
-80.819877
  0
LINE
  8
型材断面
  6
CONTINUOUS
 10
-63.255937
 20
-74.970055
 11
-26.611157
 21
-74.970055
  0
LINE
  8
型材断面
  6
CONTINUOUS
 10
-63.255937
 20
-80.819877
 11
-26.611157
 21
-80.819877
  0
LINE
  8
型材断面
  6
CONTINUOUS
 10
-63.255937
 20
-81.324875
 11
-27.361157
 21
-81.324875
  0
LINE
  8
型材断面
  6
CONTINUOUS
 62
    47
 10
-63.255937
 20
-74.67512
 11
-26.906092
 21
-74.67512
  0
LINE
  8
型材断面
  6
CONTINUOUS
 10
-27.361157
 20
-80.819877
 11
-27.361157
 21
-81.324875
  0
LINE
  8
型材断面
  6
CONTINUOUS
 10
-26.906157
 20
-74.675055
 11
-26.611157
 21
-74.970055
  0
LINE
  8
型材断面
  6
CONTINUOUS
 10
-26.611157
 20
-74.970055
 11
-26.611157
 21
-80.819877
  0
LINE
  8
型材断面
  6
CONTINUOUS
 10
82.93255
 20
-74.970055
 11
46.28777
 21
-74.970055
  0
LINE
  8
型材断面
  6
CONTINUOUS
 10
82.93255
 20
-80.819877
 11
46.28777
 21
-80.819877
  0
LINE
  8
型材断面
  6
CONTINUOUS
 10
82.93255
 20
-81.324875
 11
47.03777
 21
-81.324875
  0
LINE
  8
型材断面
  6
CONTINUOUS
 62
    47
 10
82.93255
 20
-74.67512
 11
46.582705
 21
-74.67512
  0
LINE
  8
型材断面
  6
CONTINUOUS
 10
47.03777
 20
-80.819877
 11
47.03777
 21
-81.324875
  0
LINE
  8
型材断面
  6
CONTINUOUS
 10
46.58277
 20
-74.675055
 11
46.28777
 21
-74.970055
  0
LINE
  8
型材断面
  6
CONTINUOUS
 10
46.28777
 20
-74.970055
 11
46.28777
 21
-80.819877
  0
LINE
  8
型材断面
  6
CONTINUOUS
 10
82.93255
 20
-74.970055
 11
119.57733
 21
-74.970055
  0
LINE
  8
型材断面
  6
CONTINUOUS
 10
82.93255
 20
-80.819877
 11
119.57733
 21
-80.819877
  0
LINE
  8
型材断面
  6
CONTINUOUS
 10
82.93255
 20
-81.324875
 11
118.82733
 21
-81.324875
  0
LINE
  8
型材断面
  6
CONTINUOUS
 62
    47
 10
82.93255
 20
-74.67512
 11
119.282395
 21
-74.67512
  0
LINE
  8
型材断面
  6
CONTINUOUS
 10
118.82733
 20
-80.819877
 11
118.82733
 21
-81.324875
  0
LINE
  8
型材断面
  6
CONTINUOUS
 10
119.28233
 20
-74.675055
 11
119.57733
 21
-74.970055
  0
LINE
  8
型材断面
  6
CONTINUOUS
 10
119.57733
 20
-74.970055
 11
119.57733
 21
-80.819877
  0
LINE
  8
ガラス
  6
CONTINUOUS
 10
167.304785
 20
60.41462
 11
167.304785
 21
-4.58538
  0
LINE
  8
ガラス
  6
CONTINUOUS
 10
167.304785
 20
-4.58538
 11
102.304785
 21
-4.58538
  0
LINE
  8
ガラス
  6
CONTINUOUS
 10
102.304785
 20
-4.58538
 11
102.304785
 21
60.41462
  0
LINE
  8
ガラス
  6
CONTINUOUS
 10
167.304785
 20
60.41462
 11
102.304785
 21
60.41462
  0
TEXT
  7
TextStyle03
  8
文字
  6
CONTINUOUS
 10
9.175
 20
-14.975
  1
は排水穴位置を示す
 40
3.0
 72
     5
 11
39.175
 21
-14.975
  0
TEXT
  7
TextStyle03
  8
文字
  6
CONTINUOUS
 10
9.175
 20
-22.825
  1
はケーシング位置を示す
 40
3.0
 72
     5
 11
45.925
 21
-22.825
  0
TEXT
  7
TextStyle03
  8
文字
  6
CONTINUOUS
 10
9.175
 20
-26.2
  1
４ヶ所中1ヶ所に設定
 40
3.0
 72
     5
 11
40.8625
 21
-26.2
  0
TEXT
  7
TextStyle03
  8
文字
  6
CONTINUOUS
 10
-71.55
 20
73.125
  1
可動装置側
 40
3.0
 72
     5
 11
-55.05
 21
73.125
  0
TEXT
  7
TextStyle03
  8
文字
  6
CONTINUOUS
 10
-71.55
 20
-22.575
  1
可動装置側
 40
3.0
 72
     5
 11
-55.05
 21
-22.575
  0
TEXT
  7
TextStyle03
  8
文字
  6
CONTINUOUS
 10
-110.25
 20
86.3
  1
アンカーピッチ
 40
3.0
 72
     5
 11
-87.0
 21
86.3
  0
TEXT
  7
TextStyle03
  8
文字
  6
CONTINUOUS
 10
-127.25
 20
-16.5
  1
アンカーピッチ
 40
3.0
 50
90.0
 72
     5
 11
-127.25
 21
6.75
  0
TEXT
  7
TextStyle03
  8
文字
  6
CONTINUOUS
 10
3.575
 20
-33.35
  1
アンカー数量　８ヶ所
 40
3.0
 72
     5
 11
36.95
 21
-33.35
  0
TEXT
  7
TextStyle03
  8
文字
  6
CONTINUOUS
 10
61.2
 20
96.85
  1
ＮＳコード：ＮＳＦ
 40
5.0
 72
     5
 11
111.2
 21
96.85
  0
TEXT
  7
TextStyle03
  8
文字
  6
CONTINUOUS
 10
3.55
 20
-40.175
  1
アームユニット数　２ヶ所
 40
3.0
 72
     5
 11
43.675
 21
-40.175
  0
LINE
  8
文字
  6
CONTINUOUS
 10
-99.900717
 20
-33.416065
 11
-99.900717
 21
-70.72622
  0
LINE
  8
文字
  6
CONTINUOUS
 10
-26.61116
 20
-33.416065
 11
-26.61116
 21
-70.72622
  0
INSERT
  2
*GRP_0011
  8
文字
  6
DOT
 10
0.0
 20
0.0
  0
TEXT
  7
TextStyle03
  8
文字
  6
CONTINUOUS
 10
146.1
 20
3.675
  1
網入り6.8t
 40
3.0
 72
     5
 11
162.7875
 21
3.675
  0
TEXT
  7
TextStyle03
  8
文字
  6
CONTINUOUS
 10
152.725
 20
-1.575
  1
×１枚
 40
3.0
 72
     5
 11
162.475
 21
-1.575
  0
TEXT
  7
TextStyle03
  8
文字
  6
CONTINUOUS
 10
60.975
 20
119.5
  1
シリーズ：ＴＦＦ
 40
5.0
 72
     5
 11
105.35
 21
119.5
  0
TEXT
  7
TextStyle03
  8
文字
  6
CONTINUOUS
 10
60.975
 20
113.875
  1
　　　　　（上下可動）1300×1300タイプ
 40
5.0
 72
     5
 11
167.225
 21
113.875
  0
TEXT
  7
TextStyle03
  8
文字
  6
CONTINUOUS
 10
60.975
 20
108.25
  1
図面名　：外観姿図
 40
5.0
 72
     5
 11
110.975
 21
108.25
  0
TEXT
  7
TextStyle03
  8
文字
  6
CONTINUOUS
 10
60.975
 20
102.625
  1
　　　　　　
 40
5.0
 72
     5
 11
94.1
 21
102.625
  0
INSERT
  2
*DIM_0002
  8
寸法
  6
CONTINUOUS
 10
0.0
 20
0.0
  0
INSERT
  2
*DIM_0003
  8
寸法
  6
CONTINUOUS
 10
0.0
 20
0.0
  0
INSERT
  2
*DIM_0004
  8
寸法
  6
CONTINUOUS
 10
0.0
 20
0.0
  0
INSERT
  2
*DIM_0005
  8
寸法
  6
CONTINUOUS
 10
0.0
 20
0.0
  0
INSERT
  2
*DIM_0006
  8
寸法
  6
CONTINUOUS
 10
0.0
 20
0.0
  0
INSERT
  2
*DIM_0007
  8
寸法
  6
CONTINUOUS
 10
0.0
 20
0.0
  0
INSERT
  2
*DIM_0008
  8
寸法
  6
CONTINUOUS
 10
0.0
 20
0.0
  0
INSERT
  2
*DIM_0024
  8
寸法
  6
CONTINUOUS
 10
0.0
 20
0.0
  0
INSERT
  2
*DIM_0025
  8
寸法
  6
CONTINUOUS
 10
0.0
 20
0.0
  0
INSERT
  2
*DIM_0026
  8
寸法
  6
CONTINUOUS
 10
0.0
 20
0.0
  0
INSERT
  2
*DIM_0027
  8
寸法
  6
CONTINUOUS
 10
0.0
 20
0.0
  0
INSERT
  2
*DIM_0028
  8
寸法
  6
CONTINUOUS
 10
0.0
 20
0.0
  0
LINE
  8
別途部材
  6
CONTINUOUS
 62
    47
 10
-98.505722
 20
-68.79505
 11
-98.505722
 21
-68.89505
  0
ARC
  8
別途部材
  6
CONTINUOUS
 62
    47
 10
-98.355722
 20
-68.79505
 40
0.15
 50
90.0
 51
180.0
  0
LINE
  8
別途部材
  6
CONTINUOUS
 62
    47
 10
-98.270938
 20
-68.89505
 11
-98.270938
 21
-71.14505
  0
LINE
  8
別途部材
  6
CONTINUOUS
 62
    47
 10
-28.006155
 20
-68.79505
 11
-28.006155
 21
-68.89505
  0
ARC
  8
別途部材
  6
CONTINUOUS
 62
    47
 10
-28.156158
 20
-68.79505
 40
0.15
 50
0.0
 51
90.0
  0
LINE
  8
別途部材
  6
CONTINUOUS
 62
    47
 10
-28.24094
 20
-68.89505
 11
-28.24094
 21
-71.14505
  0
LINE
  8
別途部材
  6
CONTINUOUS
 62
    47
 10
-28.006155
 20
-68.89505
 11
-63.255937
 21
-68.89505
  0
LINE
  8
別途部材
  6
CONTINUOUS
 62
    47
 10
-28.156155
 20
-68.64505
 11
-63.255937
 21
-68.64505
  0
LINE
  8
別途部材
  6
CONTINUOUS
 62
    47
 10
-28.24094
 20
-71.14505
 11
-63.255937
 21
-71.14505
  0
LINE
  8
別途部材
  6
CONTINUOUS
 62
    47
 10
-26.61116
 20
-72.870053
 11
-63.255937
 21
-72.870053
  0
LINE
  8
別途部材
  6
CONTINUOUS
 62
    47
 10
-26.61116
 20
-74.620053
 11
-63.255937
 21
-74.620053
  0
LINE
  8
別途部材
  6
CONTINUOUS
 62
    47
 10
-99.900717
 20
-74.620053
 11
-63.255937
 21
-74.620053
  0
LINE
  8
別途部材
  6
CONTINUOUS
 62
    47
 10
-99.900717
 20
-72.870053
 11
-63.255937
 21
-72.870053
  0
LINE
  8
別途部材
  6
CONTINUOUS
 62
    47
 10
-98.270938
 20
-71.14505
 11
-63.255937
 21
-71.14505
  0
LINE
  8
別途部材
  6
CONTINUOUS
 62
    47
 10
-98.355722
 20
-68.64505
 11
-63.255937
 21
-68.64505
  0
LINE
  8
別途部材
  6
CONTINUOUS
 62
    47
 10
-98.505722
 20
-68.89505
 11
-63.255937
 21
-68.89505
  0
LINE
  8
別途部材
  6
CONTINUOUS
 62
    47
 10
47.682765
 20
-68.79505
 11
47.682765
 21
-68.89505
  0
ARC
  8
別途部材
  6
CONTINUOUS
 62
    47
 10
47.832766
 20
-68.79505
 40
0.15
 50
90.0
 51
180.0
  0
LINE
  8
別途部材
  6
CONTINUOUS
 62
    47
 10
47.91755
 20
-68.89505
 11
47.91755
 21
-71.14505
  0
LINE
  8
別途部材
  6
CONTINUOUS
 62
    47
 10
118.182332
 20
-68.79505
 11
118.182332
 21
-68.89505
  0
ARC
  8
別途部材
  6
CONTINUOUS
 62
    47
 10
118.032329
 20
-68.79505
 40
0.15
 50
0.0
 51
90.0
  0
LINE
  8
別途部材
  6
CONTINUOUS
 62
    47
 10
117.947547
 20
-68.89505
 11
117.947547
 21
-71.14505
  0
LINE
  8
別途部材
  6
CONTINUOUS
 62
    47
 10
118.182332
 20
-68.89505
 11
82.93255
 21
-68.89505
  0
LINE
  8
別途部材
  6
CONTINUOUS
 62
    47
 10
118.032332
 20
-68.64505
 11
82.93255
 21
-68.64505
  0
LINE
  8
別途部材
  6
CONTINUOUS
 62
    47
 10
117.947547
 20
-71.14505
 11
82.93255
 21
-71.14505
  0
LINE
  8
別途部材
  6
CONTINUOUS
 62
    47
 10
119.577327
 20
-72.870053
 11
82.93255
 21
-72.870053
  0
LINE
  8
別途部材
  6
CONTINUOUS
 62
    47
 10
119.577327
 20
-74.620053
 11
82.93255
 21
-74.620053
  0
LINE
  8
別途部材
  6
CONTINUOUS
 62
    47
 10
46.28777
 20
-74.620053
 11
82.93255
 21
-74.620053
  0
LINE
  8
別途部材
  6
CONTINUOUS
 62
    47
 10
46.28777
 20
-72.870053
 11
82.93255
 21
-72.870053
  0
LINE
  8
別途部材
  6
CONTINUOUS
 62
    47
 10
47.91755
 20
-71.14505
 11
82.93255
 21
-71.14505
  0
LINE
  8
別途部材
  6
CONTINUOUS
 62
    47
 10
47.832765
 20
-68.64505
 11
82.93255
 21
-68.64505
  0
LINE
  8
別途部材
  6
CONTINUOUS
 62
    47
 10
47.682765
 20
-68.89505
 11
82.93255
 21
-68.89505
  0
LINE
  8
曲げ物
  6
CONTINUOUS
 10
-60.512087
 20
29.599835
 11
-66.055055
 21
24.056868
  0
LINE
  8
曲げ物
  6
CONTINUOUS
 10
-61.567292
 20
27.29567
 11
-63.750888
 21
25.112075
  0
LINE
  8
曲げ物
  6
CONTINUOUS
 10
-62.816252
 20
28.54463
 11
-64.999848
 21
26.361035
  0
LINE
  8
鉄骨等
  6
CONTINUOUS
 62
    47
 10
-99.900717
 20
-74.620053
 11
-99.900717
 21
-72.870053
  0
LINE
  8
鉄骨等
  6
CONTINUOUS
 62
    47
 10
-99.900717
 20
-72.870053
 11
-97.79594
 21
-71.145053
  0
LINE
  8
鉄骨等
  6
CONTINUOUS
 62
    47
 10
-26.61116
 20
-74.620053
 11
-26.61116
 21
-72.870053
  0
LINE
  8
鉄骨等
  6
CONTINUOUS
 62
    47
 10
-26.61116
 20
-72.870053
 11
-28.71594
 21
-71.145053
  0
LINE
  8
鉄骨等
  6
CONTINUOUS
 62
    47
 10
46.28777
 20
-74.620053
 11
46.28777
 21
-72.870053
  0
LINE
  8
鉄骨等
  6
CONTINUOUS
 62
    47
 10
46.28777
 20
-72.870053
 11
48.392547
 21
-71.145053
  0
LINE
  8
鉄骨等
  6
CONTINUOUS
 62
    47
 10
119.577327
 20
-74.620053
 11
119.577327
 21
-72.870053
  0
LINE
  8
鉄骨等
  6
CONTINUOUS
 62
    47
 10
119.577327
 20
-72.870053
 11
117.472547
 21
-71.145053
  0
ENDSEC
  0
EOF
