  0
SECTION
  2
HEADER
  9
$EXTMIN
 10
-210.0
 20
-148.5
  9
$EXTMAX
 10
210.0
 20
148.5
  9
$PDMODE
 70
    32
  9
$PDSIZE
 40
1.5
  9
$LTSCALE
 40
10.0
  0
ENDSEC
  0
SECTION
  2
TABLES
  0
TABLE
  2
LTYPE
 70
    15
  0
LTYPE
  2
CONTINUOUS
 70
    64
  3
実線
 72
    65
 73
     0
 40
0.0
  0
LTYPE
  2
DASHED
 70
    64
  3
破線A
 72
    65
 73
     2
 40
0.6
 49
0.4
 49
-0.2
  0
LTYPE
  2
DASHEDX2
 70
    64
  3
破線B
 72
    65
 73
     2
 40
1.3
 49
0.9
 49
-0.4
  0
LTYPE
  2
DASHDOT
 70
    64
  3
１点鎖線A
 72
    65
 73
     4
 40
0.5375
 49
0.375
 49
-0.05
 49
0.0625
 49
-0.05
  0
LTYPE
  2
DASHDOTX2
 70
    64
  3
１点鎖線B
 72
    65
 73
     4
 40
1.075
 49
0.75
 49
-0.1
 49
0.125
 49
-0.1
  0
LTYPE
  2
DIVIDE2
 70
    64
  3
２点鎖線A
 72
    65
 73
     6
 40
0.5125
 49
0.3
 49
-0.0375
 49
0.05
 49
-0.0375
 49
0.05
 49
-0.0375
  0
LTYPE
  2
DIVIDE
 70
    64
  3
２点鎖線B
 72
    65
 73
     6
 40
1.05
 49
0.55
 49
-0.1
 49
0.1
 49
-0.1
 49
0.1
 49
-0.1
  0
LTYPE
  2
DOT
 70
    64
  3
点線A
 72
    65
 73
     2
 40
0.1125
 49
0.0625
 49
-0.05
  0
LTYPE
  2
DOTX2
 70
    64
  3
点線B
 72
    65
 73
     2
 40
0.275
 49
0.15
 49
-0.125
  0
LTYPE
  2
CONTINUOUS
 70
    64
  3
実線
 72
    65
 73
     0
 40
0.0
  0
LTYPE
  2
CONTINUOUS
 70
    64
  3
実線
 72
    65
 73
     0
 40
0.0
  0
LTYPE
  2
CONTINUOUS
 70
    64
  3
実線
 72
    65
 73
     0
 40
0.0
  0
LTYPE
  2
CONTINUOUS
 70
    64
  3
実線
 72
    65
 73
     0
 40
0.0
  0
LTYPE
  2
CONTINUOUS
 70
    64
  3
実線
 72
    65
 73
     0
 40
0.0
  0
LTYPE
  2
CONTINUOUS
 70
    64
  3
実線
 72
    65
 73
     0
 40
0.0
  0
ENDTAB
  0
TABLE
  2
LAYER
 70
    35
  0
LAYER
  2
通り芯
 70
     0
 62
    15
  6
CONTINUOUS
  0
LAYER
  2
補助線
 70
     0
 62
    16
  6
DOT
  0
LAYER
  2
躯体
 70
     0
 62
    31
  6
CONTINUOUS
  0
LAYER
  2
型材
 70
     0
 62
    32
  6
CONTINUOUS
  0
LAYER
  2
型材断面
 70
     0
 62
    47
  6
CONTINUOUS
  0
LAYER
  2
ガラス
 70
     0
 62
    48
  6
CONTINUOUS
  0
LAYER
  2
ゴム等
 70
     0
 62
    63
  6
CONTINUOUS
  0
LAYER
  2
ボルト／ビス
 70
     0
 62
    64
  6
CONTINUOUS
  0
LAYER
  2
文字
 70
     0
 62
    79
  6
CONTINUOUS
  0
LAYER
  2
寸法
 70
     0
 62
    80
  6
CONTINUOUS
  0
LAYER
  2
ﾊｯﾁﾝｸﾞ
 70
     0
 62
    95
  6
CONTINUOUS
  0
LAYER
  2
別途部材
 70
     0
 62
    96
  6
CONTINUOUS
  0
LAYER
  2
曲げ物
 70
     0
 62
   111
  6
CONTINUOUS
  0
LAYER
  2
鉄骨等
 70
     0
 62
   112
  6
CONTINUOUS
  0
LAYER
  2
St
 70
     0
 62
   127
  6
CONTINUOUS
  0
LAYER
  2
その他部品等
 70
     0
 62
   128
  6
CONTINUOUS
  0
LAYER
  2
ｶﾞｽｹｯﾄ
 70
     0
 62
   143
  6
CONTINUOUS
  0
LAYER
  2
ｽｹｯﾁ
 70
     0
 62
    14
  6
CONTINUOUS
  0
LAYER
  2
0
 70
     0
 62
    17
  6
CONTINUOUS
  0
LAYER
  2
1
 70
     0
 62
    30
  6
CONTINUOUS
  0
LAYER
  2
4
 70
     0
 62
    33
  6
CONTINUOUS
  0
LAYER
  2
ﾚｲﾔ3
 70
     0
 62
    46
  6
CONTINUOUS
  0
LAYER
  2
外形線
 70
     0
 62
    49
  6
CONTINUOUS
  0
LAYER
  2
部品
 70
     0
 62
    14
  6
CONTINUOUS
  0
LAYER
  2
サッシ芯
 70
     0
 62
    17
  6
DASHDOTX2
  0
LAYER
  2
寸法線
 70
     0
 62
    62
  6
CONTINUOUS
  0
LAYER
  2
姿図外形線
 70
     0
 62
    65
  6
CONTINUOUS
  0
LAYER
  2
姿補助線
 70
     0
 62
    30
  6
CONTINUOUS
  0
LAYER
  2
透視線
 70
     0
 62
    78
  6
DOT
  0
LAYER
  2
用紙
 70
     0
 62
    81
  6
CONTINUOUS
  0
LAYER
  2
実線図枠
 70
     0
 62
    94
  6
CONTINUOUS
  0
LAYER
  2
補助図枠
 70
     0
 62
    97
  6
CONTINUOUS
  0
LAYER
  2
建具記号
 70
     0
 62
   110
  6
CONTINUOUS
  0
LAYER
  2
補助文字
 70
     0
 62
   113
  6
CONTINUOUS
  0
LAYER
  2
01
 70
     0
 62
     1
  6
CONTINUOUS
  0
ENDTAB
  0
TABLE
  2
STYLE
 70
    10
  0
STYLE
  2
STANDARD
 70
     0
 40
1.0
 41
1.0
 42
1.0
 50
0.0
 71
     0
  3
TXT
  4
BIGFONT
  0
STYLE
  2
TATE
 70
     4
 40
1.0
 41
1.0
 42
1.0
 50
0.0
 71
     0
  3
TXT
  4
BIGFONT
  0
STYLE
  2
TextStyle03
 70
     0
 40
1.0
 41
1.0
 42
1.0
 50
0.0
 71
     0
  3
MONOTXT
  4
BIGFONT
  0
STYLE
  2
TextStyle04
 70
     0
 40
1.0
 41
1.0
 42
1.0
 50
0.0
 71
     0
  3
MONOTXT
  4
BIGFONT
  0
STYLE
  2
TextStyle05
 70
     0
 40
1.0
 41
1.0
 42
1.0
 50
0.0
 71
     0
  3
MONOTXT
  4
BIGFONT
  0
STYLE
  2
TextStyle06
 70
     0
 40
1.0
 41
1.0
 42
1.0
 50
0.0
 71
     0
  3
MONOTXT
  4
BIGFONT
  0
STYLE
  2
TextStyle07
 70
     0
 40
1.0
 41
1.0
 42
1.0
 50
0.0
 71
     0
  3
MONOTXT
  4
BIGFONT
  0
STYLE
  2
TextStyle08
 70
     0
 40
1.0
 41
1.0
 42
1.0
 50
0.0
 71
     0
  3
MONOTXT
  4
BIGFONT
  0
STYLE
  2
TextStyle09
 70
     0
 40
1.0
 41
1.0
 42
1.0
 50
0.0
 71
     0
  3
MONOTXT
  4
BIGFONT
  0
STYLE
  2
TextStyle10
 70
     0
 40
1.0
 41
1.0
 42
1.0
 50
0.0
 71
     0
  3
MONOTXT
  4
BIGFONT
  0
ENDTAB
  0
ENDSEC
  0
SECTION
  2
BLOCKS
  0
BLOCK
  2
*GRP_0001
 70
    65
 10
0.0
 20
0.0
  0
LINE
  8
型材断面
  6
CONTINUOUS
 10
195.0
 20
133.5
 11
195.0
 21
-133.5
  0
LINE
  8
型材断面
  6
CONTINUOUS
 10
195.0
 20
-133.5
 11
-185.0
 21
-133.5
  0
LINE
  8
型材断面
  6
CONTINUOUS
 10
-185.0
 20
-133.5
 11
-185.0
 21
133.5
  0
LINE
  8
型材断面
  6
CONTINUOUS
 10
195.0
 20
133.5
 11
-185.0
 21
133.5
  0
LINE
  8
型材断面
  6
CONTINUOUS
 10
145.0
 20
-133.5
 11
145.0
 21
-118.5
  0
LINE
  8
型材断面
  6
CONTINUOUS
 10
195.0
 20
-118.5
 11
145.0
 21
-118.5
  0
ENDBLK
  0
BLOCK
  2
*DIM_0002
 70
    65
 10
0.0
 20
0.0
  0
LINE
  8
寸法
  6
BYBLOCK
 62
     0
 10
-72.715978
 20
-63.36811
 11
-72.715978
 21
-47.028465
  0
LINE
  8
寸法
  6
BYBLOCK
 62
     0
 10
-62.465973
 20
-63.36811
 11
-62.465973
 21
-47.028465
  0
LINE
  8
寸法
  6
BYBLOCK
 62
     0
 10
-72.715978
 20
-47.028465
 11
-62.465973
 21
-47.028465
  0
POINT
  8
寸法
 62
     0
 10
-72.715978
 20
-47.028465
  0
POINT
  8
寸法
 62
     0
 10
-62.465973
 20
-47.028465
  0
TEXT
  7
TextStyle03
  8
寸法
  6
CONTINUOUS
 62
     0
 10
-70.0875
 20
-46.6
  1
205
 40
3.0
 72
     5
 11
-65.2125
 21
-46.6
  0
ENDBLK
  0
BLOCK
  2
*DIM_0003
 70
    65
 10
0.0
 20
0.0
  0
LINE
  8
寸法
  6
CONTINUOUS
 10
-23.257275
 20
-59.243113
 11
-22.312995
 21
-59.243113
  0
LINE
  8
寸法
  6
CONTINUOUS
 10
-61.465973
 20
-64.36811
 11
-22.312995
 21
-64.36811
  0
LINE
  8
寸法
  6
CONTINUOUS
 10
-22.312995
 20
-59.243113
 11
-22.312995
 21
-64.36811
  0
POINT
  8
寸法
 10
-22.312995
 20
-59.243113
  0
POINT
  8
寸法
 10
-22.312995
 20
-64.36811
  0
TEXT
  7
TextStyle03
  8
寸法
  6
CONTINUOUS
 10
-19.325
 20
-65.925
  1
102.5
 40
3.0
 50
90.0
 72
     5
 11
-19.325
 21
-57.675
  0
ENDBLK
  0
BLOCK
  2
*DIM_0004
 70
    65
 10
0.0
 20
0.0
  0
LINE
  8
寸法
  6
CONTINUOUS
 10
-12.090973
 20
-109.884533
 11
-12.090973
 21
-30.355642
  0
LINE
  8
寸法
  6
CONTINUOUS
 10
-17.590975
 20
-30.355642
 11
-12.090973
 21
-30.355642
  0
POINT
  8
寸法
 10
-17.590975
 20
-30.355642
  0
POINT
  8
寸法
 10
-12.090973
 20
-30.355642
  0
TEXT
  7
TextStyle03
  8
寸法
  6
CONTINUOUS
 10
-17.2875
 20
-29.975
  1
110
 40
3.0
 72
     5
 11
-12.4125
 21
-29.975
  0
ENDBLK
  0
BLOCK
  2
*DIM_0005
 70
    65
 10
0.0
 20
0.0
  0
LINE
  8
寸法
  6
CONTINUOUS
 10
-7.090973
 20
-114.884533
 11
4.067618
 21
-114.884533
  0
LINE
  8
寸法
  6
CONTINUOUS
 10
-62.590975
 20
-59.243113
 11
4.067618
 21
-59.243113
  0
LINE
  8
寸法
  6
CONTINUOUS
 10
4.067618
 20
-114.884533
 11
4.067618
 21
-59.243113
  0
POINT
  8
寸法
 10
4.067618
 20
-59.243113
  0
TEXT
  7
TextStyle03
  8
寸法
  6
CONTINUOUS
 10
3.675
 20
-91.175
  1
562.8
 40
3.0
 50
90.0
 72
     5
 11
3.675
 21
-82.925
  0
ENDBLK
  0
BLOCK
  2
*DIM_0006
 70
    65
 10
0.0
 20
0.0
  0
LINE
  8
寸法
  6
CONTINUOUS
 10
-123.090978
 20
-109.884533
 11
-123.090978
 21
-30.355642
  0
LINE
  8
寸法
  6
CONTINUOUS
 10
-117.590975
 20
-30.355642
 11
-123.090978
 21
-30.355642
  0
POINT
  8
寸法
 10
-117.590975
 20
-30.355642
  0
POINT
  8
寸法
 10
-123.090978
 20
-30.355642
  0
TEXT
  7
TextStyle03
  8
寸法
  6
CONTINUOUS
 10
-122.7875
 20
-29.975
  1
110
 40
3.0
 72
     5
 11
-117.9125
 21
-29.975
  0
ENDBLK
  0
BLOCK
  2
*DIM_0007
 70
    65
 10
0.0
 20
0.0
  0
LINE
  8
寸法
  6
CONTINUOUS
 10
-117.590975
 20
-30.355642
 11
-17.590975
 21
-30.355642
  0
POINT
  8
寸法
 10
-117.590975
 20
-30.355642
  0
POINT
  8
寸法
 10
-17.590975
 20
-30.355642
  0
TEXT
  7
TextStyle03
  8
寸法
  6
CONTINUOUS
 10
-79.31875
 20
-29.975
  1
呼称寸法　2000
 40
3.0
 72
     5
 11
-55.88125
 21
-29.975
  0
ENDBLK
  0
BLOCK
  2
*DIM_0008
 70
    65
 10
0.0
 20
0.0
  0
LINE
  8
寸法
  6
BYBLOCK
 62
     0
 10
-17.27522
 20
96.0568
 11
3.274208
 21
96.0568
  0
LINE
  8
寸法
  6
BYBLOCK
 62
     0
 10
-9.251345
 20
90.5068
 11
3.274208
 21
90.5068
  0
LINE
  8
寸法
  6
BYBLOCK
 62
     0
 10
3.274208
 20
96.0568
 11
3.274208
 21
90.5068
  0
POINT
  8
寸法
 62
     0
 10
3.274208
 20
96.0568
  0
POINT
  8
寸法
 62
     0
 10
3.274208
 20
90.5068
  0
TEXT
  7
TextStyle03
  8
寸法
  6
CONTINUOUS
 62
     0
 10
2.85
 20
90.8375
  1
111
 40
3.0
 50
90.0
 72
     5
 11
2.85
 21
95.7125
  0
ENDBLK
  0
BLOCK
  2
*DIM_0009
 70
    65
 10
0.0
 20
0.0
  0
LINE
  8
寸法
  6
BYBLOCK
 62
     0
 10
-17.27522
 20
-3.943205
 11
3.274208
 21
-3.943205
  0
LINE
  8
寸法
  6
BYBLOCK
 62
     0
 10
-9.251345
 20
1.606795
 11
3.274208
 21
1.606795
  0
LINE
  8
寸法
  6
BYBLOCK
 62
     0
 10
3.274208
 20
-3.943205
 11
3.274208
 21
1.606795
  0
POINT
  8
寸法
 62
     0
 10
3.274208
 20
-3.943205
  0
POINT
  8
寸法
 62
     0
 10
3.274208
 20
1.606795
  0
TEXT
  7
TextStyle03
  8
寸法
  6
CONTINUOUS
 62
     0
 10
2.875
 20
-3.6125
  1
111
 40
3.0
 50
90.0
 72
     5
 11
2.875
 21
1.2625
  0
ENDBLK
  0
BLOCK
  2
*GRP_0010
 70
    65
 10
0.0
 20
0.0
  0
POLYLINE
  8
寸法
  6
BYBLOCK
 62
     0
 66
     1
  0
VERTEX
  8
寸法
 10
-20.830315
 20
22.34077
  0
VERTEX
  8
寸法
 10
-14.413813
 20
15.924267
  0
VERTEX
  8
寸法
 10
-8.506685
 20
15.924267
  0
SEQEND
  0
ENDBLK
  0
BLOCK
  2
*DIM_0011
 70
    65
 10
0.0
 20
0.0
  0
LINE
  8
寸法
  6
BYBLOCK
 62
     0
 10
-142.845975
 20
81.056797
 11
-153.77673
 21
81.0568
  0
LINE
  8
寸法
  6
BYBLOCK
 62
     0
 10
-142.845978
 20
46.056797
 11
-153.776732
 21
46.0568
  0
LINE
  8
寸法
  6
BYBLOCK
 62
     0
 10
-153.77673
 20
81.0568
 11
-153.776732
 21
46.0568
  0
POINT
  8
寸法
 62
     0
 10
-153.77673
 20
81.0568
  0
POINT
  8
寸法
 62
     0
 10
-153.776732
 20
46.0568
  0
TEXT
  7
TextStyle03
  8
寸法
  6
CONTINUOUS
 62
     0
 10
-154.175
 20
61.1125
  1
700
 40
3.0
 50
90.0
 72
     5
 11
-154.175
 21
65.9875
  0
ENDBLK
  0
BLOCK
  2
*DIM_0012
 70
    65
 10
0.0
 20
0.0
  0
LINE
  8
寸法
  6
BYBLOCK
 62
     0
 10
-142.845978
 20
46.056797
 11
-153.776732
 21
46.056803
  0
LINE
  8
寸法
  6
BYBLOCK
 62
     0
 10
-142.84598
 20
11.056797
 11
-153.776735
 21
11.056803
  0
LINE
  8
寸法
  6
BYBLOCK
 62
     0
 10
-153.776732
 20
46.056803
 11
-153.776735
 21
11.056803
  0
POINT
  8
寸法
 62
     0
 10
-153.776735
 20
11.056803
  0
TEXT
  7
TextStyle03
  8
寸法
  6
CONTINUOUS
 62
     0
 10
-154.175
 20
26.1125
  1
700
 40
3.0
 50
90.0
 72
     5
 11
-154.175
 21
30.9875
  0
ENDBLK
  0
BLOCK
  2
*GRP_0013
 70
    65
 10
0.0
 20
0.0
  0
POLYLINE
  8
寸法
  6
BYBLOCK
 62
     0
 66
     1
  0
VERTEX
  8
寸法
 10
-114.351625
 20
77.362812
  0
VERTEX
  8
寸法
 10
-120.768123
 20
83.779318
  0
VERTEX
  8
寸法
 10
-126.67525
 20
83.77932
  0
SEQEND
  0
ENDBLK
  0
BLOCK
  2
*DIM_0014
 70
    65
 10
0.0
 20
0.0
  0
LINE
  8
寸法
  6
BYBLOCK
 62
     0
 10
-102.590975
 20
116.790245
 11
-102.590975
 21
127.721
  0
LINE
  8
寸法
  6
BYBLOCK
 62
     0
 10
-67.590975
 20
116.790245
 11
-67.590975
 21
127.721
  0
LINE
  8
寸法
  6
BYBLOCK
 62
     0
 10
-102.590975
 20
127.721
 11
-67.590975
 21
127.721
  0
POINT
  8
寸法
 62
     0
 10
-102.590975
 20
127.721
  0
POINT
  8
寸法
 62
     0
 10
-67.590975
 20
127.721
  0
TEXT
  7
TextStyle03
  8
寸法
  6
CONTINUOUS
 62
     0
 10
-87.5625
 20
128.125
  1
700
 40
3.0
 72
     5
 11
-82.6875
 21
128.125
  0
ENDBLK
  0
BLOCK
  2
*DIM_0015
 70
    65
 10
0.0
 20
0.0
  0
LINE
  8
寸法
  6
BYBLOCK
 62
     0
 10
-32.590975
 20
116.790245
 11
-32.590975
 21
127.721
  0
LINE
  8
寸法
  6
BYBLOCK
 62
     0
 10
-67.590975
 20
127.721
 11
-32.590975
 21
127.721
  0
POINT
  8
寸法
 62
     0
 10
-32.590975
 20
127.721
  0
TEXT
  7
TextStyle03
  8
寸法
  6
CONTINUOUS
 62
     0
 10
-52.5625
 20
128.125
  1
700
 40
3.0
 72
     5
 11
-47.6875
 21
128.125
  0
ENDBLK
  0
BLOCK
  2
*GRP_0016
 70
    65
 10
0.0
 20
0.0
  0
LINE
  8
補助線
  6
BYBLOCK
 62
    64
 10
155.310943
 20
-107.67299
 11
155.496703
 21
-107.840295
  0
LINE
  8
補助線
  6
BYBLOCK
 62
    64
 10
155.487475
 20
-107.663763
 11
155.32017
 21
-107.849522
  0
LINE
  8
補助線
  6
BYBLOCK
 62
    64
 10
139.424052
 20
-93.36526
 11
139.238285
 21
-93.197955
  0
LINE
  8
補助線
  6
BYBLOCK
 62
    64
 10
139.414818
 20
-93.188723
 11
139.247515
 21
-93.374493
  0
LINE
  8
補助線
  6
BYBLOCK
 62
    64
 10
123.351195
 20
-78.890442
 11
123.165425
 21
-78.723147
  0
LINE
  8
補助線
  6
BYBLOCK
 62
    64
 10
123.341957
 20
-78.71391
 11
123.174665
 21
-78.89968
  0
LINE
  8
型材断面
  6
CONTINUOUS
 10
156.611875
 20
-107.162407
 11
156.667267
 21
-108.221617
  0
LINE
  8
型材断面
  6
CONTINUOUS
 10
156.667267
 20
-108.221617
 11
155.998057
 21
-108.964695
  0
LINE
  8
型材断面
  6
CONTINUOUS
 10
155.998057
 20
-108.964695
 11
154.938847
 21
-109.020088
  0
LINE
  8
型材断面
  6
CONTINUOUS
 10
123.72327
 20
-77.54334
 11
122.66406
 21
-77.598755
  0
LINE
  8
型材断面
  6
CONTINUOUS
 10
122.66406
 20
-77.598755
 11
121.994858
 21
-78.341835
  0
LINE
  8
型材断面
  6
CONTINUOUS
 10
121.994858
 20
-78.341835
 11
122.05027
 21
-79.401045
  0
LINE
  8
型材断面
  6
CONTINUOUS
 10
156.611875
 20
-107.162407
 11
123.72371
 21
-77.543318
  0
LINE
  8
型材断面
  6
CONTINUOUS
 10
154.938847
 20
-109.020088
 11
122.050247
 21
-79.40062
  0
LINE
  8
ボルト／ビス
  6
CONTINUOUS
 62
    64
 10
155.712915
 20
-107.41343
 11
155.855597
 21
-107.852722
  0
LINE
  8
ボルト／ビス
  6
CONTINUOUS
 62
    64
 10
155.712915
 20
-107.41343
 11
155.261142
 21
-107.317355
  0
LINE
  8
ボルト／ビス
  6
CONTINUOUS
 62
    64
 10
155.09473
 20
-108.099855
 11
155.546502
 21
-108.19593
  0
LINE
  8
ボルト／ビス
  6
CONTINUOUS
 62
    64
 10
155.09473
 20
-108.099855
 11
154.952047
 21
-107.660563
  0
CIRCLE
  8
ボルト／ビス
  6
CONTINUOUS
 62
    64
 10
155.403823
 20
-107.756643
 40
0.4
  0
LINE
  8
ボルト／ビス
  6
CONTINUOUS
 62
    64
 10
155.261142
 20
-107.317355
 11
154.952047
 21
-107.660563
  0
LINE
  8
ボルト／ビス
  6
CONTINUOUS
 62
    64
 10
155.855597
 20
-107.852722
 11
155.546502
 21
-108.19593
  0
LINE
  8
ボルト／ビス
  6
CONTINUOUS
 62
    64
 10
139.640265
 20
-92.9384
 11
139.188485
 21
-92.842317
  0
LINE
  8
ボルト／ビス
  6
CONTINUOUS
 62
    64
 10
139.640265
 20
-92.9384
 11
139.782948
 21
-93.377685
  0
LINE
  8
ボルト／ビス
  6
CONTINUOUS
 62
    64
 10
139.022072
 20
-93.624817
 11
138.879392
 21
-93.185527
  0
LINE
  8
ボルト／ビス
  6
CONTINUOUS
 62
    64
 10
139.022072
 20
-93.624817
 11
139.473848
 21
-93.720895
  0
CIRCLE
  8
ボルト／ビス
  6
CONTINUOUS
 62
    64
 10
139.331165
 20
-93.281607
 40
0.4
  0
LINE
  8
ボルト／ビス
  6
CONTINUOUS
 62
    64
 10
139.782948
 20
-93.377685
 11
139.473848
 21
-93.720895
  0
LINE
  8
ボルト／ビス
  6
CONTINUOUS
 62
    64
 10
139.188485
 20
-92.842317
 11
138.879392
 21
-93.185527
  0
LINE
  8
ボルト／ビス
  6
CONTINUOUS
 62
    64
 10
123.567403
 20
-78.463583
 11
123.115623
 21
-78.367508
  0
LINE
  8
ボルト／ビス
  6
CONTINUOUS
 62
    64
 10
123.567403
 20
-78.463583
 11
123.710082
 21
-78.902867
  0
LINE
  8
ボルト／ビス
  6
CONTINUOUS
 62
    64
 10
122.949217
 20
-79.15001
 11
122.806535
 21
-78.710722
  0
LINE
  8
ボルト／ビス
  6
CONTINUOUS
 62
    64
 10
122.949217
 20
-79.15001
 11
123.400998
 21
-79.246083
  0
CIRCLE
  8
ボルト／ビス
  6
CONTINUOUS
 62
    64
 10
123.25831
 20
-78.806795
 40
0.4
  0
LINE
  8
ボルト／ビス
  6
CONTINUOUS
 62
    64
 10
123.710082
 20
-78.902867
 11
123.400998
 21
-79.246083
  0
LINE
  8
ボルト／ビス
  6
CONTINUOUS
 62
    64
 10
123.115623
 20
-78.367508
 11
122.806535
 21
-78.710722
  0
ENDBLK
  0
BLOCK
  2
*GRP_0017
 70
    65
 10
0.0
 20
0.0
  0
LINE
  8
補助線
  6
BYBLOCK
 62
    64
 10
123.351392
 20
-107.67299
 11
123.165632
 21
-107.840295
  0
LINE
  8
補助線
  6
BYBLOCK
 62
    64
 10
123.17486
 20
-107.663763
 11
123.342165
 21
-107.849522
  0
LINE
  8
補助線
  6
BYBLOCK
 62
    64
 10
139.238283
 20
-93.36526
 11
139.42405
 21
-93.197955
  0
LINE
  8
補助線
  6
BYBLOCK
 62
    64
 10
139.247517
 20
-93.188723
 11
139.41482
 21
-93.374493
  0
LINE
  8
補助線
  6
BYBLOCK
 62
    64
 10
155.31114
 20
-78.890442
 11
155.49691
 21
-78.723147
  0
LINE
  8
補助線
  6
BYBLOCK
 62
    64
 10
155.320378
 20
-78.71391
 11
155.48767
 21
-78.89968
  0
LINE
  8
型材断面
  6
CONTINUOUS
 10
122.05046
 20
-107.162407
 11
121.995068
 21
-108.221617
  0
LINE
  8
型材断面
  6
CONTINUOUS
 10
121.995068
 20
-108.221617
 11
122.664278
 21
-108.964695
  0
LINE
  8
型材断面
  6
CONTINUOUS
 10
122.664278
 20
-108.964695
 11
123.723488
 21
-109.020088
  0
LINE
  8
型材断面
  6
CONTINUOUS
 10
154.939065
 20
-77.54334
 11
155.998275
 21
-77.598755
  0
LINE
  8
型材断面
  6
CONTINUOUS
 10
155.998275
 20
-77.598755
 11
156.667477
 21
-78.341835
  0
LINE
  8
型材断面
  6
CONTINUOUS
 10
156.667477
 20
-78.341835
 11
156.612065
 21
-79.401045
  0
LINE
  8
型材断面
  6
CONTINUOUS
 10
122.05046
 20
-107.162407
 11
154.938625
 21
-77.543318
  0
LINE
  8
型材断面
  6
CONTINUOUS
 10
123.723488
 20
-109.020088
 11
156.612088
 21
-79.40062
  0
LINE
  8
ボルト／ビス
  6
CONTINUOUS
 62
    64
 10
122.94942
 20
-107.41343
 11
122.806738
 21
-107.852722
  0
LINE
  8
ボルト／ビス
  6
CONTINUOUS
 62
    64
 10
122.94942
 20
-107.41343
 11
123.401193
 21
-107.317355
  0
LINE
  8
ボルト／ビス
  6
CONTINUOUS
 62
    64
 10
123.567605
 20
-108.099855
 11
123.115833
 21
-108.19593
  0
LINE
  8
ボルト／ビス
  6
CONTINUOUS
 62
    64
 10
123.567605
 20
-108.099855
 11
123.710288
 21
-107.660563
  0
CIRCLE
  8
ボルト／ビス
  6
CONTINUOUS
 62
    64
 10
123.258512
 20
-107.756643
 40
0.4
  0
LINE
  8
ボルト／ビス
  6
CONTINUOUS
 62
    64
 10
123.401193
 20
-107.317355
 11
123.710288
 21
-107.660563
  0
LINE
  8
ボルト／ビス
  6
CONTINUOUS
 62
    64
 10
122.806738
 20
-107.852722
 11
123.115833
 21
-108.19593
  0
LINE
  8
ボルト／ビス
  6
CONTINUOUS
 62
    64
 10
139.02207
 20
-92.9384
 11
139.47385
 21
-92.842317
  0
LINE
  8
ボルト／ビス
  6
CONTINUOUS
 62
    64
 10
139.02207
 20
-92.9384
 11
138.879387
 21
-93.377685
  0
LINE
  8
ボルト／ビス
  6
CONTINUOUS
 62
    64
 10
139.640263
 20
-93.624817
 11
139.782942
 21
-93.185527
  0
LINE
  8
ボルト／ビス
  6
CONTINUOUS
 62
    64
 10
139.640263
 20
-93.624817
 11
139.188487
 21
-93.720895
  0
CIRCLE
  8
ボルト／ビス
  6
CONTINUOUS
 62
    64
 10
139.33117
 20
-93.281607
 40
0.4
  0
LINE
  8
ボルト／ビス
  6
CONTINUOUS
 62
    64
 10
138.879387
 20
-93.377685
 11
139.188487
 21
-93.720895
  0
LINE
  8
ボルト／ビス
  6
CONTINUOUS
 62
    64
 10
139.47385
 20
-92.842317
 11
139.782942
 21
-93.185527
  0
LINE
  8
ボルト／ビス
  6
CONTINUOUS
 62
    64
 10
155.094932
 20
-78.463583
 11
155.546712
 21
-78.367508
  0
LINE
  8
ボルト／ビス
  6
CONTINUOUS
 62
    64
 10
155.094932
 20
-78.463583
 11
154.952253
 21
-78.902867
  0
LINE
  8
ボルト／ビス
  6
CONTINUOUS
 62
    64
 10
155.713118
 20
-79.15001
 11
155.8558
 21
-78.710722
  0
LINE
  8
ボルト／ビス
  6
CONTINUOUS
 62
    64
 10
155.713118
 20
-79.15001
 11
155.261338
 21
-79.246083
  0
CIRCLE
  8
ボルト／ビス
  6
CONTINUOUS
 62
    64
 10
155.404025
 20
-78.806795
 40
0.4
  0
LINE
  8
ボルト／ビス
  6
CONTINUOUS
 62
    64
 10
154.952253
 20
-78.902867
 11
155.261338
 21
-79.246083
  0
LINE
  8
ボルト／ビス
  6
CONTINUOUS
 62
    64
 10
155.546712
 20
-78.367508
 11
155.8558
 21
-78.710722
  0
ENDBLK
  0
BLOCK
  2
*GRP_0018
 70
    65
 10
0.0
 20
0.0
  0
LINE
  8
補助線
  6
BYBLOCK
 62
    64
 10
59.496823
 20
-107.67299
 11
59.311062
 21
-107.840295
  0
LINE
  8
補助線
  6
BYBLOCK
 62
    64
 10
59.32029
 20
-107.663763
 11
59.487595
 21
-107.849522
  0
LINE
  8
補助線
  6
BYBLOCK
 62
    64
 10
75.383713
 20
-93.36526
 11
75.56948
 21
-93.197955
  0
LINE
  8
補助線
  6
BYBLOCK
 62
    64
 10
75.392948
 20
-93.188723
 11
75.56025
 21
-93.374493
  0
LINE
  8
補助線
  6
BYBLOCK
 62
    64
 10
91.45657
 20
-78.890442
 11
91.64234
 21
-78.723147
  0
LINE
  8
補助線
  6
BYBLOCK
 62
    64
 10
91.465807
 20
-78.71391
 11
91.6331
 21
-78.89968
  0
LINE
  8
型材断面
  6
CONTINUOUS
 10
58.19589
 20
-107.162407
 11
58.140497
 21
-108.221617
  0
LINE
  8
型材断面
  6
CONTINUOUS
 10
58.140497
 20
-108.221617
 11
58.809707
 21
-108.964695
  0
LINE
  8
型材断面
  6
CONTINUOUS
 10
58.809707
 20
-108.964695
 11
59.868917
 21
-109.020088
  0
LINE
  8
型材断面
  6
CONTINUOUS
 10
91.084495
 20
-77.54334
 11
92.143705
 21
-77.598755
  0
LINE
  8
型材断面
  6
CONTINUOUS
 10
92.143705
 20
-77.598755
 11
92.812908
 21
-78.341835
  0
LINE
  8
型材断面
  6
CONTINUOUS
 10
92.812908
 20
-78.341835
 11
92.757495
 21
-79.401045
  0
LINE
  8
型材断面
  6
CONTINUOUS
 10
58.19589
 20
-107.162407
 11
91.084055
 21
-77.543318
  0
LINE
  8
型材断面
  6
CONTINUOUS
 10
59.868917
 20
-109.020088
 11
92.757517
 21
-79.40062
  0
LINE
  8
ボルト／ビス
  6
CONTINUOUS
 62
    64
 10
59.09485
 20
-107.41343
 11
58.952167
 21
-107.852722
  0
LINE
  8
ボルト／ビス
  6
CONTINUOUS
 62
    64
 10
59.09485
 20
-107.41343
 11
59.546623
 21
-107.317355
  0
LINE
  8
ボルト／ビス
  6
CONTINUOUS
 62
    64
 10
59.713035
 20
-108.099855
 11
59.261262
 21
-108.19593
  0
LINE
  8
ボルト／ビス
  6
CONTINUOUS
 62
    64
 10
59.713035
 20
-108.099855
 11
59.855717
 21
-107.660563
  0
CIRCLE
  8
ボルト／ビス
  6
CONTINUOUS
 62
    64
 10
59.403943
 20
-107.756643
 40
0.4
  0
LINE
  8
ボルト／ビス
  6
CONTINUOUS
 62
    64
 10
59.546623
 20
-107.317355
 11
59.855717
 21
-107.660563
  0
LINE
  8
ボルト／ビス
  6
CONTINUOUS
 62
    64
 10
58.952167
 20
-107.852722
 11
59.261262
 21
-108.19593
  0
LINE
  8
ボルト／ビス
  6
CONTINUOUS
 62
    64
 10
75.1675
 20
-92.9384
 11
75.61928
 21
-92.842317
  0
LINE
  8
ボルト／ビス
  6
CONTINUOUS
 62
    64
 10
75.1675
 20
-92.9384
 11
75.024818
 21
-93.377685
  0
LINE
  8
ボルト／ビス
  6
CONTINUOUS
 62
    64
 10
75.785693
 20
-93.624817
 11
75.928372
 21
-93.185527
  0
LINE
  8
ボルト／ビス
  6
CONTINUOUS
 62
    64
 10
75.785693
 20
-93.624817
 11
75.333917
 21
-93.720895
  0
CIRCLE
  8
ボルト／ビス
  6
CONTINUOUS
 62
    64
 10
75.4766
 20
-93.281607
 40
0.4
  0
LINE
  8
ボルト／ビス
  6
CONTINUOUS
 62
    64
 10
75.024818
 20
-93.377685
 11
75.333917
 21
-93.720895
  0
LINE
  8
ボルト／ビス
  6
CONTINUOUS
 62
    64
 10
75.61928
 20
-92.842317
 11
75.928372
 21
-93.185527
  0
LINE
  8
ボルト／ビス
  6
CONTINUOUS
 62
    64
 10
91.240363
 20
-78.463583
 11
91.692143
 21
-78.367508
  0
LINE
  8
ボルト／ビス
  6
CONTINUOUS
 62
    64
 10
91.240363
 20
-78.463583
 11
91.097682
 21
-78.902867
  0
LINE
  8
ボルト／ビス
  6
CONTINUOUS
 62
    64
 10
91.858547
 20
-79.15001
 11
92.00123
 21
-78.710722
  0
LINE
  8
ボルト／ビス
  6
CONTINUOUS
 62
    64
 10
91.858547
 20
-79.15001
 11
91.406768
 21
-79.246083
  0
CIRCLE
  8
ボルト／ビス
  6
CONTINUOUS
 62
    64
 10
91.549455
 20
-78.806795
 40
0.4
  0
LINE
  8
ボルト／ビス
  6
CONTINUOUS
 62
    64
 10
91.097682
 20
-78.902867
 11
91.406768
 21
-79.246083
  0
LINE
  8
ボルト／ビス
  6
CONTINUOUS
 62
    64
 10
91.692143
 20
-78.367508
 11
92.00123
 21
-78.710722
  0
ENDBLK
  0
BLOCK
  2
*GRP_0019
 70
    65
 10
0.0
 20
0.0
  0
LINE
  8
補助線
  6
BYBLOCK
 62
    64
 10
91.456373
 20
-107.67299
 11
91.642132
 21
-107.840295
  0
LINE
  8
補助線
  6
BYBLOCK
 62
    64
 10
91.632905
 20
-107.663763
 11
91.4656
 21
-107.849522
  0
LINE
  8
補助線
  6
BYBLOCK
 62
    64
 10
75.569483
 20
-93.36526
 11
75.383715
 21
-93.197955
  0
LINE
  8
補助線
  6
BYBLOCK
 62
    64
 10
75.560247
 20
-93.188723
 11
75.392945
 21
-93.374493
  0
LINE
  8
補助線
  6
BYBLOCK
 62
    64
 10
59.496625
 20
-78.890442
 11
59.310855
 21
-78.723147
  0
LINE
  8
補助線
  6
BYBLOCK
 62
    64
 10
59.487387
 20
-78.71391
 11
59.320095
 21
-78.89968
  0
LINE
  8
型材断面
  6
CONTINUOUS
 10
92.757305
 20
-107.162407
 11
92.812697
 21
-108.221617
  0
LINE
  8
型材断面
  6
CONTINUOUS
 10
92.812697
 20
-108.221617
 11
92.143488
 21
-108.964695
  0
LINE
  8
型材断面
  6
CONTINUOUS
 10
92.143488
 20
-108.964695
 11
91.084277
 21
-109.020088
  0
LINE
  8
型材断面
  6
CONTINUOUS
 10
59.8687
 20
-77.54334
 11
58.80949
 21
-77.598755
  0
LINE
  8
型材断面
  6
CONTINUOUS
 10
58.80949
 20
-77.598755
 11
58.140287
 21
-78.341835
  0
LINE
  8
型材断面
  6
CONTINUOUS
 10
58.140287
 20
-78.341835
 11
58.1957
 21
-79.401045
  0
LINE
  8
型材断面
  6
CONTINUOUS
 10
92.757305
 20
-107.162407
 11
59.86914
 21
-77.543318
  0
LINE
  8
型材断面
  6
CONTINUOUS
 10
91.084277
 20
-109.020088
 11
58.195678
 21
-79.40062
  0
LINE
  8
ボルト／ビス
  6
CONTINUOUS
 62
    64
 10
91.858345
 20
-107.41343
 11
92.001028
 21
-107.852722
  0
LINE
  8
ボルト／ビス
  6
CONTINUOUS
 62
    64
 10
91.858345
 20
-107.41343
 11
91.406573
 21
-107.317355
  0
LINE
  8
ボルト／ビス
  6
CONTINUOUS
 62
    64
 10
91.24016
 20
-108.099855
 11
91.691933
 21
-108.19593
  0
LINE
  8
ボルト／ビス
  6
CONTINUOUS
 62
    64
 10
91.24016
 20
-108.099855
 11
91.097478
 21
-107.660563
  0
CIRCLE
  8
ボルト／ビス
  6
CONTINUOUS
 62
    64
 10
91.549252
 20
-107.756643
 40
0.4
  0
LINE
  8
ボルト／ビス
  6
CONTINUOUS
 62
    64
 10
91.406573
 20
-107.317355
 11
91.097478
 21
-107.660563
  0
LINE
  8
ボルト／ビス
  6
CONTINUOUS
 62
    64
 10
92.001028
 20
-107.852722
 11
91.691933
 21
-108.19593
  0
LINE
  8
ボルト／ビス
  6
CONTINUOUS
 62
    64
 10
75.785695
 20
-92.9384
 11
75.333915
 21
-92.842317
  0
LINE
  8
ボルト／ビス
  6
CONTINUOUS
 62
    64
 10
75.785695
 20
-92.9384
 11
75.928377
 21
-93.377685
  0
LINE
  8
ボルト／ビス
  6
CONTINUOUS
 62
    64
 10
75.167503
 20
-93.624817
 11
75.024822
 21
-93.185527
  0
LINE
  8
ボルト／ビス
  6
CONTINUOUS
 62
    64
 10
75.167503
 20
-93.624817
 11
75.619277
 21
-93.720895
  0
CIRCLE
  8
ボルト／ビス
  6
CONTINUOUS
 62
    64
 10
75.476595
 20
-93.281607
 40
0.4
  0
LINE
  8
ボルト／ビス
  6
CONTINUOUS
 62
    64
 10
75.928377
 20
-93.377685
 11
75.619277
 21
-93.720895
  0
LINE
  8
ボルト／ビス
  6
CONTINUOUS
 62
    64
 10
75.333915
 20
-92.842317
 11
75.024822
 21
-93.185527
  0
LINE
  8
ボルト／ビス
  6
CONTINUOUS
 62
    64
 10
59.712832
 20
-78.463583
 11
59.261053
 21
-78.367508
  0
LINE
  8
ボルト／ビス
  6
CONTINUOUS
 62
    64
 10
59.712832
 20
-78.463583
 11
59.855513
 21
-78.902867
  0
LINE
  8
ボルト／ビス
  6
CONTINUOUS
 62
    64
 10
59.094648
 20
-79.15001
 11
58.951965
 21
-78.710722
  0
LINE
  8
ボルト／ビス
  6
CONTINUOUS
 62
    64
 10
59.094648
 20
-79.15001
 11
59.546428
 21
-79.246083
  0
CIRCLE
  8
ボルト／ビス
  6
CONTINUOUS
 62
    64
 10
59.40374
 20
-78.806795
 40
0.4
  0
LINE
  8
ボルト／ビス
  6
CONTINUOUS
 62
    64
 10
59.855513
 20
-78.902867
 11
59.546428
 21
-79.246083
  0
LINE
  8
ボルト／ビス
  6
CONTINUOUS
 62
    64
 10
59.261053
 20
-78.367508
 11
58.951965
 21
-78.710722
  0
ENDBLK
  0
BLOCK
  2
*DIM_0020
 70
    65
 10
0.0
 20
0.0
  0
LINE
  8
寸法
  6
CONTINUOUS
 10
167.053885
 20
-105.20116
 11
183.654755
 21
-105.20116
  0
LINE
  8
寸法
  6
CONTINUOUS
 10
167.053885
 20
-80.20116
 11
183.654755
 21
-80.20116
  0
LINE
  8
寸法
  6
CONTINUOUS
 10
183.654755
 20
-105.20116
 11
183.654755
 21
-80.20116
  0
POINT
  8
寸法
 10
183.654755
 20
-105.20116
  0
POINT
  8
寸法
 10
183.654755
 20
-80.20116
  0
TEXT
  7
TextStyle03
  8
寸法
  6
CONTINUOUS
 10
183.275
 20
-101.81875
  1
上昇436以上
 40
3.0
 50
90.0
 72
     5
 11
183.275
 21
-83.63125
  0
ENDBLK
  0
BLOCK
  2
*GRP_0021
 70
    65
 10
0.0
 20
0.0
  0
LINE
  8
型材断面
  6
DOT
 10
102.27888
 20
-25.334738
 11
102.349592
 21
-25.40545
  0
LINE
  8
型材断面
  6
DOT
 10
102.27888
 20
-25.334738
 11
107.40388
 21
-25.334738
  0
LINE
  8
型材断面
  6
DOT
 10
102.349592
 20
-25.40545
 11
107.40388
 21
-25.40545
  0
LINE
  8
型材断面
  6
DOT
 10
102.27888
 20
-25.334738
 11
107.403882
 21
-20.20974
  0
LINE
  8
型材断面
  6
DOT
 10
112.528885
 20
-25.334738
 11
112.458173
 21
-25.40545
  0
LINE
  8
型材断面
  6
DOT
 10
112.528885
 20
-25.334738
 11
107.403885
 21
-25.334738
  0
LINE
  8
型材断面
  6
DOT
 10
112.458173
 20
-25.40545
 11
107.403885
 21
-25.40545
  0
LINE
  8
型材断面
  6
DOT
 10
112.528885
 20
-25.334738
 11
107.403882
 21
-20.20974
  0
LINE
  8
型材断面
  6
DOT
 10
109.153882
 20
-25.334738
 11
109.153882
 21
-74.401655
  0
LINE
  8
型材断面
  6
DOT
 10
105.653882
 20
-25.334738
 11
105.653882
 21
-74.401655
  0
LINE
  8
型材断面
  6
DOT
 10
107.403882
 20
-74.401655
 11
105.653882
 21
-74.401655
  0
LINE
  8
型材断面
  6
DOT
 10
107.403882
 20
-74.401655
 11
109.153882
 21
-74.401655
  0
LINE
  8
型材断面
  6
DOT
 10
107.403882
 20
-80.20116
 11
162.053885
 21
-80.20116
  0
LINE
  8
型材断面
  6
DOT
 10
107.403882
 20
-79.50116
 11
162.903885
 21
-79.50116
  0
LINE
  8
型材断面
  6
DOT
 10
107.403882
 20
-76.55116
 11
162.903885
 21
-76.55116
  0
LINE
  8
型材断面
  6
DOT
 10
107.403882
 20
-75.85116
 11
162.903885
 21
-75.85116
  0
LINE
  8
型材断面
  6
DOT
 62
    47
 10
162.903885
 20
-76.55116
 11
162.903885
 21
-79.50116
  0
LINE
  8
型材断面
  6
DOT
 62
    47
 10
162.053885
 20
-79.50116
 11
162.053885
 21
-80.20116
  0
LINE
  8
型材断面
  6
DOT
 62
    47
 10
161.80793
 20
-74.75521
 11
162.903882
 21
-75.85116
  0
LINE
  8
型材断面
  6
DOT
 62
    47
 10
162.903882
 20
-76.55116
 11
162.903882
 21
-75.85116
  0
LINE
  8
型材断面
  6
DOT
 10
107.403882
 20
-74.75521
 11
161.807933
 21
-74.75521
  0
LINE
  8
型材断面
  6
DOT
 10
157.63872
 20
-74.401655
 11
108.642515
 21
-25.40545
  0
LINE
  8
型材断面
  6
DOT
 10
157.780142
 20
-74.401655
 11
108.783937
 21
-25.40545
  0
LINE
  8
型材断面
  6
DOT
 10
107.403882
 20
-20.35116
 11
161.807933
 21
-74.75521
  0
LINE
  8
型材断面
  6
DOT
 10
157.63872
 20
-74.401655
 11
161.454378
 21
-74.401655
  0
LINE
  8
型材断面
  6
DOT
 10
107.403882
 20
-80.20116
 11
52.75388
 21
-80.20116
  0
LINE
  8
型材断面
  6
DOT
 10
107.403882
 20
-79.50116
 11
51.90388
 21
-79.50116
  0
LINE
  8
型材断面
  6
DOT
 10
107.403882
 20
-76.55116
 11
51.90388
 21
-76.55116
  0
LINE
  8
型材断面
  6
DOT
 10
107.403882
 20
-75.85116
 11
51.90388
 21
-75.85116
  0
LINE
  8
型材断面
  6
DOT
 62
    47
 10
51.90388
 20
-76.55116
 11
51.90388
 21
-79.50116
  0
LINE
  8
型材断面
  6
DOT
 62
    47
 10
52.75388
 20
-79.50116
 11
52.75388
 21
-80.20116
  0
LINE
  8
型材断面
  6
DOT
 62
    47
 10
52.999835
 20
-74.75521
 11
51.903882
 21
-75.85116
  0
LINE
  8
型材断面
  6
DOT
 62
    47
 10
51.903882
 20
-76.55116
 11
51.903882
 21
-75.85116
  0
LINE
  8
型材断面
  6
DOT
 10
107.403882
 20
-74.75521
 11
52.999833
 21
-74.75521
  0
LINE
  8
型材断面
  6
DOT
 10
57.169045
 20
-74.401655
 11
106.16525
 21
-25.40545
  0
LINE
  8
型材断面
  6
DOT
 10
57.027622
 20
-74.401655
 11
106.023827
 21
-25.40545
  0
LINE
  8
型材断面
  6
DOT
 10
107.403882
 20
-20.35116
 11
52.999833
 21
-74.75521
  0
LINE
  8
型材断面
  6
DOT
 10
57.169045
 20
-74.401655
 11
53.353387
 21
-74.401655
  0
LINE
  8
ガラス
  6
DOT
 10
96.316695
 20
-52.576782
 11
92.44406
 21
-56.449417
  0
LINE
  8
ガラス
  6
DOT
 10
95.436372
 20
-54.17514
 11
94.042418
 21
-55.569095
  0
LINE
  8
ガラス
  6
DOT
 10
94.718338
 20
-53.457105
 11
93.324382
 21
-54.85106
  0
LINE
  8
ガラス
  6
DOT
 10
122.06989
 20
-52.576782
 11
118.197255
 21
-56.449417
  0
LINE
  8
ガラス
  6
DOT
 10
121.189567
 20
-54.17514
 11
119.795613
 21
-55.569095
  0
LINE
  8
ガラス
  6
DOT
 10
120.471532
 20
-53.457105
 11
119.077578
 21
-54.85106
  0
ENDBLK
  0
BLOCK
  2
*DIM_0024
 70
    65
 10
0.0
 20
0.0
  0
LINE
  8
寸法
  6
CONTINUOUS
 10
-7.090973
 20
-114.884533
 11
4.067618
 21
-114.884533
  0
LINE
  8
寸法
  6
CONTINUOUS
 10
-8.446195
 20
-125.354533
 11
4.067618
 21
-125.354533
  0
LINE
  8
寸法
  6
CONTINUOUS
 10
4.067618
 20
-114.884533
 11
4.067618
 21
-125.354533
  0
POINT
  8
寸法
 10
4.067618
 20
-114.884533
  0
POINT
  8
寸法
 10
4.067618
 20
-125.354533
  0
TEXT
  7
TextStyle03
  8
寸法
  6
CONTINUOUS
 10
3.675
 20
-124.25
  1
209.4
 40
3.0
 50
90.0
 72
     5
 11
3.675
 21
-116.0
  0
ENDBLK
  0
BLOCK
  2
*DIM_0026
 70
    65
 10
0.0
 20
0.0
  0
LINE
  8
寸法
  6
BYBLOCK
 62
     0
 10
148.15
 20
11.57575
 11
148.15
 21
1.18893
  0
LINE
  8
寸法
  6
BYBLOCK
 62
     0
 10
96.678615
 20
11.57575
 11
96.678615
 21
1.18893
  0
LINE
  8
寸法
  6
BYBLOCK
 62
     0
 10
148.15
 20
1.18893
 11
96.678615
 21
1.18893
  0
POINT
  8
寸法
 62
     0
 10
148.15
 20
1.18893
  0
POINT
  8
寸法
 62
     0
 10
96.678615
 20
1.18893
  0
TEXT
  7
TextStyle03
  8
寸法
  6
CONTINUOUS
 62
     0
 10
115.775
 20
1.55
  1
1029.4
 40
4.0
 72
     5
 11
129.025
 21
1.55
  0
ENDBLK
  0
BLOCK
  2
*DIM_0029
 70
    65
 10
0.0
 20
0.0
  0
LINE
  8
寸法
  6
BYBLOCK
 62
     0
 10
151.15
 20
14.57575
 11
164.141787
 21
14.57575
  0
LINE
  8
寸法
  6
BYBLOCK
 62
     0
 10
151.15
 20
87.36728
 11
164.141787
 21
87.36728
  0
LINE
  8
寸法
  6
BYBLOCK
 62
     0
 10
164.141787
 20
14.57575
 11
164.141787
 21
87.36728
  0
POINT
  8
寸法
 62
     0
 10
164.141787
 20
14.57575
  0
POINT
  8
寸法
 62
     0
 10
164.141787
 20
87.36728
  0
TEXT
  7
TextStyle03
  8
寸法
  6
CONTINUOUS
 62
     0
 10
163.75
 20
44.325
  1
1455.8
 40
4.0
 50
90.0
 72
     5
 11
163.75
 21
57.575
  0
ENDBLK
  0
ENDSEC
  0
SECTION
  2
ENTITIES
  0
POLYLINE
  8
通り芯
  6
CONTINUOUS
 66
     1
 70
     1
  0
VERTEX
  8
通り芯
 10
-210.0
 20
-148.5
  0
VERTEX
  8
通り芯
 10
210.0
 20
-148.5
  0
VERTEX
  8
通り芯
 10
210.0
 20
148.5
  0
VERTEX
  8
通り芯
 10
-210.0
 20
148.5
  0
SEQEND
  0
INSERT
  2
*GRP_0001
  8
型材断面
  6
CONTINUOUS
 10
0.0
 20
0.0
  0
LINE
  8
型材断面
  6
CONTINUOUS
 10
20.675557
 20
10.475683
 11
18.432113
 21
6.589922
  0
LINE
  8
型材断面
  6
CONTINUOUS
 10
20.675557
 20
10.475683
 11
22.919002
 21
6.589922
  0
LINE
  8
型材断面
  6
CONTINUOUS
 10
22.919002
 20
6.589922
 11
18.432113
 21
6.589922
  0
LINE
  8
型材断面
  6
CONTINUOUS
 10
20.675557
 20
2.786135
 11
21.569643
 21
-1.099625
  0
LINE
  8
型材断面
  6
CONTINUOUS
 10
20.675557
 20
2.786135
 11
19.781473
 21
-1.099625
  0
LINE
  8
型材断面
  6
CONTINUOUS
 10
19.781473
 20
-1.099625
 11
21.569643
 21
-1.099625
  0
LINE
  8
型材断面
  6
CONTINUOUS
 10
11.641677
 20
5.18203
 11
64.298358
 21
5.18203
  0
LINE
  8
型材断面
  6
CONTINUOUS
 10
11.641677
 20
-6.017962
 11
64.298358
 21
-6.017962
  0
LINE
  8
型材断面
  6
CONTINUOUS
 10
11.641677
 20
-12.857907
 11
64.298358
 21
-12.857907
  0
LINE
  8
型材断面
  6
CONTINUOUS
 10
11.641677
 20
-19.697853
 11
64.298358
 21
-19.697853
  0
LINE
  8
型材断面
  6
CONTINUOUS
 10
-72.715975
 20
40.931795
 11
-72.715975
 21
46.056795
  0
LINE
  8
型材断面
  6
CONTINUOUS
 10
-72.715975
 20
40.931795
 11
-67.590975
 21
40.931795
  0
LINE
  8
型材断面
  6
CONTINUOUS
 10
-62.465975
 20
51.1818
 11
-62.465975
 21
46.0568
  0
LINE
  8
型材断面
  6
CONTINUOUS
 10
-62.465975
 20
51.1818
 11
-67.590975
 21
51.1818
  0
LINE
  8
型材断面
  6
CONTINUOUS
 10
-72.715975
 20
51.1818
 11
-72.715975
 21
46.0568
  0
LINE
  8
型材断面
  6
CONTINUOUS
 10
-72.715975
 20
51.1818
 11
-67.590975
 21
51.1818
  0
LINE
  8
型材断面
  6
CONTINUOUS
 10
-72.715975
 20
51.1818
 11
-72.715975
 21
46.0568
  0
LINE
  8
型材断面
  6
CONTINUOUS
 10
-72.715975
 20
51.1818
 11
-67.590975
 21
51.1818
  0
LINE
  8
型材断面
  6
CONTINUOUS
 10
-62.465975
 20
51.1818
 11
-62.465975
 21
46.0568
  0
LINE
  8
型材断面
  6
CONTINUOUS
 10
-62.465975
 20
51.1818
 11
-67.590975
 21
51.1818
  0
LINE
  8
型材断面
  6
CONTINUOUS
 10
-62.465973
 20
40.931797
 11
-67.590973
 21
40.931797
  0
LINE
  8
型材断面
  6
CONTINUOUS
 10
-62.465973
 20
40.931797
 11
-62.465973
 21
46.056797
  0
LINE
  8
型材断面
  6
CONTINUOUS
 10
-72.715978
 20
-64.36811
 11
-72.645265
 21
-64.438822
  0
LINE
  8
型材断面
  6
CONTINUOUS
 10
-72.715978
 20
-64.36811
 11
-67.590978
 21
-64.36811
  0
LINE
  8
型材断面
  6
CONTINUOUS
 10
-72.645265
 20
-64.438822
 11
-67.590978
 21
-64.438822
  0
LINE
  8
型材断面
  6
CONTINUOUS
 10
-72.715978
 20
-64.36811
 11
-67.590975
 21
-59.243113
  0
LINE
  8
型材断面
  6
CONTINUOUS
 10
-62.465973
 20
-64.36811
 11
-62.536685
 21
-64.438822
  0
LINE
  8
型材断面
  6
CONTINUOUS
 10
-62.465973
 20
-64.36811
 11
-67.590973
 21
-64.36811
  0
LINE
  8
型材断面
  6
CONTINUOUS
 10
-62.536685
 20
-64.438822
 11
-67.590973
 21
-64.438822
  0
LINE
  8
型材断面
  6
CONTINUOUS
 10
-62.465973
 20
-64.36811
 11
-67.590975
 21
-59.243113
  0
LINE
  8
型材断面
  6
CONTINUOUS
 10
-13.540482
 20
44.3068
 11
-13.540482
 21
47.8068
  0
LINE
  8
型材断面
  6
CONTINUOUS
 10
-121.641468
 20
47.80679
 11
-121.641468
 21
44.30679
  0
LINE
  8
型材断面
  6
DASHDOT
 10
-117.590975
 20
46.056797
 11
-17.590975
 21
46.056797
  0
LINE
  8
型材断面
  6
CONTINUOUS
 10
-65.840975
 20
-7.993695
 11
-69.340975
 21
-7.993695
  0
LINE
  8
型材断面
  6
CONTINUOUS
 10
-67.590975
 20
46.056797
 11
-12.090973
 21
-9.443203
  0
LINE
  8
型材断面
  6
CONTINUOUS
 10
-67.590975
 20
46.056797
 11
-123.090978
 21
-9.443203
  0
LINE
  8
型材断面
  6
DASHDOT
 10
-117.590975
 20
-3.943203
 11
-17.590975
 21
-3.943203
  0
LINE
  8
型材断面
  6
CONTINUOUS
 10
-123.090978
 20
-9.443203
 11
-12.090967
 21
-9.443207
  0
LINE
  8
型材断面
  6
CONTINUOUS
 10
-121.995022
 20
-8.347247
 11
-13.186923
 21
-8.347253
  0
LINE
  8
型材断面
  6
CONTINUOUS
 10
-69.34097
 20
100.10729
 11
-65.84097
 21
100.10729
  0
LINE
  8
型材断面
  6
CONTINUOUS
 10
-67.590975
 20
46.056797
 11
-12.090973
 21
101.556797
  0
LINE
  8
型材断面
  6
CONTINUOUS
 10
-67.590975
 20
46.056797
 11
-123.090978
 21
101.556797
  0
LINE
  8
型材断面
  6
DASHDOT
 10
-117.590975
 20
96.056797
 11
-17.590975
 21
96.056797
  0
LINE
  8
型材断面
  6
CONTINUOUS
 10
-13.186932
 20
100.460837
 11
-121.995022
 21
100.460852
  0
LINE
  8
型材断面
  6
CONTINUOUS
 10
-12.090978
 20
101.556792
 11
-123.090978
 21
101.556807
  0
LINE
  8
型材断面
  6
CONTINUOUS
 10
-12.090978
 20
101.556792
 11
-12.090967
 21
-9.443207
  0
LINE
  8
型材断面
  6
CONTINUOUS
 10
-13.186932
 20
100.460837
 11
-13.186923
 21
-8.347253
  0
LINE
  8
型材断面
  6
CONTINUOUS
 10
-121.995022
 20
100.460852
 11
-121.995022
 21
-8.347247
  0
LINE
  8
型材断面
  6
CONTINUOUS
 10
-123.090978
 20
101.556807
 11
-123.090978
 21
-9.443203
  0
LINE
  8
型材断面
  6
CONTINUOUS
 10
-67.590975
 20
-113.435027
 11
-69.340975
 21
-113.435027
  0
LINE
  8
型材断面
  6
CONTINUOUS
 10
-67.590975
 20
-113.435027
 11
-65.840975
 21
-113.435027
  0
LINE
  8
型材断面
  6
CONTINUOUS
 10
-67.590975
 20
-119.4974
 11
-13.446195
 21
-119.4974
  0
LINE
  8
型材断面
  6
CONTINUOUS
 10
-67.590975
 20
-119.234533
 11
-12.940973
 21
-119.234533
  0
LINE
  8
型材断面
  6
CONTINUOUS
 10
-67.590975
 20
-118.534533
 11
-12.090973
 21
-118.534533
  0
LINE
  8
型材断面
  6
CONTINUOUS
 10
-67.590975
 20
-115.584533
 11
-12.090973
 21
-115.584533
  0
LINE
  8
型材断面
  6
CONTINUOUS
 10
-67.590975
 20
-114.884533
 11
-12.090973
 21
-114.884533
  0
LINE
  8
型材断面
  6
CONTINUOUS
 62
    47
 10
-12.090973
 20
-115.584533
 11
-12.090973
 21
-118.534533
  0
LINE
  8
型材断面
  6
CONTINUOUS
 62
    47
 10
-12.940973
 20
-118.534533
 11
-12.940973
 21
-119.234533
  0
LINE
  8
型材断面
  6
CONTINUOUS
 62
    47
 10
-13.186928
 20
-113.788583
 11
-12.090975
 21
-114.884533
  0
LINE
  8
型材断面
  6
CONTINUOUS
 62
    47
 10
-12.090975
 20
-115.584533
 11
-12.090975
 21
-114.884533
  0
LINE
  8
型材断面
  6
CONTINUOUS
 62
    47
 10
-13.446195
 20
-119.4974
 11
-13.709062
 21
-119.234533
  0
LINE
  8
型材断面
  6
CONTINUOUS
 10
-67.590975
 20
-113.788583
 11
-13.186925
 21
-113.788583
  0
LINE
  8
型材断面
  6
CONTINUOUS
 10
-17.356138
 20
-113.435027
 11
-66.352343
 21
-64.438822
  0
LINE
  8
型材断面
  6
CONTINUOUS
 10
-17.214715
 20
-113.435027
 11
-66.21092
 21
-64.438822
  0
LINE
  8
型材断面
  6
CONTINUOUS
 10
-67.590975
 20
-59.384533
 11
-13.186925
 21
-113.788583
  0
LINE
  8
型材断面
  6
CONTINUOUS
 10
-17.356138
 20
-113.435027
 11
-13.54048
 21
-113.435027
  0
LINE
  8
型材断面
  6
CONTINUOUS
 10
-67.590975
 20
-119.4974
 11
-121.735755
 21
-119.4974
  0
LINE
  8
型材断面
  6
CONTINUOUS
 10
-67.590975
 20
-119.234533
 11
-122.240978
 21
-119.234533
  0
LINE
  8
型材断面
  6
CONTINUOUS
 10
-67.590975
 20
-118.534533
 11
-123.090978
 21
-118.534533
  0
LINE
  8
型材断面
  6
CONTINUOUS
 10
-67.590975
 20
-115.584533
 11
-123.090978
 21
-115.584533
  0
LINE
  8
型材断面
  6
CONTINUOUS
 10
-67.590975
 20
-114.884533
 11
-123.090978
 21
-114.884533
  0
LINE
  8
型材断面
  6
CONTINUOUS
 62
    47
 10
-123.090978
 20
-115.584533
 11
-123.090978
 21
-118.534533
  0
LINE
  8
型材断面
  6
CONTINUOUS
 62
    47
 10
-122.240978
 20
-118.534533
 11
-122.240978
 21
-119.234533
  0
LINE
  8
型材断面
  6
CONTINUOUS
 62
    47
 10
-121.995022
 20
-113.788583
 11
-123.090975
 21
-114.884533
  0
LINE
  8
型材断面
  6
CONTINUOUS
 62
    47
 10
-123.090975
 20
-115.584533
 11
-123.090975
 21
-114.884533
  0
LINE
  8
型材断面
  6
CONTINUOUS
 62
    47
 10
-121.735755
 20
-119.4974
 11
-121.472887
 21
-119.234533
  0
LINE
  8
型材断面
  6
CONTINUOUS
 10
-67.590975
 20
-113.788583
 11
-121.995025
 21
-113.788583
  0
LINE
  8
型材断面
  6
CONTINUOUS
 10
-117.825813
 20
-113.435027
 11
-68.829608
 21
-64.438822
  0
LINE
  8
型材断面
  6
CONTINUOUS
 10
-117.967235
 20
-113.435027
 11
-68.97103
 21
-64.438822
  0
LINE
  8
型材断面
  6
CONTINUOUS
 10
-67.590975
 20
-59.384533
 11
-121.995025
 21
-113.788583
  0
LINE
  8
型材断面
  6
CONTINUOUS
 10
-117.825813
 20
-113.435027
 11
-121.64147
 21
-113.435027
  0
LINE
  8
型材断面
  6
CONTINUOUS
 10
-125.61485
 20
1.606795
 11
-129.50061
 21
2.50088
  0
LINE
  8
型材断面
  6
CONTINUOUS
 10
-125.61485
 20
1.606795
 11
-129.50061
 21
0.71271
  0
LINE
  8
型材断面
  6
CONTINUOUS
 10
-129.50061
 20
0.71271
 11
-129.50061
 21
2.50088
  0
LINE
  8
型材断面
  6
CONTINUOUS
 10
-67.590975
 20
-11.967077
 11
-69.83442
 21
-15.852837
  0
LINE
  8
型材断面
  6
CONTINUOUS
 10
-67.590975
 20
-11.967077
 11
-65.34753
 21
-15.852837
  0
LINE
  8
型材断面
  6
CONTINUOUS
 10
-65.34753
 20
-15.852837
 11
-69.83442
 21
-15.852837
  0
LINE
  8
型材断面
  6
CONTINUOUS
 10
-125.614852
 20
46.056797
 11
-129.500612
 21
43.813352
  0
LINE
  8
型材断面
  6
CONTINUOUS
 10
-125.614852
 20
46.056797
 11
-129.500612
 21
48.300243
  0
LINE
  8
型材断面
  6
CONTINUOUS
 10
-129.500612
 20
48.300243
 11
-129.500612
 21
43.813352
  0
LINE
  8
型材断面
  6
CONTINUOUS
 10
-125.61485
 20
90.5068
 11
-129.50061
 21
89.612715
  0
LINE
  8
型材断面
  6
CONTINUOUS
 10
-125.61485
 20
90.5068
 11
-129.50061
 21
91.400885
  0
LINE
  8
型材断面
  6
CONTINUOUS
 10
-129.50061
 20
91.400885
 11
-129.50061
 21
89.612715
  0
LINE
  8
型材断面
  6
CONTINUOUS
 10
-67.590975
 20
104.080673
 11
-69.83442
 21
107.966432
  0
LINE
  8
型材断面
  6
CONTINUOUS
 10
-67.590975
 20
104.080673
 11
-65.34753
 21
107.966432
  0
LINE
  8
型材断面
  6
CONTINUOUS
 10
-65.34753
 20
107.966432
 11
-69.83442
 21
107.966432
  0
LINE
  8
型材断面
  6
CONTINUOUS
 10
-9.5671
 20
1.606795
 11
-5.68134
 21
2.50088
  0
LINE
  8
型材断面
  6
CONTINUOUS
 10
-9.5671
 20
1.606795
 11
-5.68134
 21
0.71271
  0
LINE
  8
型材断面
  6
CONTINUOUS
 10
-5.68134
 20
0.71271
 11
-5.68134
 21
2.50088
  0
LINE
  8
型材断面
  6
CONTINUOUS
 10
-9.567097
 20
46.056797
 11
-5.681337
 21
43.813352
  0
LINE
  8
型材断面
  6
CONTINUOUS
 10
-9.567097
 20
46.056797
 11
-5.681337
 21
48.300243
  0
LINE
  8
型材断面
  6
CONTINUOUS
 10
-5.681337
 20
48.300243
 11
-5.681337
 21
43.813352
  0
LINE
  8
型材断面
  6
CONTINUOUS
 10
-9.5671
 20
90.5068
 11
-5.68134
 21
89.612715
  0
LINE
  8
型材断面
  6
CONTINUOUS
 10
-9.5671
 20
90.5068
 11
-5.68134
 21
91.400885
  0
LINE
  8
型材断面
  6
CONTINUOUS
 10
-5.68134
 20
91.400885
 11
-5.68134
 21
89.612715
  0
LINE
  8
型材断面
  6
DOT
 10
-22.830315
 20
96.056797
 11
-22.830315
 21
-3.943203
  0
LINE
  8
型材断面
  6
DOT
 10
-20.830315
 20
96.056797
 11
-20.830315
 21
-3.943203
  0
LINE
  8
型材断面
  6
DOT
 10
-112.351635
 20
96.056797
 11
-112.351635
 21
-3.943203
  0
LINE
  8
型材断面
  6
DOT
 10
-114.351635
 20
96.056797
 11
-114.351635
 21
-3.943203
  0
POLYLINE
  8
型材断面
  6
CONTINUOUS
 66
     1
 70
     1
  0
VERTEX
  8
型材断面
 10
-58.307975
 20
114.275445
  0
VERTEX
  8
型材断面
 10
-76.863188
 20
114.275445
  0
VERTEX
  8
型材断面
 10
-76.863188
 20
109.48341
  0
VERTEX
  8
型材断面
 10
-58.307975
 20
109.48341
  0
SEQEND
  0
LINE
  8
型材断面
  6
CONTINUOUS
 10
102.27888
 20
-50.334738
 11
102.349592
 21
-50.40545
  0
LINE
  8
型材断面
  6
CONTINUOUS
 10
102.27888
 20
-50.334738
 11
107.40388
 21
-50.334738
  0
LINE
  8
型材断面
  6
CONTINUOUS
 10
102.349592
 20
-50.40545
 11
107.40388
 21
-50.40545
  0
LINE
  8
型材断面
  6
CONTINUOUS
 10
102.27888
 20
-50.334738
 11
107.403882
 21
-45.20974
  0
LINE
  8
型材断面
  6
CONTINUOUS
 10
112.528885
 20
-50.334738
 11
112.458173
 21
-50.40545
  0
LINE
  8
型材断面
  6
CONTINUOUS
 10
112.528885
 20
-50.334738
 11
107.403885
 21
-50.334738
  0
LINE
  8
型材断面
  6
CONTINUOUS
 10
112.458173
 20
-50.40545
 11
107.403885
 21
-50.40545
  0
LINE
  8
型材断面
  6
CONTINUOUS
 10
112.528885
 20
-50.334738
 11
107.403882
 21
-45.20974
  0
LINE
  8
型材断面
  6
CONTINUOUS
 10
109.153882
 20
-50.334738
 11
109.153882
 21
-99.401655
  0
LINE
  8
型材断面
  6
CONTINUOUS
 10
105.653882
 20
-50.334738
 11
105.653882
 21
-99.401655
  0
LINE
  8
型材断面
  6
CONTINUOUS
 10
107.403882
 20
-99.401655
 11
105.653882
 21
-99.401655
  0
LINE
  8
型材断面
  6
CONTINUOUS
 10
107.403882
 20
-99.401655
 11
109.153882
 21
-99.401655
  0
LINE
  8
型材断面
  6
CONTINUOUS
 10
107.403882
 20
-105.464027
 11
161.548662
 21
-105.464027
  0
LINE
  8
型材断面
  6
CONTINUOUS
 10
107.403882
 20
-105.20116
 11
162.053885
 21
-105.20116
  0
LINE
  8
型材断面
  6
CONTINUOUS
 10
107.403882
 20
-104.50116
 11
162.903885
 21
-104.50116
  0
LINE
  8
型材断面
  6
CONTINUOUS
 10
107.403882
 20
-101.55116
 11
162.903885
 21
-101.55116
  0
LINE
  8
型材断面
  6
CONTINUOUS
 10
107.403882
 20
-100.85116
 11
162.903885
 21
-100.85116
  0
LINE
  8
型材断面
  6
CONTINUOUS
 62
    47
 10
162.903885
 20
-101.55116
 11
162.903885
 21
-104.50116
  0
LINE
  8
型材断面
  6
CONTINUOUS
 62
    47
 10
162.053885
 20
-104.50116
 11
162.053885
 21
-105.20116
  0
LINE
  8
型材断面
  6
CONTINUOUS
 62
    47
 10
161.80793
 20
-99.75521
 11
162.903882
 21
-100.85116
  0
LINE
  8
型材断面
  6
CONTINUOUS
 62
    47
 10
162.903882
 20
-101.55116
 11
162.903882
 21
-100.85116
  0
LINE
  8
型材断面
  6
CONTINUOUS
 62
    47
 10
161.548662
 20
-105.464027
 11
161.285795
 21
-105.20116
  0
LINE
  8
型材断面
  6
CONTINUOUS
 10
107.403882
 20
-99.75521
 11
161.807933
 21
-99.75521
  0
LINE
  8
型材断面
  6
CONTINUOUS
 10
157.63872
 20
-99.401655
 11
108.642515
 21
-50.40545
  0
LINE
  8
型材断面
  6
CONTINUOUS
 10
157.780142
 20
-99.401655
 11
108.783937
 21
-50.40545
  0
LINE
  8
型材断面
  6
CONTINUOUS
 10
107.403882
 20
-45.35116
 11
161.807933
 21
-99.75521
  0
LINE
  8
型材断面
  6
CONTINUOUS
 10
157.63872
 20
-99.401655
 11
161.454378
 21
-99.401655
  0
LINE
  8
型材断面
  6
CONTINUOUS
 10
107.403882
 20
-105.464027
 11
53.259102
 21
-105.464027
  0
LINE
  8
型材断面
  6
CONTINUOUS
 10
107.403882
 20
-105.20116
 11
52.75388
 21
-105.20116
  0
LINE
  8
型材断面
  6
CONTINUOUS
 10
107.403882
 20
-104.50116
 11
51.90388
 21
-104.50116
  0
LINE
  8
型材断面
  6
CONTINUOUS
 10
107.403882
 20
-101.55116
 11
51.90388
 21
-101.55116
  0
LINE
  8
型材断面
  6
CONTINUOUS
 10
107.403882
 20
-100.85116
 11
51.90388
 21
-100.85116
  0
LINE
  8
型材断面
  6
CONTINUOUS
 62
    47
 10
51.90388
 20
-101.55116
 11
51.90388
 21
-104.50116
  0
LINE
  8
型材断面
  6
CONTINUOUS
 62
    47
 10
52.75388
 20
-104.50116
 11
52.75388
 21
-105.20116
  0
LINE
  8
型材断面
  6
CONTINUOUS
 62
    47
 10
52.999835
 20
-99.75521
 11
51.903882
 21
-100.85116
  0
LINE
  8
型材断面
  6
CONTINUOUS
 62
    47
 10
51.903882
 20
-101.55116
 11
51.903882
 21
-100.85116
  0
LINE
  8
型材断面
  6
CONTINUOUS
 62
    47
 10
53.259102
 20
-105.464027
 11
53.52197
 21
-105.20116
  0
LINE
  8
型材断面
  6
CONTINUOUS
 10
107.403882
 20
-99.75521
 11
52.999833
 21
-99.75521
  0
LINE
  8
型材断面
  6
CONTINUOUS
 10
57.169045
 20
-99.401655
 11
106.16525
 21
-50.40545
  0
LINE
  8
型材断面
  6
CONTINUOUS
 10
57.027622
 20
-99.401655
 11
106.023827
 21
-50.40545
  0
LINE
  8
型材断面
  6
CONTINUOUS
 10
107.403882
 20
-45.35116
 11
52.999833
 21
-99.75521
  0
LINE
  8
型材断面
  6
CONTINUOUS
 10
57.169045
 20
-99.401655
 11
53.353387
 21
-99.401655
  0
INSERT
  2
*GRP_0016
  8
型材断面
  6
CONTINUOUS
 10
0.0
 20
0.0
  0
INSERT
  2
*GRP_0017
  8
型材断面
  6
CONTINUOUS
 10
0.0
 20
0.0
  0
INSERT
  2
*GRP_0018
  8
型材断面
  6
CONTINUOUS
 10
0.0
 20
0.0
  0
INSERT
  2
*GRP_0019
  8
型材断面
  6
CONTINUOUS
 10
0.0
 20
0.0
  0
LINE
  8
型材断面
  6
CONTINUOUS
 10
-121.64147
 20
-7.993695
 11
-117.993505
 21
-7.993695
  0
LINE
  8
型材断面
  6
CONTINUOUS
 10
-69.068012
 20
40.931795
 11
-117.993505
 21
-7.993695
  0
LINE
  8
型材断面
  6
CONTINUOUS
 10
-121.64147
 20
-7.993695
 11
-121.64147
 21
-4.34573
  0
LINE
  8
型材断面
  6
CONTINUOUS
 10
-72.715975
 20
44.579762
 11
-121.64147
 21
-4.34573
  0
LINE
  8
型材断面
  6
CONTINUOUS
 10
-69.340975
 20
-7.993695
 11
-69.340975
 21
40.658833
  0
LINE
  8
型材断面
  6
CONTINUOUS
 10
-68.360908
 20
40.931795
 11
-69.340975
 21
39.951728
  0
LINE
  8
型材断面
  6
CONTINUOUS
 10
-121.641468
 20
44.30679
 11
-72.98894
 21
44.306797
  0
LINE
  8
型材断面
  6
CONTINUOUS
 10
-72.715975
 20
45.286867
 11
-73.696045
 21
44.306797
  0
LINE
  8
型材断面
  6
CONTINUOUS
 10
-13.54048
 20
-7.993695
 11
-17.188445
 21
-7.993695
  0
LINE
  8
型材断面
  6
CONTINUOUS
 10
-66.113937
 20
40.931795
 11
-17.188445
 21
-7.993695
  0
LINE
  8
型材断面
  6
CONTINUOUS
 10
-13.54048
 20
-7.993695
 11
-13.54048
 21
-4.34573
  0
LINE
  8
型材断面
  6
CONTINUOUS
 10
-62.465975
 20
44.579762
 11
-13.54048
 21
-4.34573
  0
LINE
  8
型材断面
  6
CONTINUOUS
 10
-66.821043
 20
40.931795
 11
-65.840975
 21
39.951728
  0
LINE
  8
型材断面
  6
CONTINUOUS
 10
-62.465975
 20
45.286867
 11
-61.485905
 21
44.306797
  0
LINE
  8
型材断面
  6
CONTINUOUS
 10
-13.54048
 20
100.10729
 11
-17.188445
 21
100.10729
  0
LINE
  8
型材断面
  6
CONTINUOUS
 10
-66.113937
 20
51.1818
 11
-17.188445
 21
100.10729
  0
LINE
  8
型材断面
  6
CONTINUOUS
 10
-13.54048
 20
100.10729
 11
-13.54048
 21
96.459325
  0
LINE
  8
型材断面
  6
CONTINUOUS
 10
-62.465975
 20
47.533833
 11
-13.54048
 21
96.459325
  0
LINE
  8
型材断面
  6
CONTINUOUS
 10
-66.821043
 20
51.1818
 11
-65.840975
 21
52.161867
  0
LINE
  8
型材断面
  6
CONTINUOUS
 10
-62.465975
 20
46.826728
 11
-61.485905
 21
47.806797
  0
LINE
  8
型材断面
  6
CONTINUOUS
 10
-121.64147
 20
100.10729
 11
-117.993505
 21
100.10729
  0
LINE
  8
型材断面
  6
CONTINUOUS
 10
-69.068012
 20
51.1818
 11
-117.993505
 21
100.10729
  0
LINE
  8
型材断面
  6
CONTINUOUS
 10
-121.64147
 20
100.10729
 11
-121.64147
 21
96.459325
  0
LINE
  8
型材断面
  6
CONTINUOUS
 10
-72.715975
 20
47.533833
 11
-121.64147
 21
96.459325
  0
LINE
  8
型材断面
  6
CONTINUOUS
 10
-68.360908
 20
51.1818
 11
-69.340975
 21
52.161867
  0
LINE
  8
型材断面
  6
CONTINUOUS
 10
-72.715975
 20
46.826728
 11
-73.696045
 21
47.806797
  0
LINE
  8
型材断面
  6
CONTINUOUS
 10
-121.641468
 20
47.80679
 11
-72.98894
 21
47.806797
  0
LINE
  8
型材断面
  6
CONTINUOUS
 10
-69.34097
 20
100.10729
 11
-69.340975
 21
51.454762
  0
LINE
  8
型材断面
  6
CONTINUOUS
 10
-65.84097
 20
100.10729
 11
-65.840975
 21
51.454762
  0
LINE
  8
型材断面
  6
CONTINUOUS
 10
-13.540482
 20
47.8068
 11
-62.19301
 21
47.806797
  0
LINE
  8
型材断面
  6
CONTINUOUS
 10
-13.540482
 20
44.3068
 11
-62.19301
 21
44.306797
  0
LINE
  8
型材断面
  6
CONTINUOUS
 10
-65.840975
 20
-7.993695
 11
-65.840975
 21
40.658833
  0
LINE
  8
型材断面
  6
CONTINUOUS
 10
-68.360908
 20
-64.438822
 11
-69.340975
 21
-65.41889
  0
LINE
  8
型材断面
  6
CONTINUOUS
 10
-69.340975
 20
-113.435027
 11
-69.340975
 21
-64.95019
  0
LINE
  8
型材断面
  6
CONTINUOUS
 10
-66.821043
 20
-64.438822
 11
-65.840975
 21
-65.41889
  0
LINE
  8
型材断面
  6
CONTINUOUS
 10
-65.840975
 20
-113.435027
 11
-65.840975
 21
-64.95019
  0
LINE
  8
型材断面
  6
CONTINUOUS
 10
105.217852
 20
75.461843
 11
129.149475
 21
75.461843
  0
LINE
  8
型材断面
  6
CONTINUOUS
 10
-67.590975
 20
-125.859533
 11
-14.196195
 21
-125.859533
  0
LINE
  8
型材断面
  6
CONTINUOUS
 10
-67.590975
 20
-125.354533
 11
-13.446195
 21
-125.354533
  0
LINE
  8
型材断面
  6
CONTINUOUS
 62
    47
 10
-14.196195
 20
-125.354533
 11
-14.196195
 21
-125.859533
  0
LINE
  8
型材断面
  6
CONTINUOUS
 62
    47
 10
-13.446195
 20
-119.4974
 11
-13.446195
 21
-125.354533
  0
LINE
  8
型材断面
  6
CONTINUOUS
 10
-67.590975
 20
-125.859533
 11
-120.985755
 21
-125.859533
  0
LINE
  8
型材断面
  6
CONTINUOUS
 10
-67.590975
 20
-125.354533
 11
-121.735755
 21
-125.354533
  0
LINE
  8
型材断面
  6
CONTINUOUS
 62
    47
 10
-120.985755
 20
-125.354533
 11
-120.985755
 21
-125.859533
  0
LINE
  8
型材断面
  6
CONTINUOUS
 62
    47
 10
-121.735755
 20
-119.4974
 11
-121.735755
 21
-125.354533
  0
LINE
  8
型材断面
  6
DASHDOT
 10
-67.590975
 20
96.056797
 11
-67.590975
 21
-125.859533
  0
LINE
  8
型材断面
  6
DASHDOT
 10
-17.590975
 20
96.056797
 11
-17.590975
 21
-125.859533
  0
LINE
  8
型材断面
  6
DASHDOT
 10
-117.590975
 20
96.056797
 11
-117.590975
 21
-125.859533
  0
LINE
  8
型材断面
  6
CONTINUOUS
 10
107.403882
 20
-111.82616
 11
160.798662
 21
-111.82616
  0
LINE
  8
型材断面
  6
CONTINUOUS
 10
107.403882
 20
-111.32116
 11
161.548662
 21
-111.32116
  0
LINE
  8
型材断面
  6
CONTINUOUS
 62
    47
 10
160.798662
 20
-111.32116
 11
160.798662
 21
-111.82616
  0
LINE
  8
型材断面
  6
CONTINUOUS
 10
107.403882
 20
-111.82616
 11
54.009102
 21
-111.82616
  0
LINE
  8
型材断面
  6
CONTINUOUS
 10
107.403882
 20
-111.32116
 11
53.259102
 21
-111.32116
  0
LINE
  8
型材断面
  6
CONTINUOUS
 62
    47
 10
54.009102
 20
-111.32116
 11
54.009102
 21
-111.82616
  0
LINE
  8
型材断面
  6
CONTINUOUS
 62
    47
 10
161.548662
 20
-105.464027
 11
161.548662
 21
-111.32116
  0
LINE
  8
型材断面
  6
CONTINUOUS
 62
    47
 10
53.259102
 20
-105.464027
 11
53.259102
 21
-111.32116
  0
LINE
  8
ガラス
  6
CONTINUOUS
 10
-52.43897
 20
16.39829
 11
-56.311605
 21
12.525655
  0
LINE
  8
ガラス
  6
CONTINUOUS
 10
-53.319293
 20
14.799933
 11
-54.713248
 21
13.405977
  0
LINE
  8
ガラス
  6
CONTINUOUS
 10
-54.037327
 20
15.517967
 11
-55.431282
 21
14.124013
  0
LINE
  8
ガラス
  6
CONTINUOUS
 10
-78.669495
 20
16.39829
 11
-82.54213
 21
12.525655
  0
LINE
  8
ガラス
  6
CONTINUOUS
 10
-79.549817
 20
14.799933
 11
-80.943772
 21
13.405977
  0
LINE
  8
ガラス
  6
CONTINUOUS
 10
-80.267853
 20
15.517967
 11
-81.661808
 21
14.124013
  0
LINE
  8
ガラス
  6
CONTINUOUS
 10
-35.392105
 20
36.834512
 11
-39.26474
 21
32.961878
  0
LINE
  8
ガラス
  6
CONTINUOUS
 10
-36.272427
 20
35.236155
 11
-37.666382
 21
33.8422
  0
LINE
  8
ガラス
  6
CONTINUOUS
 10
-36.990463
 20
35.95419
 11
-38.384418
 21
34.560235
  0
LINE
  8
ガラス
  6
CONTINUOUS
 10
-35.392105
 20
59.786223
 11
-39.26474
 21
55.913587
  0
LINE
  8
ガラス
  6
CONTINUOUS
 10
-36.272427
 20
58.187865
 11
-37.666382
 21
56.79391
  0
LINE
  8
ガラス
  6
CONTINUOUS
 10
-36.990463
 20
58.9059
 11
-38.384418
 21
57.511945
  0
LINE
  8
ガラス
  6
CONTINUOUS
 10
-52.886082
 20
80.01397
 11
-56.758717
 21
76.141335
  0
LINE
  8
ガラス
  6
CONTINUOUS
 10
-53.766405
 20
78.415612
 11
-55.16036
 21
77.021658
  0
LINE
  8
ガラス
  6
CONTINUOUS
 10
-54.48444
 20
79.133648
 11
-55.878395
 21
77.739692
  0
LINE
  8
ガラス
  6
CONTINUOUS
 10
-77.179125
 20
80.01397
 11
-81.05176
 21
76.141335
  0
LINE
  8
ガラス
  6
CONTINUOUS
 10
-78.059447
 20
78.415612
 11
-79.453402
 21
77.021658
  0
LINE
  8
ガラス
  6
CONTINUOUS
 10
-78.777483
 20
79.133648
 11
-80.171437
 21
77.739692
  0
LINE
  8
ガラス
  6
CONTINUOUS
 10
-95.843725
 20
60.680445
 11
-99.71636
 21
56.80781
  0
LINE
  8
ガラス
  6
CONTINUOUS
 10
-96.724047
 20
59.082087
 11
-98.118002
 21
57.688133
  0
LINE
  8
ガラス
  6
CONTINUOUS
 10
-97.442083
 20
59.800123
 11
-98.836038
 21
58.406168
  0
LINE
  8
ガラス
  6
CONTINUOUS
 10
-95.843725
 20
35.49318
 11
-99.71636
 21
31.620545
  0
LINE
  8
ガラス
  6
CONTINUOUS
 10
-96.724047
 20
33.894823
 11
-98.118002
 21
32.500867
  0
LINE
  8
ガラス
  6
CONTINUOUS
 10
-97.442083
 20
34.612858
 11
-98.836038
 21
33.218902
  0
LINE
  8
ガラス
  6
CONTINUOUS
 10
-78.678162
 20
-91.610155
 11
-82.550798
 21
-95.48279
  0
LINE
  8
ガラス
  6
CONTINUOUS
 10
-79.558485
 20
-93.208512
 11
-80.95244
 21
-94.602467
  0
LINE
  8
ガラス
  6
CONTINUOUS
 10
-80.27652
 20
-92.490477
 11
-81.670475
 21
-93.884433
  0
LINE
  8
ガラス
  6
CONTINUOUS
 10
-52.924968
 20
-91.610155
 11
-56.797602
 21
-95.48279
  0
LINE
  8
ガラス
  6
CONTINUOUS
 10
-53.80529
 20
-93.208512
 11
-55.199245
 21
-94.602467
  0
LINE
  8
ガラス
  6
CONTINUOUS
 10
-54.523325
 20
-92.490477
 11
-55.91728
 21
-93.884433
  0
LINE
  8
ガラス
  6
CONTINUOUS
 10
96.316695
 20
-77.576782
 11
92.44406
 21
-81.449417
  0
LINE
  8
ガラス
  6
CONTINUOUS
 10
95.436372
 20
-79.17514
 11
94.042418
 21
-80.569095
  0
LINE
  8
ガラス
  6
CONTINUOUS
 10
94.718338
 20
-78.457105
 11
93.324382
 21
-79.85106
  0
LINE
  8
ガラス
  6
CONTINUOUS
 10
122.06989
 20
-77.576782
 11
118.197255
 21
-81.449417
  0
LINE
  8
ガラス
  6
CONTINUOUS
 10
121.189567
 20
-79.17514
 11
119.795613
 21
-80.569095
  0
LINE
  8
ガラス
  6
CONTINUOUS
 10
120.471532
 20
-78.457105
 11
119.077578
 21
-79.85106
  0
LINE
  8
ガラス
  6
CONTINUOUS
 10
148.15
 20
14.57575
 11
96.678615
 21
14.57575
  0
LINE
  8
ガラス
  6
CONTINUOUS
 10
96.678615
 20
14.57575
 11
148.15
 21
87.36728
  0
LINE
  8
ガラス
  6
CONTINUOUS
 10
148.15
 20
14.57575
 11
148.15
 21
87.36728
  0
CIRCLE
  8
ボルト／ビス
  6
CONTINUOUS
 10
-14.446195
 20
-120.582222
 40
0.25
  0
CIRCLE
  8
ボルト／ビス
  6
CONTINUOUS
 10
-14.446195
 20
-120.582222
 40
0.2
  0
CIRCLE
  8
ボルト／ビス
  6
CONTINUOUS
 10
-14.446195
 20
-123.797223
 40
0.25
  0
CIRCLE
  8
ボルト／ビス
  6
CONTINUOUS
 10
-14.446195
 20
-123.797223
 40
0.2
  0
CIRCLE
  8
ボルト／ビス
  6
CONTINUOUS
 10
-120.735755
 20
-120.582222
 40
0.25
  0
CIRCLE
  8
ボルト／ビス
  6
CONTINUOUS
 10
-120.735755
 20
-120.582222
 40
0.2
  0
CIRCLE
  8
ボルト／ビス
  6
CONTINUOUS
 10
-120.735755
 20
-123.797223
 40
0.25
  0
CIRCLE
  8
ボルト／ビス
  6
CONTINUOUS
 10
-120.735755
 20
-123.797223
 40
0.2
  0
CIRCLE
  8
ボルト／ビス
  6
CONTINUOUS
 10
160.548662
 20
-106.54885
 40
0.25
  0
CIRCLE
  8
ボルト／ビス
  6
CONTINUOUS
 10
160.548662
 20
-106.54885
 40
0.2
  0
CIRCLE
  8
ボルト／ビス
  6
CONTINUOUS
 10
160.548662
 20
-109.76385
 40
0.25
  0
CIRCLE
  8
ボルト／ビス
  6
CONTINUOUS
 10
160.548662
 20
-109.76385
 40
0.2
  0
CIRCLE
  8
ボルト／ビス
  6
CONTINUOUS
 10
54.259102
 20
-106.54885
 40
0.25
  0
CIRCLE
  8
ボルト／ビス
  6
CONTINUOUS
 10
54.259102
 20
-106.54885
 40
0.2
  0
CIRCLE
  8
ボルト／ビス
  6
CONTINUOUS
 10
54.259102
 20
-109.76385
 40
0.25
  0
CIRCLE
  8
ボルト／ビス
  6
CONTINUOUS
 10
54.259102
 20
-109.76385
 40
0.2
  0
TEXT
  7
TextStyle03
  8
文字
  6
CONTINUOUS
 10
62.075
 20
102.575
  1
ＮＳコード：ＮＳ４Ｃ
 40
5.0
 72
     5
 11
117.7
 21
102.575
  0
TEXT
  7
TextStyle03
  8
文字
  6
CONTINUOUS
 10
61.85
 20
124.225
  1
シリーズ：ＴＦ４
 40
5.0
 72
     5
 11
106.225
 21
124.225
  0
TEXT
  7
TextStyle03
  8
文字
  6
CONTINUOUS
 10
61.85
 20
118.6
  1
　　　　　四角錘（上下可動）2000×2000タイプ
 40
5.0
 72
     5
 11
184.975
 21
118.6
  0
TEXT
  7
TextStyle03
  8
文字
  6
CONTINUOUS
 10
61.85
 20
112.975
  1
図面名　：外観姿図
 40
5.0
 72
     5
 11
111.85
 21
112.975
  0
TEXT
  7
TextStyle03
  8
文字
  6
CONTINUOUS
 10
61.85
 20
107.35
  1
　　　　　　
 40
5.0
 72
     5
 11
94.975
 21
107.35
  0
TEXT
  7
TextStyle03
  8
文字
  6
CONTINUOUS
 10
24.975
 20
6.925
  1
は排水穴位置を示す
 40
3.0
 72
     5
 11
54.975
 21
6.925
  0
TEXT
  7
TextStyle03
  8
文字
  6
CONTINUOUS
 10
24.975
 20
-0.925
  1
はケーシング位置を示す
 40
3.0
 72
     5
 11
61.725
 21
-0.925
  0
TEXT
  7
TextStyle03
  8
文字
  6
CONTINUOUS
 10
24.975
 20
-4.3
  1
４ヶ所中1ヶ所に設定
 40
3.0
 72
     5
 11
56.6625
 21
-4.3
  0
TEXT
  7
TextStyle03
  8
文字
  6
CONTINUOUS
 10
19.375
 20
-11.45
  1
アンカー数量　１２ヶ所
 40
3.0
 72
     5
 11
56.125
 21
-11.45
  0
TEXT
  7
TextStyle03
  8
文字
  6
CONTINUOUS
 10
19.3
 20
-18.275
  1
アームユニット数　４ヶ所
 40
3.0
 72
     5
 11
59.425
 21
-18.275
  0
TEXT
  7
TextStyle03
  8
文字
  6
CONTINUOUS
 10
-8.0
 20
14.8
  1
ﾊﾞﾗﾝｽｽﾃｰ
 40
3.0
 72
     5
 11
5.3125
 21
14.8
  0
TEXT
  7
TextStyle03
  8
文字
  6
CONTINUOUS
 10
-75.9
 20
110.475
  1
可動装置側
 40
3.0
 72
     5
 11
-59.4
 21
110.475
  0
TEXT
  7
TextStyle03
  8
文字
  6
CONTINUOUS
 10
-140.5125
 20
81.925
  1
ﾊﾞﾗﾝｽｽﾃｰ
 40
3.0
 50
360.0
 72
     5
 11
-127.2
 21
81.925
  0
TEXT
  7
TextStyle03
  8
文字
  6
CONTINUOUS
 10
-150.575
 20
-13.675
  1
アンカーピッチ
 40
3.0
 50
90.0
 72
     5
 11
-150.575
 21
9.575
  0
TEXT
  7
TextStyle03
  8
文字
  6
CONTINUOUS
 10
-129.85
 20
123.325
  1
アンカーピッチ
 40
3.0
 72
     5
 11
-106.6
 21
123.325
  0
TEXT
  7
TextStyle03
  8
文字
  6
CONTINUOUS
 10
127.55
 20
21.9
  1
本図×４枚
 40
3.0
 72
     5
 11
144.05
 21
21.9
  0
TEXT
  7
TextStyle03
  8
文字
  6
CONTINUOUS
 10
127.55
 20
18.525
  1
逆図×４枚
 40
3.0
 72
     5
 11
144.05
 21
18.525
  0
TEXT
  7
TextStyle03
  8
文字
  6
CONTINUOUS
 10
108.775
 20
76.65
  1
ガラス寸法
 40
3.0
 72
     5
 11
125.275
 21
76.65
  0
INSERT
  2
*DIM_0002
  8
寸法
  6
CONTINUOUS
 10
0.0
 20
0.0
  0
INSERT
  2
*DIM_0003
  8
寸法
  6
CONTINUOUS
 10
0.0
 20
0.0
  0
INSERT
  2
*DIM_0004
  8
寸法
  6
CONTINUOUS
 10
0.0
 20
0.0
  0
INSERT
  2
*DIM_0005
  8
寸法
  6
CONTINUOUS
 10
0.0
 20
0.0
  0
INSERT
  2
*DIM_0006
  8
寸法
  6
CONTINUOUS
 10
0.0
 20
0.0
  0
INSERT
  2
*DIM_0007
  8
寸法
  6
CONTINUOUS
 10
0.0
 20
0.0
  0
INSERT
  2
*DIM_0008
  8
寸法
  6
CONTINUOUS
 10
0.0
 20
0.0
  0
INSERT
  2
*DIM_0009
  8
寸法
  6
CONTINUOUS
 10
0.0
 20
0.0
  0
INSERT
  2
*GRP_0010
  8
寸法
  6
CONTINUOUS
 10
0.0
 20
0.0
  0
INSERT
  2
*DIM_0011
  8
寸法
  6
CONTINUOUS
 10
0.0
 20
0.0
  0
INSERT
  2
*DIM_0012
  8
寸法
  6
CONTINUOUS
 10
0.0
 20
0.0
  0
INSERT
  2
*GRP_0013
  8
寸法
  6
CONTINUOUS
 10
0.0
 20
0.0
  0
INSERT
  2
*DIM_0014
  8
寸法
  6
CONTINUOUS
 10
0.0
 20
0.0
  0
INSERT
  2
*DIM_0015
  8
寸法
  6
CONTINUOUS
 10
0.0
 20
0.0
  0
INSERT
  2
*DIM_0020
  8
寸法
  6
CONTINUOUS
 10
0.0
 20
0.0
  0
INSERT
  2
*DIM_0024
  8
寸法
  6
CONTINUOUS
 10
0.0
 20
0.0
  0
INSERT
  2
*DIM_0026
  8
寸法
  6
CONTINUOUS
 10
0.0
 20
0.0
  0
INSERT
  2
*DIM_0029
  8
寸法
  6
CONTINUOUS
 10
0.0
 20
0.0
  0
INSERT
  2
*GRP_0021
  8
曲げ物
  6
DOT
 10
0.0
 20
0.0
  0
ENDSEC
  0
EOF
