  0
SECTION
  2
HEADER
  9
$EXTMIN
 10
-210.0
 20
-148.5
  9
$EXTMAX
 10
210.0
 20
148.5
  9
$PDMODE
 70
    32
  9
$PDSIZE
 40
1.5
  9
$LTSCALE
 40
10.0
  0
ENDSEC
  0
SECTION
  2
TABLES
  0
TABLE
  2
LTYPE
 70
    15
  0
LTYPE
  2
CONTINUOUS
 70
    64
  3
実線
 72
    65
 73
     0
 40
0.0
  0
LTYPE
  2
DASHED
 70
    64
  3
破線A
 72
    65
 73
     2
 40
0.6
 49
0.4
 49
-0.2
  0
LTYPE
  2
DASHEDX2
 70
    64
  3
破線B
 72
    65
 73
     2
 40
1.3
 49
0.9
 49
-0.4
  0
LTYPE
  2
DASHDOT
 70
    64
  3
１点鎖線A
 72
    65
 73
     4
 40
0.5375
 49
0.375
 49
-0.05
 49
0.0625
 49
-0.05
  0
LTYPE
  2
DASHDOTX2
 70
    64
  3
１点鎖線B
 72
    65
 73
     4
 40
1.075
 49
0.75
 49
-0.1
 49
0.125
 49
-0.1
  0
LTYPE
  2
DIVIDE2
 70
    64
  3
２点鎖線A
 72
    65
 73
     6
 40
0.5125
 49
0.3
 49
-0.0375
 49
0.05
 49
-0.0375
 49
0.05
 49
-0.0375
  0
LTYPE
  2
DIVIDE
 70
    64
  3
２点鎖線B
 72
    65
 73
     6
 40
1.05
 49
0.55
 49
-0.1
 49
0.1
 49
-0.1
 49
0.1
 49
-0.1
  0
LTYPE
  2
DOT
 70
    64
  3
点線A
 72
    65
 73
     2
 40
0.1125
 49
0.0625
 49
-0.05
  0
LTYPE
  2
DOTX2
 70
    64
  3
点線B
 72
    65
 73
     2
 40
0.275
 49
0.15
 49
-0.125
  0
LTYPE
  2
CONTINUOUS
 70
    64
  3
実線
 72
    65
 73
     0
 40
0.0
  0
LTYPE
  2
CONTINUOUS
 70
    64
  3
実線
 72
    65
 73
     0
 40
0.0
  0
LTYPE
  2
CONTINUOUS
 70
    64
  3
実線
 72
    65
 73
     0
 40
0.0
  0
LTYPE
  2
CONTINUOUS
 70
    64
  3
実線
 72
    65
 73
     0
 40
0.0
  0
LTYPE
  2
CONTINUOUS
 70
    64
  3
実線
 72
    65
 73
     0
 40
0.0
  0
LTYPE
  2
CONTINUOUS
 70
    64
  3
実線
 72
    65
 73
     0
 40
0.0
  0
ENDTAB
  0
TABLE
  2
LAYER
 70
    34
  0
LAYER
  2
通り芯
 70
     0
 62
    15
  6
CONTINUOUS
  0
LAYER
  2
補助線
 70
     0
 62
    16
  6
DOT
  0
LAYER
  2
躯体
 70
     0
 62
    31
  6
CONTINUOUS
  0
LAYER
  2
型材
 70
     0
 62
    32
  6
CONTINUOUS
  0
LAYER
  2
型材断面
 70
     0
 62
    47
  6
CONTINUOUS
  0
LAYER
  2
ガラス
 70
     0
 62
    48
  6
CONTINUOUS
  0
LAYER
  2
ゴム等
 70
     0
 62
    63
  6
CONTINUOUS
  0
LAYER
  2
ボルト／ビス
 70
     0
 62
    64
  6
CONTINUOUS
  0
LAYER
  2
文字
 70
     0
 62
    79
  6
CONTINUOUS
  0
LAYER
  2
寸法
 70
     0
 62
    80
  6
CONTINUOUS
  0
LAYER
  2
ﾊｯﾁﾝｸﾞ
 70
     0
 62
    95
  6
CONTINUOUS
  0
LAYER
  2
別途部材
 70
     0
 62
    96
  6
CONTINUOUS
  0
LAYER
  2
曲げ物
 70
     0
 62
   111
  6
CONTINUOUS
  0
LAYER
  2
鉄骨等
 70
     0
 62
   112
  6
CONTINUOUS
  0
LAYER
  2
St
 70
     0
 62
   127
  6
CONTINUOUS
  0
LAYER
  2
その他部品等
 70
     0
 62
   128
  6
CONTINUOUS
  0
LAYER
  2
ｶﾞｽｹｯﾄ
 70
     0
 62
   143
  6
CONTINUOUS
  0
LAYER
  2
ｽｹｯﾁ
 70
     0
 62
    14
  6
CONTINUOUS
  0
LAYER
  2
0
 70
     0
 62
    17
  6
CONTINUOUS
  0
LAYER
  2
1
 70
     0
 62
    30
  6
CONTINUOUS
  0
LAYER
  2
4
 70
     0
 62
    33
  6
CONTINUOUS
  0
LAYER
  2
ﾚｲﾔ3
 70
     0
 62
    46
  6
CONTINUOUS
  0
LAYER
  2
外形線
 70
     0
 62
    49
  6
CONTINUOUS
  0
LAYER
  2
部品
 70
     0
 62
    14
  6
CONTINUOUS
  0
LAYER
  2
サッシ芯
 70
     0
 62
    17
  6
DASHDOTX2
  0
LAYER
  2
寸法線
 70
     0
 62
    62
  6
CONTINUOUS
  0
LAYER
  2
姿図外形線
 70
     0
 62
    65
  6
CONTINUOUS
  0
LAYER
  2
姿補助線
 70
     0
 62
    30
  6
CONTINUOUS
  0
LAYER
  2
透視線
 70
     0
 62
    78
  6
DOT
  0
LAYER
  2
用紙
 70
     0
 62
    81
  6
CONTINUOUS
  0
LAYER
  2
実線図枠
 70
     0
 62
    94
  6
CONTINUOUS
  0
LAYER
  2
補助図枠
 70
     0
 62
    97
  6
CONTINUOUS
  0
LAYER
  2
建具記号
 70
     0
 62
   110
  6
CONTINUOUS
  0
LAYER
  2
補助文字
 70
     0
 62
   113
  6
CONTINUOUS
  0
ENDTAB
  0
TABLE
  2
STYLE
 70
    10
  0
STYLE
  2
STANDARD
 70
     0
 40
1.0
 41
1.0
 42
1.0
 50
0.0
 71
     0
  3
TXT
  4
BIGFONT
  0
STYLE
  2
TATE
 70
     4
 40
1.0
 41
1.0
 42
1.0
 50
0.0
 71
     0
  3
TXT
  4
BIGFONT
  0
STYLE
  2
TextStyle03
 70
     0
 40
1.0
 41
1.0
 42
1.0
 50
0.0
 71
     0
  3
MONOTXT
  4
BIGFONT
  0
STYLE
  2
TextStyle04
 70
     0
 40
1.0
 41
1.0
 42
1.0
 50
0.0
 71
     0
  3
MONOTXT
  4
BIGFONT
  0
STYLE
  2
TextStyle05
 70
     0
 40
1.0
 41
1.0
 42
1.0
 50
0.0
 71
     0
  3
MONOTXT
  4
BIGFONT
  0
STYLE
  2
TextStyle06
 70
     0
 40
1.0
 41
1.0
 42
1.0
 50
0.0
 71
     0
  3
MONOTXT
  4
BIGFONT
  0
STYLE
  2
TextStyle07
 70
     0
 40
1.0
 41
1.0
 42
1.0
 50
0.0
 71
     0
  3
MONOTXT
  4
BIGFONT
  0
STYLE
  2
TextStyle08
 70
     0
 40
1.0
 41
1.0
 42
1.0
 50
0.0
 71
     0
  3
MONOTXT
  4
BIGFONT
  0
STYLE
  2
TextStyle09
 70
     0
 40
1.0
 41
1.0
 42
1.0
 50
0.0
 71
     0
  3
MONOTXT
  4
BIGFONT
  0
STYLE
  2
TextStyle10
 70
     0
 40
1.0
 41
1.0
 42
1.0
 50
0.0
 71
     0
  3
MONOTXT
  4
BIGFONT
  0
ENDTAB
  0
ENDSEC
  0
SECTION
  2
BLOCKS
  0
BLOCK
  2
*GRP_0001
 70
    65
 10
0.0
 20
0.0
  0
LINE
  8
型材断面
  6
CONTINUOUS
 10
195.0
 20
133.5
 11
195.0
 21
-133.5
  0
LINE
  8
型材断面
  6
CONTINUOUS
 10
195.0
 20
-133.5
 11
-185.0
 21
-133.5
  0
LINE
  8
型材断面
  6
CONTINUOUS
 10
-185.0
 20
-133.5
 11
-185.0
 21
133.5
  0
LINE
  8
型材断面
  6
CONTINUOUS
 10
195.0
 20
133.5
 11
-185.0
 21
133.5
  0
LINE
  8
型材断面
  6
CONTINUOUS
 10
145.0
 20
-133.5
 11
145.0
 21
-118.5
  0
LINE
  8
型材断面
  6
CONTINUOUS
 10
195.0
 20
-118.5
 11
145.0
 21
-118.5
  0
ENDBLK
  0
BLOCK
  2
*DIM_0002
 70
    65
 10
0.0
 20
0.0
  0
LINE
  8
寸法
  6
BYBLOCK
 62
     0
 10
-128.742993
 20
-22.207025
 11
-128.742993
 21
-22.536362
  0
LINE
  8
寸法
  6
BYBLOCK
 62
     0
 10
71.257007
 20
-22.207025
 11
71.257007
 21
-22.536362
  0
LINE
  8
寸法
  6
BYBLOCK
 62
     0
 10
-128.742993
 20
-22.536362
 11
71.257007
 21
-22.536362
  0
POINT
  8
寸法
 62
     0
 10
-128.742993
 20
-22.536362
  0
POINT
  8
寸法
 62
     0
 10
71.257007
 20
-22.536362
  0
TEXT
  7
TextStyle03
  8
寸法
  6
CONTINUOUS
 62
     0
 10
-40.46875
 20
-22.175
  1
呼称寸法　6000
 40
3.0
 72
     5
 11
-17.03125
 21
-22.175
  0
ENDBLK
  0
BLOCK
  2
*DIM_0003
 70
    65
 10
0.0
 20
0.0
  0
LINE
  8
寸法
  6
BYBLOCK
 62
     0
 10
105.276657
 20
13.399048
 11
105.276657
 21
43.399048
  0
POINT
  8
寸法
 62
     0
 10
105.276657
 20
13.399048
  0
POINT
  8
寸法
 62
     0
 10
105.276657
 20
43.399048
  0
TEXT
  7
TextStyle03
  8
寸法
  6
CONTINUOUS
 62
     0
 10
104.9
 20
17.5
  1
呼称寸法　900
 40
3.0
 50
90.0
 72
     5
 11
104.9
 21
39.25
  0
ENDBLK
  0
BLOCK
  2
*DIM_0004
 70
    65
 10
0.0
 20
0.0
  0
LINE
  8
寸法
  6
BYBLOCK
 62
     0
 10
167.343563
 20
-63.20038
 11
175.401852
 21
-63.20038
  0
LINE
  8
寸法
  6
BYBLOCK
 62
     0
 10
167.343563
 20
-92.533713
 11
175.401852
 21
-92.533713
  0
LINE
  8
寸法
  6
BYBLOCK
 62
     0
 10
175.401852
 20
-63.20038
 11
175.401852
 21
-92.533713
  0
POINT
  8
寸法
 62
     0
 10
175.401852
 20
-63.20038
  0
POINT
  8
寸法
 62
     0
 10
175.401852
 20
-92.533713
  0
TEXT
  7
TextStyle03
  8
寸法
  6
CONTINUOUS
 62
     0
 10
175.025
 20
-80.3125
  1
880
 40
3.0
 50
90.0
 72
     5
 11
175.025
 21
-75.4375
  0
ENDBLK
  0
BLOCK
  2
*DIM_0005
 70
    65
 10
0.0
 20
0.0
  0
LINE
  8
寸法
  6
BYBLOCK
 62
     0
 10
-112.076325
 20
9.768917
 11
-112.076325
 21
4.76842
  0
LINE
  8
寸法
  6
BYBLOCK
 62
     0
 10
-28.742993
 20
9.76892
 11
-28.742993
 21
4.76842
  0
LINE
  8
寸法
  6
BYBLOCK
 62
     0
 10
-112.076325
 20
4.76842
 11
-28.742993
 21
4.76842
  0
POINT
  8
寸法
 62
     0
 10
-112.076325
 20
4.76842
  0
POINT
  8
寸法
 62
     0
 10
-28.742993
 20
4.76842
  0
TEXT
  7
TextStyle03
  8
寸法
  6
CONTINUOUS
 62
     0
 10
-73.70625
 20
5.125
  1
2500
 40
3.0
 72
     5
 11
-67.14375
 21
5.125
  0
ENDBLK
  0
BLOCK
  2
*DIM_0006
 70
    65
 10
0.0
 20
0.0
  0
LINE
  8
寸法
  6
BYBLOCK
 62
     0
 10
54.59034
 20
9.768917
 11
54.59034
 21
4.76842
  0
LINE
  8
寸法
  6
BYBLOCK
 62
     0
 10
-28.742993
 20
4.76842
 11
54.59034
 21
4.76842
  0
POINT
  8
寸法
 62
     0
 10
54.59034
 20
4.76842
  0
TEXT
  7
TextStyle03
  8
寸法
  6
CONTINUOUS
 62
     0
 10
9.61875
 20
5.125
  1
2500
 40
3.0
 72
     5
 11
16.18125
 21
5.125
  0
ENDBLK
  0
BLOCK
  2
*DIM_0007
 70
    65
 10
0.0
 20
0.0
  0
LINE
  8
寸法
  6
BYBLOCK
 62
     0
 10
72.257007
 20
43.39905
 11
81.98129
 21
43.39905
  0
LINE
  8
寸法
  6
BYBLOCK
 62
     0
 10
74.887138
 20
39.69905
 11
81.98129
 21
39.69905
  0
LINE
  8
寸法
  6
BYBLOCK
 62
     0
 10
81.98129
 20
43.39905
 11
81.98129
 21
39.69905
  0
POINT
  8
寸法
 62
     0
 10
81.98129
 20
43.39905
  0
POINT
  8
寸法
 62
     0
 10
81.98129
 20
39.69905
  0
TEXT
  7
TextStyle03
  8
寸法
  6
CONTINUOUS
 62
     0
 10
81.65
 20
44.4125
  1
111
 40
3.0
 50
90.0
 72
     5
 11
81.65
 21
49.2875
  0
ENDBLK
  0
BLOCK
  2
*DIM_0008
 70
    65
 10
0.0
 20
0.0
  0
LINE
  8
寸法
  6
BYBLOCK
 62
     0
 10
72.257007
 20
13.399045
 11
81.98129
 21
13.399042
  0
LINE
  8
寸法
  6
BYBLOCK
 62
     0
 10
74.887138
 20
17.099045
 11
81.98129
 21
17.099042
  0
LINE
  8
寸法
  6
BYBLOCK
 62
     0
 10
81.98129
 20
13.399042
 11
81.98129
 21
17.099042
  0
POINT
  8
寸法
 62
     0
 10
81.98129
 20
13.399042
  0
POINT
  8
寸法
 62
     0
 10
81.98129
 20
17.099042
  0
TEXT
  7
TextStyle03
  8
寸法
  6
CONTINUOUS
 62
     0
 10
81.65
 20
7.5375
  1
111
 40
3.0
 50
90.0
 72
     5
 11
81.65
 21
12.4125
  0
ENDBLK
  0
BLOCK
  2
*DIM_0009
 70
    65
 10
0.0
 20
0.0
  0
LINE
  8
寸法
  6
BYBLOCK
 62
     0
 10
159.167052
 20
45.38238
 11
105.276657
 21
45.38238
  0
LINE
  8
寸法
  6
BYBLOCK
 62
     0
 10
105.276657
 20
43.399048
 11
105.276657
 21
45.38238
  0
POINT
  8
寸法
 62
     0
 10
105.276657
 20
43.399048
  0
POINT
  8
寸法
 62
     0
 10
105.276657
 20
45.38238
  0
TEXT
  7
TextStyle03
  8
寸法
  6
CONTINUOUS
 62
     0
 10
104.825
 20
47.86875
  1
59.5
 40
3.0
 50
90.0
 72
     5
 11
104.825
 21
54.43125
  0
ENDBLK
  0
BLOCK
  2
*DIM_0010
 70
    65
 10
0.0
 20
0.0
  0
LINE
  8
寸法
  6
BYBLOCK
 62
     0
 10
159.167052
 20
11.415715
 11
105.276657
 21
11.415715
  0
LINE
  8
寸法
  6
BYBLOCK
 62
     0
 10
105.276657
 20
13.399048
 11
105.276657
 21
11.415715
  0
POINT
  8
寸法
 62
     0
 10
105.276657
 20
13.399048
  0
POINT
  8
寸法
 62
     0
 10
105.276657
 20
11.415715
  0
TEXT
  7
TextStyle03
  8
寸法
  6
CONTINUOUS
 62
     0
 10
104.825
 20
2.36875
  1
59.5
 40
3.0
 50
90.0
 72
     5
 11
104.825
 21
8.93125
  0
ENDBLK
  0
BLOCK
  2
*DIM_0011
 70
    65
 10
0.0
 20
0.0
  0
LINE
  8
寸法
  6
BYBLOCK
 62
     0
 10
73.24034
 20
-66.334713
 11
73.24034
 21
-22.536362
  0
LINE
  8
寸法
  6
BYBLOCK
 62
     0
 10
71.257007
 20
-22.536362
 11
73.24034
 21
-22.536362
  0
POINT
  8
寸法
 62
     0
 10
71.257007
 20
-22.536362
  0
POINT
  8
寸法
 62
     0
 10
73.24034
 20
-22.536362
  0
TEXT
  7
TextStyle03
  8
寸法
  6
CONTINUOUS
 62
     0
 10
75.69375
 20
-22.175
  1
59.5
 40
3.0
 72
     5
 11
82.25625
 21
-22.175
  0
ENDBLK
  0
BLOCK
  2
*DIM_0012
 70
    65
 10
0.0
 20
0.0
  0
LINE
  8
寸法
  6
BYBLOCK
 62
     0
 10
-130.726325
 20
-66.334713
 11
-130.726325
 21
-22.536362
  0
LINE
  8
寸法
  6
BYBLOCK
 62
     0
 10
-128.742993
 20
-22.536362
 11
-130.726325
 21
-22.536362
  0
POINT
  8
寸法
 62
     0
 10
-128.742993
 20
-22.536362
  0
POINT
  8
寸法
 62
     0
 10
-130.726325
 20
-22.536362
  0
TEXT
  7
TextStyle03
  8
寸法
  6
CONTINUOUS
 62
     0
 10
-139.78125
 20
-22.175
  1
59.5
 40
3.0
 72
     5
 11
-133.21875
 21
-22.175
  0
ENDBLK
  0
BLOCK
  2
*DIM_0013
 70
    65
 10
0.0
 20
0.0
  0
LINE
  8
寸法
  6
BYBLOCK
 62
     0
 10
-131.742993
 20
38.399048
 11
-145.03583
 21
38.399048
  0
LINE
  8
寸法
  6
BYBLOCK
 62
     0
 10
-131.742993
 20
18.399048
 11
-145.03583
 21
18.399048
  0
LINE
  8
寸法
  6
BYBLOCK
 62
     0
 10
-145.03583
 20
38.399048
 11
-145.03583
 21
18.399048
  0
POINT
  8
寸法
 62
     0
 10
-145.03583
 20
38.399048
  0
POINT
  8
寸法
 62
     0
 10
-145.03583
 20
18.399048
  0
TEXT
  7
TextStyle03
  8
寸法
  6
CONTINUOUS
 62
     0
 10
-145.375
 20
25.9625
  1
600
 40
3.0
 50
90.0
 72
     5
 11
-145.375
 21
30.8375
  0
ENDBLK
  0
BLOCK
  2
*DIM_0014
 70
    65
 10
0.0
 20
0.0
  0
LINE
  8
寸法
  6
BYBLOCK
 62
     0
 10
-122.076325
 20
46.399048
 11
-122.076325
 21
75.50712
  0
LINE
  8
寸法
  6
BYBLOCK
 62
     0
 10
-98.742993
 20
46.399048
 11
-98.742993
 21
75.50712
  0
LINE
  8
寸法
  6
BYBLOCK
 62
     0
 10
-122.076325
 20
75.50712
 11
-98.742993
 21
75.50712
  0
POINT
  8
寸法
 62
     0
 10
-122.076325
 20
75.50712
  0
POINT
  8
寸法
 62
     0
 10
-98.742993
 20
75.50712
  0
TEXT
  7
TextStyle03
  8
寸法
  6
CONTINUOUS
 62
     0
 10
-112.8625
 20
75.875
  1
700
 40
3.0
 72
     5
 11
-107.9875
 21
75.875
  0
ENDBLK
  0
BLOCK
  2
*DIM_0015
 70
    65
 10
0.0
 20
0.0
  0
LINE
  8
寸法
  6
BYBLOCK
 62
     0
 10
-75.40966
 20
46.399048
 11
-75.40966
 21
75.50712
  0
LINE
  8
寸法
  6
BYBLOCK
 62
     0
 10
-98.742993
 20
75.50712
 11
-75.40966
 21
75.50712
  0
POINT
  8
寸法
 62
     0
 10
-75.40966
 20
75.50712
  0
TEXT
  7
TextStyle03
  8
寸法
  6
CONTINUOUS
 62
     0
 10
-89.5375
 20
75.875
  1
700
 40
3.0
 72
     5
 11
-84.6625
 21
75.875
  0
ENDBLK
  0
BLOCK
  2
*DIM_0016
 70
    65
 10
0.0
 20
0.0
  0
LINE
  8
寸法
  6
BYBLOCK
 62
     0
 10
-52.076325
 20
46.399048
 11
-52.076325
 21
75.50712
  0
LINE
  8
寸法
  6
BYBLOCK
 62
     0
 10
-75.40966
 20
75.50712
 11
-52.076325
 21
75.50712
  0
POINT
  8
寸法
 62
     0
 10
-52.076325
 20
75.50712
  0
TEXT
  7
TextStyle03
  8
寸法
  6
CONTINUOUS
 62
     0
 10
-66.1875
 20
75.875
  1
700
 40
3.0
 72
     5
 11
-61.3125
 21
75.875
  0
ENDBLK
  0
BLOCK
  2
*DIM_0017
 70
    65
 10
0.0
 20
0.0
  0
LINE
  8
寸法
  6
BYBLOCK
 62
     0
 10
-28.742993
 20
46.399048
 11
-28.742993
 21
75.50712
  0
LINE
  8
寸法
  6
BYBLOCK
 62
     0
 10
-52.076325
 20
75.50712
 11
-28.742993
 21
75.50712
  0
POINT
  8
寸法
 62
     0
 10
-28.742993
 20
75.50712
  0
TEXT
  7
TextStyle03
  8
寸法
  6
CONTINUOUS
 62
     0
 10
-42.8625
 20
75.875
  1
700
 40
3.0
 72
     5
 11
-37.9875
 21
75.875
  0
ENDBLK
  0
BLOCK
  2
*DIM_0018
 70
    65
 10
0.0
 20
0.0
  0
LINE
  8
寸法
  6
BYBLOCK
 62
     0
 10
-5.40966
 20
46.399048
 11
-5.40966
 21
75.50712
  0
LINE
  8
寸法
  6
BYBLOCK
 62
     0
 10
-28.742993
 20
75.50712
 11
-5.40966
 21
75.50712
  0
POINT
  8
寸法
 62
     0
 10
-5.40966
 20
75.50712
  0
TEXT
  7
TextStyle03
  8
寸法
  6
CONTINUOUS
 62
     0
 10
-19.5375
 20
75.875
  1
700
 40
3.0
 72
     5
 11
-14.6625
 21
75.875
  0
ENDBLK
  0
BLOCK
  2
*DIM_0019
 70
    65
 10
0.0
 20
0.0
  0
LINE
  8
寸法
  6
BYBLOCK
 62
     0
 10
17.923675
 20
46.399048
 11
17.923675
 21
75.50712
  0
LINE
  8
寸法
  6
BYBLOCK
 62
     0
 10
-5.40966
 20
75.50712
 11
17.923675
 21
75.50712
  0
POINT
  8
寸法
 62
     0
 10
17.923675
 20
75.50712
  0
TEXT
  7
TextStyle03
  8
寸法
  6
CONTINUOUS
 62
     0
 10
3.8125
 20
75.875
  1
700
 40
3.0
 72
     5
 11
8.6875
 21
75.875
  0
ENDBLK
  0
BLOCK
  2
*DIM_0020
 70
    65
 10
0.0
 20
0.0
  0
LINE
  8
寸法
  6
BYBLOCK
 62
     0
 10
41.257007
 20
46.399048
 11
41.257007
 21
75.50712
  0
LINE
  8
寸法
  6
BYBLOCK
 62
     0
 10
17.923675
 20
75.50712
 11
41.257007
 21
75.50712
  0
POINT
  8
寸法
 62
     0
 10
41.257007
 20
75.50712
  0
TEXT
  7
TextStyle03
  8
寸法
  6
CONTINUOUS
 62
     0
 10
27.1375
 20
75.875
  1
700
 40
3.0
 72
     5
 11
32.0125
 21
75.875
  0
ENDBLK
  0
BLOCK
  2
*DIM_0021
 70
    65
 10
0.0
 20
0.0
  0
LINE
  8
寸法
  6
BYBLOCK
 62
     0
 10
64.59034
 20
46.399048
 11
64.59034
 21
75.50712
  0
LINE
  8
寸法
  6
BYBLOCK
 62
     0
 10
41.257007
 20
75.50712
 11
64.59034
 21
75.50712
  0
POINT
  8
寸法
 62
     0
 10
64.59034
 20
75.50712
  0
TEXT
  7
TextStyle03
  8
寸法
  6
CONTINUOUS
 62
     0
 10
50.4625
 20
75.875
  1
700
 40
3.0
 72
     5
 11
55.3375
 21
75.875
  0
ENDBLK
  0
BLOCK
  2
*DIM_0022
 70
    65
 10
0.0
 20
0.0
  0
LINE
  8
寸法
  6
CONTINUOUS
 10
159.417243
 20
57.22862
 11
167.067293
 21
57.22862
  0
POINT
  8
寸法
 10
159.417243
 20
57.22862
  0
POINT
  8
寸法
 10
167.067293
 20
57.22862
  0
TEXT
  7
TextStyle03
  8
寸法
  6
CONTINUOUS
 10
159.05
 20
57.6
  1
229.5
 40
3.0
 72
     5
 11
167.3
 21
57.6
  0
ENDBLK
  0
BLOCK
  2
*GRP_0023
 70
    65
 10
0.0
 20
0.0
  0
LINE
  8
補助線
  6
BYBLOCK
 62
    64
 10
-125.345913
 20
-83.19335
 11
-125.473398
 21
-83.30071
  0
LINE
  8
補助線
  6
BYBLOCK
 62
    64
 10
-125.463335
 20
-83.183285
 11
-125.355975
 21
-83.310772
  0
LINE
  8
補助線
  6
BYBLOCK
 62
    64
 10
-116.855495
 20
-76.043328
 11
-116.98298
 21
-76.150683
  0
LINE
  8
補助線
  6
BYBLOCK
 62
    64
 10
-116.972918
 20
-76.033263
 11
-116.865557
 21
-76.160745
  0
LINE
  8
補助線
  6
BYBLOCK
 62
    64
 10
-108.49256
 20
-69.000658
 11
-108.365078
 21
-68.8933
  0
LINE
  8
補助線
  6
BYBLOCK
 62
    64
 10
-108.4825
 20
-68.883235
 11
-108.37514
 21
-69.010722
  0
LINE
  8
型材断面
  6
CONTINUOUS
 10
-126.20141
 20
-82.824327
 11
-126.261788
 21
-83.528852
  0
LINE
  8
型材断面
  6
CONTINUOUS
 10
-126.261788
 20
-83.528852
 11
-125.832355
 21
-84.038788
  0
LINE
  8
型材断面
  6
CONTINUOUS
 10
-125.832355
 20
-84.038788
 11
-125.12783
 21
-84.099165
  0
LINE
  8
型材断面
  6
CONTINUOUS
 10
-108.710642
 20
-68.094848
 11
-108.006117
 21
-68.155225
  0
LINE
  8
型材断面
  6
CONTINUOUS
 10
-108.006117
 20
-68.155225
 11
-107.576685
 21
-68.66516
  0
LINE
  8
型材断面
  6
CONTINUOUS
 10
-107.576685
 20
-68.66516
 11
-107.637062
 21
-69.369685
  0
LINE
  8
型材断面
  6
CONTINUOUS
 10
-126.20141
 20
-82.824327
 11
-108.710642
 21
-68.094848
  0
LINE
  8
型材断面
  6
CONTINUOUS
 10
-125.12783
 20
-84.099165
 11
-107.637062
 21
-69.369685
  0
CIRCLE
  8
ボルト／ビス
  6
CONTINUOUS
 10
-125.409655
 20
-83.24703
 40
0.250185
  0
CIRCLE
  8
ボルト／ビス
  6
CONTINUOUS
 10
-125.409655
 20
-83.24703
 40
0.301025
  0
LINE
  8
ボルト／ビス
  6
CONTINUOUS
 62
    64
 10
-125.655962
 20
-83.290913
 11
-125.57081
 21
-83.055665
  0
LINE
  8
ボルト／ビス
  6
CONTINUOUS
 62
    64
 10
-125.324503
 20
-83.01178
 11
-125.57081
 21
-83.055665
  0
LINE
  8
ボルト／ビス
  6
CONTINUOUS
 62
    64
 10
-125.494808
 20
-83.48228
 11
-125.2485
 21
-83.438395
  0
LINE
  8
ボルト／ビス
  6
CONTINUOUS
 62
    64
 10
-125.163347
 20
-83.203147
 11
-125.2485
 21
-83.438395
  0
LINE
  8
ボルト／ビス
  6
CONTINUOUS
 62
    64
 10
-125.655962
 20
-83.290913
 11
-125.494808
 21
-83.48228
  0
LINE
  8
ボルト／ビス
  6
CONTINUOUS
 62
    64
 10
-125.324503
 20
-83.01178
 11
-125.163347
 21
-83.203147
  0
CIRCLE
  8
ボルト／ビス
  6
CONTINUOUS
 62
    64
 10
-125.409655
 20
-83.24703
 40
0.216668
  0
CIRCLE
  8
ボルト／ビス
  6
CONTINUOUS
 10
-116.919237
 20
-76.097005
 40
0.250185
  0
CIRCLE
  8
ボルト／ビス
  6
CONTINUOUS
 10
-116.919237
 20
-76.097005
 40
0.301025
  0
LINE
  8
ボルト／ビス
  6
CONTINUOUS
 62
    64
 10
-117.165545
 20
-76.140888
 11
-117.080393
 21
-75.905638
  0
LINE
  8
ボルト／ビス
  6
CONTINUOUS
 62
    64
 10
-116.834085
 20
-75.861755
 11
-117.080393
 21
-75.905638
  0
LINE
  8
ボルト／ビス
  6
CONTINUOUS
 62
    64
 10
-117.00439
 20
-76.332255
 11
-116.75808
 21
-76.288372
  0
LINE
  8
ボルト／ビス
  6
CONTINUOUS
 62
    64
 10
-116.67293
 20
-76.053125
 11
-116.75808
 21
-76.288372
  0
LINE
  8
ボルト／ビス
  6
CONTINUOUS
 62
    64
 10
-117.165545
 20
-76.140888
 11
-117.00439
 21
-76.332255
  0
LINE
  8
ボルト／ビス
  6
CONTINUOUS
 62
    64
 10
-116.834085
 20
-75.861755
 11
-116.67293
 21
-76.053125
  0
CIRCLE
  8
ボルト／ビス
  6
CONTINUOUS
 62
    64
 10
-116.919237
 20
-76.097005
 40
0.216668
  0
CIRCLE
  8
ボルト／ビス
  6
CONTINUOUS
 10
-108.428817
 20
-68.94698
 40
0.250185
  0
CIRCLE
  8
ボルト／ビス
  6
CONTINUOUS
 10
-108.428817
 20
-68.94698
 40
0.301025
  0
LINE
  8
ボルト／ビス
  6
CONTINUOUS
 62
    64
 10
-108.343665
 20
-68.71173
 11
-108.589975
 21
-68.755615
  0
LINE
  8
ボルト／ビス
  6
CONTINUOUS
 62
    64
 10
-108.675127
 20
-68.990863
 11
-108.589975
 21
-68.755615
  0
LINE
  8
ボルト／ビス
  6
CONTINUOUS
 62
    64
 10
-108.182513
 20
-68.903097
 11
-108.267663
 21
-69.138345
  0
LINE
  8
ボルト／ビス
  6
CONTINUOUS
 62
    64
 10
-108.513972
 20
-69.18223
 11
-108.267663
 21
-69.138345
  0
LINE
  8
ボルト／ビス
  6
CONTINUOUS
 62
    64
 10
-108.343665
 20
-68.71173
 11
-108.182513
 21
-68.903097
  0
LINE
  8
ボルト／ビス
  6
CONTINUOUS
 62
    64
 10
-108.675127
 20
-68.990863
 11
-108.513972
 21
-69.18223
  0
CIRCLE
  8
ボルト／ビス
  6
CONTINUOUS
 62
    64
 10
-108.428817
 20
-68.94698
 40
0.216668
  0
ENDBLK
  0
BLOCK
  2
*GRP_0024
 70
    65
 10
0.0
 20
0.0
  0
LINE
  8
補助線
  6
BYBLOCK
 62
    64
 10
-108.492562
 20
-83.19335
 11
-108.365078
 21
-83.30071
  0
LINE
  8
補助線
  6
BYBLOCK
 62
    64
 10
-108.37514
 20
-83.183285
 11
-108.4825
 21
-83.310772
  0
LINE
  8
補助線
  6
BYBLOCK
 62
    64
 10
-116.98298
 20
-76.043328
 11
-116.855495
 21
-76.150683
  0
LINE
  8
補助線
  6
BYBLOCK
 62
    64
 10
-116.865557
 20
-76.033263
 11
-116.972918
 21
-76.160745
  0
LINE
  8
補助線
  6
BYBLOCK
 62
    64
 10
-125.345915
 20
-69.000658
 11
-125.473398
 21
-68.8933
  0
LINE
  8
補助線
  6
BYBLOCK
 62
    64
 10
-125.355975
 20
-68.883235
 11
-125.463335
 21
-69.010722
  0
LINE
  8
型材断面
  6
CONTINUOUS
 10
-107.637065
 20
-82.824327
 11
-107.576688
 21
-83.528852
  0
LINE
  8
型材断面
  6
CONTINUOUS
 10
-107.576688
 20
-83.528852
 11
-108.00612
 21
-84.038788
  0
LINE
  8
型材断面
  6
CONTINUOUS
 10
-108.00612
 20
-84.038788
 11
-108.710645
 21
-84.099165
  0
LINE
  8
型材断面
  6
CONTINUOUS
 10
-125.127833
 20
-68.094848
 11
-125.832358
 21
-68.155225
  0
LINE
  8
型材断面
  6
CONTINUOUS
 10
-125.832358
 20
-68.155225
 11
-126.26179
 21
-68.66516
  0
LINE
  8
型材断面
  6
CONTINUOUS
 10
-126.26179
 20
-68.66516
 11
-126.201412
 21
-69.369685
  0
LINE
  8
型材断面
  6
CONTINUOUS
 10
-107.637065
 20
-82.824327
 11
-125.127833
 21
-68.094848
  0
LINE
  8
型材断面
  6
CONTINUOUS
 10
-108.710645
 20
-84.099165
 11
-126.201412
 21
-69.369685
  0
CIRCLE
  8
ボルト／ビス
  6
CONTINUOUS
 10
-108.42882
 20
-83.24703
 40
0.250185
  0
CIRCLE
  8
ボルト／ビス
  6
CONTINUOUS
 10
-108.42882
 20
-83.24703
 40
0.301025
  0
LINE
  8
ボルト／ビス
  6
CONTINUOUS
 62
    64
 10
-108.182513
 20
-83.290913
 11
-108.267665
 21
-83.055665
  0
LINE
  8
ボルト／ビス
  6
CONTINUOUS
 62
    64
 10
-108.513972
 20
-83.01178
 11
-108.267665
 21
-83.055665
  0
LINE
  8
ボルト／ビス
  6
CONTINUOUS
 62
    64
 10
-108.343668
 20
-83.48228
 11
-108.589975
 21
-83.438395
  0
LINE
  8
ボルト／ビス
  6
CONTINUOUS
 62
    64
 10
-108.675127
 20
-83.203147
 11
-108.589975
 21
-83.438395
  0
LINE
  8
ボルト／ビス
  6
CONTINUOUS
 62
    64
 10
-108.182513
 20
-83.290913
 11
-108.343668
 21
-83.48228
  0
LINE
  8
ボルト／ビス
  6
CONTINUOUS
 62
    64
 10
-108.513972
 20
-83.01178
 11
-108.675127
 21
-83.203147
  0
CIRCLE
  8
ボルト／ビス
  6
CONTINUOUS
 62
    64
 10
-108.42882
 20
-83.24703
 40
0.216668
  0
CIRCLE
  8
ボルト／ビス
  6
CONTINUOUS
 10
-116.919237
 20
-76.097005
 40
0.250185
  0
CIRCLE
  8
ボルト／ビス
  6
CONTINUOUS
 10
-116.919237
 20
-76.097005
 40
0.301025
  0
LINE
  8
ボルト／ビス
  6
CONTINUOUS
 62
    64
 10
-116.67293
 20
-76.140888
 11
-116.758083
 21
-75.905638
  0
LINE
  8
ボルト／ビス
  6
CONTINUOUS
 62
    64
 10
-117.00439
 20
-75.861755
 11
-116.758083
 21
-75.905638
  0
LINE
  8
ボルト／ビス
  6
CONTINUOUS
 62
    64
 10
-116.834085
 20
-76.332255
 11
-117.080395
 21
-76.288372
  0
LINE
  8
ボルト／ビス
  6
CONTINUOUS
 62
    64
 10
-117.165545
 20
-76.053125
 11
-117.080395
 21
-76.288372
  0
LINE
  8
ボルト／ビス
  6
CONTINUOUS
 62
    64
 10
-116.67293
 20
-76.140888
 11
-116.834085
 21
-76.332255
  0
LINE
  8
ボルト／ビス
  6
CONTINUOUS
 62
    64
 10
-117.00439
 20
-75.861755
 11
-117.165545
 21
-76.053125
  0
CIRCLE
  8
ボルト／ビス
  6
CONTINUOUS
 62
    64
 10
-116.919237
 20
-76.097005
 40
0.216668
  0
CIRCLE
  8
ボルト／ビス
  6
CONTINUOUS
 10
-125.409657
 20
-68.94698
 40
0.250185
  0
CIRCLE
  8
ボルト／ビス
  6
CONTINUOUS
 10
-125.409657
 20
-68.94698
 40
0.301025
  0
LINE
  8
ボルト／ビス
  6
CONTINUOUS
 62
    64
 10
-125.49481
 20
-68.71173
 11
-125.2485
 21
-68.755615
  0
LINE
  8
ボルト／ビス
  6
CONTINUOUS
 62
    64
 10
-125.163347
 20
-68.990863
 11
-125.2485
 21
-68.755615
  0
LINE
  8
ボルト／ビス
  6
CONTINUOUS
 62
    64
 10
-125.655962
 20
-68.903097
 11
-125.570813
 21
-69.138345
  0
LINE
  8
ボルト／ビス
  6
CONTINUOUS
 62
    64
 10
-125.324503
 20
-69.18223
 11
-125.570813
 21
-69.138345
  0
LINE
  8
ボルト／ビス
  6
CONTINUOUS
 62
    64
 10
-125.49481
 20
-68.71173
 11
-125.655962
 21
-68.903097
  0
LINE
  8
ボルト／ビス
  6
CONTINUOUS
 62
    64
 10
-125.163347
 20
-68.990863
 11
-125.324503
 21
-69.18223
  0
CIRCLE
  8
ボルト／ビス
  6
CONTINUOUS
 62
    64
 10
-125.409657
 20
-68.94698
 40
0.216668
  0
ENDBLK
  0
BLOCK
  2
*GRP_0025
 70
    65
 10
0.0
 20
0.0
  0
LINE
  8
補助線
  6
BYBLOCK
 62
    64
 10
67.859937
 20
-83.19335
 11
67.987422
 21
-83.30071
  0
LINE
  8
補助線
  6
BYBLOCK
 62
    64
 10
67.97736
 20
-83.183285
 11
67.87
 21
-83.310772
  0
LINE
  8
補助線
  6
BYBLOCK
 62
    64
 10
59.36952
 20
-76.043328
 11
59.497005
 21
-76.150683
  0
LINE
  8
補助線
  6
BYBLOCK
 62
    64
 10
59.486943
 20
-76.033263
 11
59.379582
 21
-76.160745
  0
LINE
  8
補助線
  6
BYBLOCK
 62
    64
 10
51.006585
 20
-69.000658
 11
50.879103
 21
-68.8933
  0
LINE
  8
補助線
  6
BYBLOCK
 62
    64
 10
50.996525
 20
-68.883235
 11
50.889165
 21
-69.010722
  0
LINE
  8
型材断面
  6
CONTINUOUS
 10
68.715435
 20
-82.824327
 11
68.775813
 21
-83.528852
  0
LINE
  8
型材断面
  6
CONTINUOUS
 10
68.775813
 20
-83.528852
 11
68.34638
 21
-84.038788
  0
LINE
  8
型材断面
  6
CONTINUOUS
 10
68.34638
 20
-84.038788
 11
67.641855
 21
-84.099165
  0
LINE
  8
型材断面
  6
CONTINUOUS
 10
51.224668
 20
-68.094848
 11
50.520142
 21
-68.155225
  0
LINE
  8
型材断面
  6
CONTINUOUS
 10
50.520142
 20
-68.155225
 11
50.09071
 21
-68.66516
  0
LINE
  8
型材断面
  6
CONTINUOUS
 10
50.09071
 20
-68.66516
 11
50.151087
 21
-69.369685
  0
LINE
  8
型材断面
  6
CONTINUOUS
 10
68.715435
 20
-82.824327
 11
51.224668
 21
-68.094848
  0
LINE
  8
型材断面
  6
CONTINUOUS
 10
67.641855
 20
-84.099165
 11
50.151087
 21
-69.369685
  0
CIRCLE
  8
ボルト／ビス
  6
CONTINUOUS
 10
67.92368
 20
-83.24703
 40
0.250185
  0
CIRCLE
  8
ボルト／ビス
  6
CONTINUOUS
 10
67.92368
 20
-83.24703
 40
0.301025
  0
LINE
  8
ボルト／ビス
  6
CONTINUOUS
 62
    64
 10
68.169988
 20
-83.290913
 11
68.084835
 21
-83.055665
  0
LINE
  8
ボルト／ビス
  6
CONTINUOUS
 62
    64
 10
67.838528
 20
-83.01178
 11
68.084835
 21
-83.055665
  0
LINE
  8
ボルト／ビス
  6
CONTINUOUS
 62
    64
 10
68.008833
 20
-83.48228
 11
67.762525
 21
-83.438395
  0
LINE
  8
ボルト／ビス
  6
CONTINUOUS
 62
    64
 10
67.677372
 20
-83.203147
 11
67.762525
 21
-83.438395
  0
LINE
  8
ボルト／ビス
  6
CONTINUOUS
 62
    64
 10
68.169988
 20
-83.290913
 11
68.008833
 21
-83.48228
  0
LINE
  8
ボルト／ビス
  6
CONTINUOUS
 62
    64
 10
67.838528
 20
-83.01178
 11
67.677372
 21
-83.203147
  0
CIRCLE
  8
ボルト／ビス
  6
CONTINUOUS
 62
    64
 10
67.92368
 20
-83.24703
 40
0.216668
  0
CIRCLE
  8
ボルト／ビス
  6
CONTINUOUS
 10
59.433262
 20
-76.097005
 40
0.250185
  0
CIRCLE
  8
ボルト／ビス
  6
CONTINUOUS
 10
59.433262
 20
-76.097005
 40
0.301025
  0
LINE
  8
ボルト／ビス
  6
CONTINUOUS
 62
    64
 10
59.67957
 20
-76.140888
 11
59.594418
 21
-75.905638
  0
LINE
  8
ボルト／ビス
  6
CONTINUOUS
 62
    64
 10
59.34811
 20
-75.861755
 11
59.594418
 21
-75.905638
  0
LINE
  8
ボルト／ビス
  6
CONTINUOUS
 62
    64
 10
59.518415
 20
-76.332255
 11
59.272105
 21
-76.288372
  0
LINE
  8
ボルト／ビス
  6
CONTINUOUS
 62
    64
 10
59.186955
 20
-76.053125
 11
59.272105
 21
-76.288372
  0
LINE
  8
ボルト／ビス
  6
CONTINUOUS
 62
    64
 10
59.67957
 20
-76.140888
 11
59.518415
 21
-76.332255
  0
LINE
  8
ボルト／ビス
  6
CONTINUOUS
 62
    64
 10
59.34811
 20
-75.861755
 11
59.186955
 21
-76.053125
  0
CIRCLE
  8
ボルト／ビス
  6
CONTINUOUS
 62
    64
 10
59.433262
 20
-76.097005
 40
0.216668
  0
CIRCLE
  8
ボルト／ビス
  6
CONTINUOUS
 10
50.942843
 20
-68.94698
 40
0.250185
  0
CIRCLE
  8
ボルト／ビス
  6
CONTINUOUS
 10
50.942843
 20
-68.94698
 40
0.301025
  0
LINE
  8
ボルト／ビス
  6
CONTINUOUS
 62
    64
 10
50.85769
 20
-68.71173
 11
51.104
 21
-68.755615
  0
LINE
  8
ボルト／ビス
  6
CONTINUOUS
 62
    64
 10
51.189152
 20
-68.990863
 11
51.104
 21
-68.755615
  0
LINE
  8
ボルト／ビス
  6
CONTINUOUS
 62
    64
 10
50.696537
 20
-68.903097
 11
50.781688
 21
-69.138345
  0
LINE
  8
ボルト／ビス
  6
CONTINUOUS
 62
    64
 10
51.027997
 20
-69.18223
 11
50.781688
 21
-69.138345
  0
LINE
  8
ボルト／ビス
  6
CONTINUOUS
 62
    64
 10
50.85769
 20
-68.71173
 11
50.696537
 21
-68.903097
  0
LINE
  8
ボルト／ビス
  6
CONTINUOUS
 62
    64
 10
51.189152
 20
-68.990863
 11
51.027997
 21
-69.18223
  0
CIRCLE
  8
ボルト／ビス
  6
CONTINUOUS
 62
    64
 10
50.942843
 20
-68.94698
 40
0.216668
  0
ENDBLK
  0
BLOCK
  2
*GRP_0026
 70
    65
 10
0.0
 20
0.0
  0
LINE
  8
補助線
  6
BYBLOCK
 62
    64
 10
51.006588
 20
-83.19335
 11
50.879103
 21
-83.30071
  0
LINE
  8
補助線
  6
BYBLOCK
 62
    64
 10
50.889165
 20
-83.183285
 11
50.996525
 21
-83.310772
  0
LINE
  8
補助線
  6
BYBLOCK
 62
    64
 10
59.497005
 20
-76.043328
 11
59.36952
 21
-76.150683
  0
LINE
  8
補助線
  6
BYBLOCK
 62
    64
 10
59.379582
 20
-76.033263
 11
59.486943
 21
-76.160745
  0
LINE
  8
補助線
  6
BYBLOCK
 62
    64
 10
67.85994
 20
-69.000658
 11
67.987422
 21
-68.8933
  0
LINE
  8
補助線
  6
BYBLOCK
 62
    64
 10
67.87
 20
-68.883235
 11
67.97736
 21
-69.010722
  0
LINE
  8
型材断面
  6
CONTINUOUS
 10
50.15109
 20
-82.824327
 11
50.090712
 21
-83.528852
  0
LINE
  8
型材断面
  6
CONTINUOUS
 10
50.090712
 20
-83.528852
 11
50.520145
 21
-84.038788
  0
LINE
  8
型材断面
  6
CONTINUOUS
 10
50.520145
 20
-84.038788
 11
51.22467
 21
-84.099165
  0
LINE
  8
型材断面
  6
CONTINUOUS
 10
67.641857
 20
-68.094848
 11
68.346383
 21
-68.155225
  0
LINE
  8
型材断面
  6
CONTINUOUS
 10
68.346383
 20
-68.155225
 11
68.775815
 21
-68.66516
  0
LINE
  8
型材断面
  6
CONTINUOUS
 10
68.775815
 20
-68.66516
 11
68.715438
 21
-69.369685
  0
LINE
  8
型材断面
  6
CONTINUOUS
 10
50.15109
 20
-82.824327
 11
67.641857
 21
-68.094848
  0
LINE
  8
型材断面
  6
CONTINUOUS
 10
51.22467
 20
-84.099165
 11
68.715438
 21
-69.369685
  0
CIRCLE
  8
ボルト／ビス
  6
CONTINUOUS
 10
50.942845
 20
-83.24703
 40
0.250185
  0
CIRCLE
  8
ボルト／ビス
  6
CONTINUOUS
 10
50.942845
 20
-83.24703
 40
0.301025
  0
LINE
  8
ボルト／ビス
  6
CONTINUOUS
 62
    64
 10
50.696537
 20
-83.290913
 11
50.78169
 21
-83.055665
  0
LINE
  8
ボルト／ビス
  6
CONTINUOUS
 62
    64
 10
51.027997
 20
-83.01178
 11
50.78169
 21
-83.055665
  0
LINE
  8
ボルト／ビス
  6
CONTINUOUS
 62
    64
 10
50.857692
 20
-83.48228
 11
51.104
 21
-83.438395
  0
LINE
  8
ボルト／ビス
  6
CONTINUOUS
 62
    64
 10
51.189152
 20
-83.203147
 11
51.104
 21
-83.438395
  0
LINE
  8
ボルト／ビス
  6
CONTINUOUS
 62
    64
 10
50.696537
 20
-83.290913
 11
50.857692
 21
-83.48228
  0
LINE
  8
ボルト／ビス
  6
CONTINUOUS
 62
    64
 10
51.027997
 20
-83.01178
 11
51.189152
 21
-83.203147
  0
CIRCLE
  8
ボルト／ビス
  6
CONTINUOUS
 62
    64
 10
50.942845
 20
-83.24703
 40
0.216668
  0
CIRCLE
  8
ボルト／ビス
  6
CONTINUOUS
 10
59.433262
 20
-76.097005
 40
0.250185
  0
CIRCLE
  8
ボルト／ビス
  6
CONTINUOUS
 10
59.433262
 20
-76.097005
 40
0.301025
  0
LINE
  8
ボルト／ビス
  6
CONTINUOUS
 62
    64
 10
59.186955
 20
-76.140888
 11
59.272107
 21
-75.905638
  0
LINE
  8
ボルト／ビス
  6
CONTINUOUS
 62
    64
 10
59.518415
 20
-75.861755
 11
59.272107
 21
-75.905638
  0
LINE
  8
ボルト／ビス
  6
CONTINUOUS
 62
    64
 10
59.34811
 20
-76.332255
 11
59.59442
 21
-76.288372
  0
LINE
  8
ボルト／ビス
  6
CONTINUOUS
 62
    64
 10
59.67957
 20
-76.053125
 11
59.59442
 21
-76.288372
  0
LINE
  8
ボルト／ビス
  6
CONTINUOUS
 62
    64
 10
59.186955
 20
-76.140888
 11
59.34811
 21
-76.332255
  0
LINE
  8
ボルト／ビス
  6
CONTINUOUS
 62
    64
 10
59.518415
 20
-75.861755
 11
59.67957
 21
-76.053125
  0
CIRCLE
  8
ボルト／ビス
  6
CONTINUOUS
 62
    64
 10
59.433262
 20
-76.097005
 40
0.216668
  0
CIRCLE
  8
ボルト／ビス
  6
CONTINUOUS
 10
67.923682
 20
-68.94698
 40
0.250185
  0
CIRCLE
  8
ボルト／ビス
  6
CONTINUOUS
 10
67.923682
 20
-68.94698
 40
0.301025
  0
LINE
  8
ボルト／ビス
  6
CONTINUOUS
 62
    64
 10
68.008835
 20
-68.71173
 11
67.762525
 21
-68.755615
  0
LINE
  8
ボルト／ビス
  6
CONTINUOUS
 62
    64
 10
67.677372
 20
-68.990863
 11
67.762525
 21
-68.755615
  0
LINE
  8
ボルト／ビス
  6
CONTINUOUS
 62
    64
 10
68.169988
 20
-68.903097
 11
68.084837
 21
-69.138345
  0
LINE
  8
ボルト／ビス
  6
CONTINUOUS
 62
    64
 10
67.838528
 20
-69.18223
 11
68.084837
 21
-69.138345
  0
LINE
  8
ボルト／ビス
  6
CONTINUOUS
 62
    64
 10
68.008835
 20
-68.71173
 11
68.169988
 21
-68.903097
  0
LINE
  8
ボルト／ビス
  6
CONTINUOUS
 62
    64
 10
67.677372
 20
-68.990863
 11
67.838528
 21
-69.18223
  0
CIRCLE
  8
ボルト／ビス
  6
CONTINUOUS
 62
    64
 10
67.923682
 20
-68.94698
 40
0.216668
  0
ENDBLK
  0
BLOCK
  2
*GRP_0027
 70
    65
 10
0.0
 20
0.0
  0
LINE
  8
補助線
  6
BYBLOCK
 62
    64
 10
-20.316313
 20
-83.19335
 11
-20.188828
 21
-83.30071
  0
LINE
  8
補助線
  6
BYBLOCK
 62
    64
 10
-20.19889
 20
-83.183285
 11
-20.30625
 21
-83.310772
  0
LINE
  8
補助線
  6
BYBLOCK
 62
    64
 10
-28.80673
 20
-76.043328
 11
-28.679245
 21
-76.150683
  0
LINE
  8
補助線
  6
BYBLOCK
 62
    64
 10
-28.689307
 20
-76.033263
 11
-28.796667
 21
-76.160745
  0
LINE
  8
補助線
  6
BYBLOCK
 62
    64
 10
-37.169665
 20
-69.000658
 11
-37.297148
 21
-68.8933
  0
LINE
  8
補助線
  6
BYBLOCK
 62
    64
 10
-37.179725
 20
-68.883235
 11
-37.287085
 21
-69.010722
  0
LINE
  8
型材断面
  6
CONTINUOUS
 10
-19.460815
 20
-82.824327
 11
-19.400438
 21
-83.528852
  0
LINE
  8
型材断面
  6
CONTINUOUS
 10
-19.400438
 20
-83.528852
 11
-19.82987
 21
-84.038788
  0
LINE
  8
型材断面
  6
CONTINUOUS
 10
-19.82987
 20
-84.038788
 11
-20.534395
 21
-84.099165
  0
LINE
  8
型材断面
  6
CONTINUOUS
 10
-36.951583
 20
-68.094848
 11
-37.656107
 21
-68.155225
  0
LINE
  8
型材断面
  6
CONTINUOUS
 10
-37.656107
 20
-68.155225
 11
-38.08554
 21
-68.66516
  0
LINE
  8
型材断面
  6
CONTINUOUS
 10
-38.08554
 20
-68.66516
 11
-38.025162
 21
-69.369685
  0
LINE
  8
型材断面
  6
CONTINUOUS
 10
-19.460815
 20
-82.824327
 11
-36.951583
 21
-68.094848
  0
LINE
  8
型材断面
  6
CONTINUOUS
 10
-20.534395
 20
-84.099165
 11
-38.025162
 21
-69.369685
  0
CIRCLE
  8
ボルト／ビス
  6
CONTINUOUS
 10
-20.25257
 20
-83.24703
 40
0.250185
  0
CIRCLE
  8
ボルト／ビス
  6
CONTINUOUS
 10
-20.25257
 20
-83.24703
 40
0.301025
  0
LINE
  8
ボルト／ビス
  6
CONTINUOUS
 62
    64
 10
-20.006262
 20
-83.290913
 11
-20.091415
 21
-83.055665
  0
LINE
  8
ボルト／ビス
  6
CONTINUOUS
 62
    64
 10
-20.337723
 20
-83.01178
 11
-20.091415
 21
-83.055665
  0
LINE
  8
ボルト／ビス
  6
CONTINUOUS
 62
    64
 10
-20.167418
 20
-83.48228
 11
-20.413725
 21
-83.438395
  0
LINE
  8
ボルト／ビス
  6
CONTINUOUS
 62
    64
 10
-20.498877
 20
-83.203147
 11
-20.413725
 21
-83.438395
  0
LINE
  8
ボルト／ビス
  6
CONTINUOUS
 62
    64
 10
-20.006262
 20
-83.290913
 11
-20.167418
 21
-83.48228
  0
LINE
  8
ボルト／ビス
  6
CONTINUOUS
 62
    64
 10
-20.337723
 20
-83.01178
 11
-20.498877
 21
-83.203147
  0
CIRCLE
  8
ボルト／ビス
  6
CONTINUOUS
 62
    64
 10
-20.25257
 20
-83.24703
 40
0.216668
  0
CIRCLE
  8
ボルト／ビス
  6
CONTINUOUS
 10
-28.742987
 20
-76.097005
 40
0.250185
  0
CIRCLE
  8
ボルト／ビス
  6
CONTINUOUS
 10
-28.742987
 20
-76.097005
 40
0.301025
  0
LINE
  8
ボルト／ビス
  6
CONTINUOUS
 62
    64
 10
-28.49668
 20
-76.140888
 11
-28.581833
 21
-75.905638
  0
LINE
  8
ボルト／ビス
  6
CONTINUOUS
 62
    64
 10
-28.82814
 20
-75.861755
 11
-28.581833
 21
-75.905638
  0
LINE
  8
ボルト／ビス
  6
CONTINUOUS
 62
    64
 10
-28.657835
 20
-76.332255
 11
-28.904145
 21
-76.288372
  0
LINE
  8
ボルト／ビス
  6
CONTINUOUS
 62
    64
 10
-28.989295
 20
-76.053125
 11
-28.904145
 21
-76.288372
  0
LINE
  8
ボルト／ビス
  6
CONTINUOUS
 62
    64
 10
-28.49668
 20
-76.140888
 11
-28.657835
 21
-76.332255
  0
LINE
  8
ボルト／ビス
  6
CONTINUOUS
 62
    64
 10
-28.82814
 20
-75.861755
 11
-28.989295
 21
-76.053125
  0
CIRCLE
  8
ボルト／ビス
  6
CONTINUOUS
 62
    64
 10
-28.742987
 20
-76.097005
 40
0.216668
  0
CIRCLE
  8
ボルト／ビス
  6
CONTINUOUS
 10
-37.233407
 20
-68.94698
 40
0.250185
  0
CIRCLE
  8
ボルト／ビス
  6
CONTINUOUS
 10
-37.233407
 20
-68.94698
 40
0.301025
  0
LINE
  8
ボルト／ビス
  6
CONTINUOUS
 62
    64
 10
-37.31856
 20
-68.71173
 11
-37.07225
 21
-68.755615
  0
LINE
  8
ボルト／ビス
  6
CONTINUOUS
 62
    64
 10
-36.987097
 20
-68.990863
 11
-37.07225
 21
-68.755615
  0
LINE
  8
ボルト／ビス
  6
CONTINUOUS
 62
    64
 10
-37.479713
 20
-68.903097
 11
-37.394563
 21
-69.138345
  0
LINE
  8
ボルト／ビス
  6
CONTINUOUS
 62
    64
 10
-37.148253
 20
-69.18223
 11
-37.394563
 21
-69.138345
  0
LINE
  8
ボルト／ビス
  6
CONTINUOUS
 62
    64
 10
-37.31856
 20
-68.71173
 11
-37.479713
 21
-68.903097
  0
LINE
  8
ボルト／ビス
  6
CONTINUOUS
 62
    64
 10
-36.987097
 20
-68.990863
 11
-37.148253
 21
-69.18223
  0
CIRCLE
  8
ボルト／ビス
  6
CONTINUOUS
 62
    64
 10
-37.233407
 20
-68.94698
 40
0.216668
  0
ENDBLK
  0
BLOCK
  2
*GRP_0028
 70
    65
 10
0.0
 20
0.0
  0
LINE
  8
補助線
  6
BYBLOCK
 62
    64
 10
-37.169662
 20
-83.19335
 11
-37.297148
 21
-83.30071
  0
LINE
  8
補助線
  6
BYBLOCK
 62
    64
 10
-37.287085
 20
-83.183285
 11
-37.179725
 21
-83.310772
  0
LINE
  8
補助線
  6
BYBLOCK
 62
    64
 10
-28.679245
 20
-76.043328
 11
-28.80673
 21
-76.150683
  0
LINE
  8
補助線
  6
BYBLOCK
 62
    64
 10
-28.796667
 20
-76.033263
 11
-28.689307
 21
-76.160745
  0
LINE
  8
補助線
  6
BYBLOCK
 62
    64
 10
-20.31631
 20
-69.000658
 11
-20.188828
 21
-68.8933
  0
LINE
  8
補助線
  6
BYBLOCK
 62
    64
 10
-20.30625
 20
-68.883235
 11
-20.19889
 21
-69.010722
  0
LINE
  8
型材断面
  6
CONTINUOUS
 10
-38.02516
 20
-82.824327
 11
-38.085538
 21
-83.528852
  0
LINE
  8
型材断面
  6
CONTINUOUS
 10
-38.085538
 20
-83.528852
 11
-37.656105
 21
-84.038788
  0
LINE
  8
型材断面
  6
CONTINUOUS
 10
-37.656105
 20
-84.038788
 11
-36.95158
 21
-84.099165
  0
LINE
  8
型材断面
  6
CONTINUOUS
 10
-20.534393
 20
-68.094848
 11
-19.829867
 21
-68.155225
  0
LINE
  8
型材断面
  6
CONTINUOUS
 10
-19.829867
 20
-68.155225
 11
-19.400435
 21
-68.66516
  0
LINE
  8
型材断面
  6
CONTINUOUS
 10
-19.400435
 20
-68.66516
 11
-19.460812
 21
-69.369685
  0
LINE
  8
型材断面
  6
CONTINUOUS
 10
-38.02516
 20
-82.824327
 11
-20.534393
 21
-68.094848
  0
LINE
  8
型材断面
  6
CONTINUOUS
 10
-36.95158
 20
-84.099165
 11
-19.460812
 21
-69.369685
  0
CIRCLE
  8
ボルト／ビス
  6
CONTINUOUS
 10
-37.233405
 20
-83.24703
 40
0.250185
  0
CIRCLE
  8
ボルト／ビス
  6
CONTINUOUS
 10
-37.233405
 20
-83.24703
 40
0.301025
  0
LINE
  8
ボルト／ビス
  6
CONTINUOUS
 62
    64
 10
-37.479713
 20
-83.290913
 11
-37.39456
 21
-83.055665
  0
LINE
  8
ボルト／ビス
  6
CONTINUOUS
 62
    64
 10
-37.148253
 20
-83.01178
 11
-37.39456
 21
-83.055665
  0
LINE
  8
ボルト／ビス
  6
CONTINUOUS
 62
    64
 10
-37.318558
 20
-83.48228
 11
-37.07225
 21
-83.438395
  0
LINE
  8
ボルト／ビス
  6
CONTINUOUS
 62
    64
 10
-36.987097
 20
-83.203147
 11
-37.07225
 21
-83.438395
  0
LINE
  8
ボルト／ビス
  6
CONTINUOUS
 62
    64
 10
-37.479713
 20
-83.290913
 11
-37.318558
 21
-83.48228
  0
LINE
  8
ボルト／ビス
  6
CONTINUOUS
 62
    64
 10
-37.148253
 20
-83.01178
 11
-36.987097
 21
-83.203147
  0
CIRCLE
  8
ボルト／ビス
  6
CONTINUOUS
 62
    64
 10
-37.233405
 20
-83.24703
 40
0.216668
  0
CIRCLE
  8
ボルト／ビス
  6
CONTINUOUS
 10
-28.742987
 20
-76.097005
 40
0.250185
  0
CIRCLE
  8
ボルト／ビス
  6
CONTINUOUS
 10
-28.742987
 20
-76.097005
 40
0.301025
  0
LINE
  8
ボルト／ビス
  6
CONTINUOUS
 62
    64
 10
-28.989295
 20
-76.140888
 11
-28.904143
 21
-75.905638
  0
LINE
  8
ボルト／ビス
  6
CONTINUOUS
 62
    64
 10
-28.657835
 20
-75.861755
 11
-28.904143
 21
-75.905638
  0
LINE
  8
ボルト／ビス
  6
CONTINUOUS
 62
    64
 10
-28.82814
 20
-76.332255
 11
-28.58183
 21
-76.288372
  0
LINE
  8
ボルト／ビス
  6
CONTINUOUS
 62
    64
 10
-28.49668
 20
-76.053125
 11
-28.58183
 21
-76.288372
  0
LINE
  8
ボルト／ビス
  6
CONTINUOUS
 62
    64
 10
-28.989295
 20
-76.140888
 11
-28.82814
 21
-76.332255
  0
LINE
  8
ボルト／ビス
  6
CONTINUOUS
 62
    64
 10
-28.657835
 20
-75.861755
 11
-28.49668
 21
-76.053125
  0
CIRCLE
  8
ボルト／ビス
  6
CONTINUOUS
 62
    64
 10
-28.742987
 20
-76.097005
 40
0.216668
  0
CIRCLE
  8
ボルト／ビス
  6
CONTINUOUS
 10
-20.252567
 20
-68.94698
 40
0.250185
  0
CIRCLE
  8
ボルト／ビス
  6
CONTINUOUS
 10
-20.252567
 20
-68.94698
 40
0.301025
  0
LINE
  8
ボルト／ビス
  6
CONTINUOUS
 62
    64
 10
-20.167415
 20
-68.71173
 11
-20.413725
 21
-68.755615
  0
LINE
  8
ボルト／ビス
  6
CONTINUOUS
 62
    64
 10
-20.498877
 20
-68.990863
 11
-20.413725
 21
-68.755615
  0
LINE
  8
ボルト／ビス
  6
CONTINUOUS
 62
    64
 10
-20.006262
 20
-68.903097
 11
-20.091413
 21
-69.138345
  0
LINE
  8
ボルト／ビス
  6
CONTINUOUS
 62
    64
 10
-20.337723
 20
-69.18223
 11
-20.091413
 21
-69.138345
  0
LINE
  8
ボルト／ビス
  6
CONTINUOUS
 62
    64
 10
-20.167415
 20
-68.71173
 11
-20.006262
 21
-68.903097
  0
LINE
  8
ボルト／ビス
  6
CONTINUOUS
 62
    64
 10
-20.498877
 20
-68.990863
 11
-20.337723
 21
-69.18223
  0
CIRCLE
  8
ボルト／ビス
  6
CONTINUOUS
 62
    64
 10
-20.252567
 20
-68.94698
 40
0.216668
  0
ENDBLK
  0
BLOCK
  2
*DIM_0029
 70
    65
 10
0.0
 20
0.0
  0
LINE
  8
寸法
  6
CONTINUOUS
 10
84.492252
 20
-77.595838
 11
84.492252
 21
-85.245888
  0
POINT
  8
寸法
 10
84.492252
 20
-77.595838
  0
POINT
  8
寸法
 10
84.492252
 20
-85.245888
  0
TEXT
  7
TextStyle03
  8
寸法
  6
CONTINUOUS
 10
88.925
 20
-85.475
  1
229.5
 40
3.0
 50
90.0
 72
     5
 11
88.925
 21
-77.225
  0
ENDBLK
  0
BLOCK
  2
*DIM_0030
 70
    65
 10
0.0
 20
0.0
  0
LINE
  8
寸法
  6
CONTINUOUS
 10
166.343563
 20
-54.11956
 11
134.093563
 21
-54.11956
  0
POINT
  8
寸法
 10
166.343563
 20
-54.11956
  0
POINT
  8
寸法
 10
134.093563
 20
-54.11956
  0
TEXT
  7
TextStyle03
  8
寸法
  6
CONTINUOUS
 10
146.075
 20
-53.775
  1
967.5
 40
3.0
 72
     5
 11
154.325
 21
-53.775
  0
ENDBLK
  0
BLOCK
  2
*DIM_0031
 70
    65
 10
0.0
 20
0.0
  0
LINE
  8
寸法
  6
BYBLOCK
 62
     0
 10
84.492252
 20
-65.92917
 11
84.492252
 21
-77.595838
  0
POINT
  8
寸法
 62
     0
 10
84.492252
 20
-65.92917
  0
POINT
  8
寸法
 62
     0
 10
84.492252
 20
-77.595838
  0
TEXT
  7
TextStyle03
  8
寸法
  6
CONTINUOUS
 62
     0
 10
84.375
 20
-63.49375
  1
上昇330以上
 40
3.0
 50
90.0
 72
     5
 11
84.375
 21
-45.30625
  0
ENDBLK
  0
ENDSEC
  0
SECTION
  2
ENTITIES
  0
POLYLINE
  8
通り芯
  6
CONTINUOUS
 66
     1
 70
     1
  0
VERTEX
  8
通り芯
 10
-210.0
 20
-148.5
  0
VERTEX
  8
通り芯
 10
210.0
 20
-148.5
  0
VERTEX
  8
通り芯
 10
210.0
 20
148.5
  0
VERTEX
  8
通り芯
 10
-210.0
 20
148.5
  0
SEQEND
  0
INSERT
  2
*GRP_0001
  8
型材断面
  6
CONTINUOUS
 10
0.0
 20
0.0
  0
LINE
  8
型材断面
  6
DASHDOT
 10
-128.742993
 20
13.399048
 11
168.93377
 21
13.399048
  0
POLYLINE
  8
型材断面
  6
CONTINUOUS
 66
     1
 70
     1
  0
VERTEX
  8
型材断面
 10
-19.342983
 20
3.623125
  0
VERTEX
  8
型材断面
 10
-38.114912
 20
3.623125
  0
VERTEX
  8
型材断面
 10
-38.114912
 20
-1.113717
  0
VERTEX
  8
型材断面
 10
-19.342983
 20
-1.113717
  0
SEQEND
  0
LINE
  8
型材断面
  6
DASHDOT
 10
-128.742993
 20
28.399048
 11
168.93377
 21
28.399048
  0
LINE
  8
型材断面
  6
DASHDOT
 10
-128.742993
 20
43.399048
 11
168.93377
 21
43.399048
  0
LINE
  8
型材断面
  6
DASHDOT
 10
-128.742993
 20
-87.251428
 11
-128.742993
 21
43.399048
  0
LINE
  8
型材断面
  6
DASHDOT
 10
-28.742993
 20
-87.251428
 11
-28.742993
 21
43.399048
  0
LINE
  8
型材断面
  6
DASHDOT
 10
71.257007
 20
-87.251428
 11
71.257007
 21
43.399048
  0
POLYLINE
  8
型材断面
  6
CONTINUOUS
 66
     1
 70
     1
  0
VERTEX
  8
型材断面
 10
-19.342983
 20
53.17497
  0
VERTEX
  8
型材断面
 10
-38.114912
 20
53.17497
  0
VERTEX
  8
型材断面
 10
-38.114912
 20
57.911813
  0
VERTEX
  8
型材断面
 10
-19.342983
 20
57.911813
  0
SEQEND
  0
LINE
  8
型材断面
  6
CONTINUOUS
 10
-112.076325
 20
46.029177
 11
-113.571955
 21
48.619685
  0
LINE
  8
型材断面
  6
CONTINUOUS
 10
-112.076325
 20
46.029177
 11
-110.580695
 21
48.619685
  0
LINE
  8
型材断面
  6
CONTINUOUS
 10
-110.580695
 20
48.619685
 11
-113.571955
 21
48.619685
  0
LINE
  8
型材断面
  6
CONTINUOUS
 10
-169.5952
 20
81.37652
 11
-168.999145
 21
78.786012
  0
LINE
  8
型材断面
  6
CONTINUOUS
 10
-169.5952
 20
81.37652
 11
-170.191258
 21
78.786012
  0
LINE
  8
型材断面
  6
CONTINUOUS
 10
-170.191258
 20
78.786012
 11
-168.999145
 21
78.786012
  0
LINE
  8
型材断面
  6
CONTINUOUS
 10
-175.617788
 20
75.50712
 11
-129.37601
 21
75.50712
  0
LINE
  8
型材断面
  6
CONTINUOUS
 10
-169.5952
 20
87.906395
 11
-171.09083
 21
85.315887
  0
LINE
  8
型材断面
  6
CONTINUOUS
 10
-169.5952
 20
87.906395
 11
-168.09957
 21
85.315887
  0
LINE
  8
型材断面
  6
CONTINUOUS
 10
-168.09957
 20
85.315887
 11
-171.09083
 21
85.315887
  0
LINE
  8
型材断面
  6
CONTINUOUS
 10
-175.617788
 20
84.377292
 11
-129.37601
 21
84.377292
  0
LINE
  8
型材断面
  6
CONTINUOUS
 10
-175.617788
 20
69.719088
 11
-129.37601
 21
69.719088
  0
LINE
  8
型材断面
  6
CONTINUOUS
 10
-131.373123
 20
28.399048
 11
-133.96363
 21
29.894678
  0
LINE
  8
型材断面
  6
CONTINUOUS
 10
-131.373123
 20
28.399048
 11
-133.96363
 21
26.903418
  0
LINE
  8
型材断面
  6
CONTINUOUS
 10
-133.96363
 20
26.903418
 11
-133.96363
 21
29.894678
  0
LINE
  8
型材断面
  6
CONTINUOUS
 10
-112.076325
 20
10.768917
 11
-113.571955
 21
8.17841
  0
LINE
  8
型材断面
  6
CONTINUOUS
 10
-112.076325
 20
10.768917
 11
-110.580695
 21
8.17841
  0
LINE
  8
型材断面
  6
CONTINUOUS
 10
-110.580695
 20
8.17841
 11
-113.571955
 21
8.17841
  0
LINE
  8
型材断面
  6
CONTINUOUS
 10
54.59034
 20
46.029177
 11
56.08597
 21
48.619685
  0
LINE
  8
型材断面
  6
CONTINUOUS
 10
54.59034
 20
46.029177
 11
53.09471
 21
48.619685
  0
LINE
  8
型材断面
  6
CONTINUOUS
 10
53.09471
 20
48.619685
 11
56.08597
 21
48.619685
  0
LINE
  8
型材断面
  6
CONTINUOUS
 10
54.59034
 20
10.768917
 11
56.08597
 21
8.17841
  0
LINE
  8
型材断面
  6
CONTINUOUS
 10
54.59034
 20
10.768917
 11
53.09471
 21
8.17841
  0
LINE
  8
型材断面
  6
CONTINUOUS
 10
53.09471
 20
8.17841
 11
56.08597
 21
8.17841
  0
LINE
  8
型材断面
  6
CONTINUOUS
 10
-28.742993
 20
46.029175
 11
-27.247362
 21
48.619683
  0
LINE
  8
型材断面
  6
CONTINUOUS
 10
-28.742993
 20
46.029175
 11
-30.238623
 21
48.619683
  0
LINE
  8
型材断面
  6
CONTINUOUS
 10
-30.238623
 20
48.619683
 11
-27.247362
 21
48.619683
  0
LINE
  8
型材断面
  6
CONTINUOUS
 10
-28.742993
 20
10.768915
 11
-27.247362
 21
8.178407
  0
LINE
  8
型材断面
  6
CONTINUOUS
 10
-28.742993
 20
10.768915
 11
-30.238623
 21
8.178407
  0
LINE
  8
型材断面
  6
CONTINUOUS
 10
-30.238623
 20
8.178407
 11
-27.247362
 21
8.178407
  0
LINE
  8
型材断面
  6
CONTINUOUS
 10
73.887138
 20
28.399048
 11
76.477645
 21
29.894678
  0
LINE
  8
型材断面
  6
CONTINUOUS
 10
73.887138
 20
28.399048
 11
76.477645
 21
26.903418
  0
LINE
  8
型材断面
  6
CONTINUOUS
 10
76.477645
 20
26.903418
 11
76.477645
 21
29.894678
  0
LINE
  8
型材断面
  6
CONTINUOUS
 10
73.887138
 20
39.69905
 11
76.477648
 21
39.102997
  0
LINE
  8
型材断面
  6
CONTINUOUS
 10
73.887138
 20
39.69905
 11
76.477645
 21
40.29511
  0
LINE
  8
型材断面
  6
CONTINUOUS
 10
76.477645
 20
40.29511
 11
76.477648
 21
39.102997
  0
LINE
  8
型材断面
  6
CONTINUOUS
 10
73.887138
 20
17.099045
 11
76.477648
 21
17.695097
  0
LINE
  8
型材断面
  6
CONTINUOUS
 10
73.887138
 20
17.099045
 11
76.477645
 21
16.502985
  0
LINE
  8
型材断面
  6
CONTINUOUS
 10
76.477645
 20
16.502985
 11
76.477648
 21
17.695097
  0
LINE
  8
型材断面
  6
CONTINUOUS
 10
-131.373123
 20
39.69905
 11
-133.963633
 21
39.102997
  0
LINE
  8
型材断面
  6
CONTINUOUS
 10
-131.373123
 20
39.69905
 11
-133.96363
 21
40.29511
  0
LINE
  8
型材断面
  6
CONTINUOUS
 10
-133.96363
 20
40.29511
 11
-133.963633
 21
39.102997
  0
LINE
  8
型材断面
  6
CONTINUOUS
 10
-131.373123
 20
17.099045
 11
-133.963633
 21
17.695097
  0
LINE
  8
型材断面
  6
CONTINUOUS
 10
-131.373123
 20
17.099045
 11
-133.96363
 21
16.502985
  0
LINE
  8
型材断面
  6
CONTINUOUS
 10
-133.96363
 20
16.502985
 11
-133.963633
 21
17.695097
  0
LINE
  8
型材断面
  6
CONTINUOUS
 10
-130.726178
 20
11.415868
 11
-28.742993
 21
11.415868
  0
LINE
  8
型材断面
  6
CONTINUOUS
 10
-130.726178
 20
45.382228
 11
-28.742993
 21
45.382228
  0
LINE
  8
型材断面
  6
CONTINUOUS
 10
73.240193
 20
45.382228
 11
73.240193
 21
28.399048
  0
LINE
  8
型材断面
  6
CONTINUOUS
 10
73.240193
 20
45.382228
 11
-28.742993
 21
45.382228
  0
LINE
  8
型材断面
  6
CONTINUOUS
 10
73.240193
 20
11.415868
 11
73.240193
 21
28.399048
  0
LINE
  8
型材断面
  6
CONTINUOUS
 10
73.240193
 20
11.415868
 11
-28.742993
 21
11.415868
  0
LINE
  8
型材断面
  6
CONTINUOUS
 10
-175.617788
 20
63.931055
 11
-129.37601
 21
63.931055
  0
ARC
  8
型材断面
  6
CONTINUOUS
 62
    47
 10
163.533904
 20
11.415713
 40
0.016668
 50
179.999123
 51
270.0
  0
ARC
  8
型材断面
  6
CONTINUOUS
 62
    47
 10
163.573905
 20
11.409047
 40
0.010002
 50
270.0
 51
359.791626
  0
LINE
  8
型材断面
  6
CONTINUOUS
 62
    47
 10
163.750625
 20
11.44905
 11
163.750625
 21
12.299198
  0
LINE
  8
型材断面
  6
CONTINUOUS
 62
    47
 10
163.517238
 20
11.415712
 11
161.410577
 21
11.415712
  0
LINE
  8
型材断面
  6
CONTINUOUS
 62
    47
 10
163.750625
 20
11.415718
 11
167.067293
 21
11.415718
  0
LINE
  8
型材断面
  6
CONTINUOUS
 62
    47
 10
167.567293
 20
11.915718
 11
167.067293
 21
11.915718
  0
LINE
  8
型材断面
  6
CONTINUOUS
 62
    47
 10
161.410577
 20
12.299052
 11
161.083907
 21
12.299052
  0
LINE
  8
型材断面
  6
CONTINUOUS
 62
    47
 10
163.533902
 20
11.39905
 11
163.573562
 21
11.39905
  0
ARC
  8
型材断面
  6
CONTINUOUS
 62
    47
 10
163.533904
 20
45.382385
 40
0.016668
 50
90.0
 51
180.000877
  0
ARC
  8
型材断面
  6
CONTINUOUS
 62
    47
 10
163.573905
 20
45.389051
 40
0.010002
 50
0.208374
 51
90.0
  0
LINE
  8
型材断面
  6
CONTINUOUS
 62
    47
 10
163.750625
 20
45.349048
 11
163.750625
 21
44.4989
  0
LINE
  8
型材断面
  6
CONTINUOUS
 62
    47
 10
163.517238
 20
45.382385
 11
161.410577
 21
45.382385
  0
LINE
  8
型材断面
  6
CONTINUOUS
 62
    47
 10
163.750625
 20
45.38238
 11
167.067293
 21
45.38238
  0
LINE
  8
型材断面
  6
CONTINUOUS
 62
    47
 10
167.567293
 20
44.88238
 11
167.067293
 21
44.88238
  0
LINE
  8
型材断面
  6
CONTINUOUS
 62
    47
 10
161.410577
 20
44.499045
 11
161.083907
 21
44.499045
  0
LINE
  8
型材断面
  6
CONTINUOUS
 62
    47
 10
163.533902
 20
45.399048
 11
163.573562
 21
45.399048
  0
LINE
  8
型材断面
  6
CONTINUOUS
 10
159.417243
 20
44.799048
 11
159.417243
 21
28.399048
  0
LINE
  8
型材断面
  6
CONTINUOUS
 10
159.583907
 20
44.955567
 11
159.583907
 21
28.399048
  0
LINE
  8
型材断面
  6
CONTINUOUS
 10
161.083907
 20
44.799048
 11
161.083907
 21
28.399048
  0
LINE
  8
型材断面
  6
CONTINUOUS
 10
161.410577
 20
45.382385
 11
161.410577
 21
28.399048
  0
LINE
  8
型材断面
  6
CONTINUOUS
 10
163.583907
 20
45.38905
 11
163.583907
 21
28.399048
  0
LINE
  8
型材断面
  6
CONTINUOUS
 10
163.750625
 20
45.38238
 11
163.750625
 21
28.399048
  0
LINE
  8
型材断面
  6
CONTINUOUS
 10
167.067293
 20
45.38238
 11
167.067293
 21
28.399048
  0
LINE
  8
型材断面
  6
CONTINUOUS
 10
167.567293
 20
44.88238
 11
167.567293
 21
28.399048
  0
LINE
  8
型材断面
  6
CONTINUOUS
 10
167.567293
 20
11.915718
 11
167.567293
 21
28.399048
  0
LINE
  8
型材断面
  6
CONTINUOUS
 10
167.067293
 20
11.415718
 11
167.067293
 21
28.399048
  0
LINE
  8
型材断面
  6
CONTINUOUS
 10
163.583907
 20
11.409048
 11
163.583907
 21
28.399048
  0
LINE
  8
型材断面
  6
CONTINUOUS
 10
163.750625
 20
11.415718
 11
163.750625
 21
28.399048
  0
LINE
  8
型材断面
  6
CONTINUOUS
 10
161.410577
 20
11.415712
 11
161.410577
 21
28.399048
  0
LINE
  8
型材断面
  6
CONTINUOUS
 10
161.083907
 20
11.99905
 11
161.083907
 21
28.399048
  0
LINE
  8
型材断面
  6
CONTINUOUS
 10
159.583907
 20
11.842527
 11
159.583907
 21
28.399048
  0
LINE
  8
型材断面
  6
CONTINUOUS
 10
159.417243
 20
11.99905
 11
159.417243
 21
28.399048
  0
ARC
  8
型材断面
  6
CONTINUOUS
 62
    47
 10
-130.726329
 20
-81.712502
 40
0.016668
 50
89.999123
 51
180.0
  0
ARC
  8
型材断面
  6
CONTINUOUS
 62
    47
 10
-130.732995
 20
-81.752503
 40
0.010002
 50
180.0
 51
269.791626
  0
LINE
  8
型材断面
  6
CONTINUOUS
 62
    47
 10
-130.69299
 20
-81.92922
 11
-129.842845
 21
-81.92922
  0
LINE
  8
型材断面
  6
CONTINUOUS
 62
    47
 10
-130.72633
 20
-81.695832
 11
-130.72633
 21
-79.589173
  0
LINE
  8
型材断面
  6
CONTINUOUS
 62
    47
 10
-130.726325
 20
-81.92922
 11
-130.726325
 21
-85.245888
  0
LINE
  8
型材断面
  6
CONTINUOUS
 62
    47
 10
-130.226325
 20
-85.745888
 11
-130.226325
 21
-85.245888
  0
LINE
  8
型材断面
  6
CONTINUOUS
 62
    47
 10
-129.84299
 20
-79.589173
 11
-129.84299
 21
-79.262505
  0
LINE
  8
型材断面
  6
CONTINUOUS
 62
    47
 10
-130.74299
 20
-81.7125
 11
-130.74299
 21
-81.75216
  0
ARC
  8
型材断面
  6
CONTINUOUS
 62
    47
 10
73.240343
 20
-81.712502
 40
0.016668
 50
0.0
 51
90.000877
  0
ARC
  8
型材断面
  6
CONTINUOUS
 62
    47
 10
73.247009
 20
-81.752503
 40
0.010002
 50
270.208374
 51
360.0
  0
LINE
  8
型材断面
  6
CONTINUOUS
 62
    47
 10
73.207005
 20
-81.92922
 11
72.35686
 21
-81.92922
  0
LINE
  8
型材断面
  6
CONTINUOUS
 62
    47
 10
73.240345
 20
-81.695832
 11
73.240345
 21
-79.589173
  0
LINE
  8
型材断面
  6
CONTINUOUS
 62
    47
 10
73.24034
 20
-81.92922
 11
73.24034
 21
-85.245888
  0
LINE
  8
型材断面
  6
CONTINUOUS
 62
    47
 10
72.74034
 20
-85.745888
 11
72.74034
 21
-85.245888
  0
LINE
  8
型材断面
  6
CONTINUOUS
 62
    47
 10
72.357005
 20
-79.589173
 11
72.357005
 21
-79.262505
  0
LINE
  8
型材断面
  6
CONTINUOUS
 62
    47
 10
73.257005
 20
-81.7125
 11
73.257005
 21
-81.75216
  0
LINE
  8
型材断面
  6
CONTINUOUS
 10
-130.14299
 20
-77.595838
 11
-28.742993
 21
-77.595838
  0
LINE
  8
型材断面
  6
CONTINUOUS
 10
-130.299513
 20
-77.762505
 11
-28.742993
 21
-77.762505
  0
LINE
  8
型材断面
  6
CONTINUOUS
 10
-130.14299
 20
-79.262505
 11
-28.742993
 21
-79.262505
  0
LINE
  8
型材断面
  6
CONTINUOUS
 10
-130.72633
 20
-79.589173
 11
-28.742993
 21
-79.589173
  0
LINE
  8
型材断面
  6
CONTINUOUS
 10
-130.732995
 20
-81.762505
 11
-28.742993
 21
-81.762505
  0
LINE
  8
型材断面
  6
CONTINUOUS
 10
-130.726325
 20
-81.92922
 11
-28.742993
 21
-81.92922
  0
LINE
  8
型材断面
  6
CONTINUOUS
 10
-130.226325
 20
-85.745888
 11
-28.742993
 21
-85.745888
  0
LINE
  8
型材断面
  6
CONTINUOUS
 10
-130.726325
 20
-85.245888
 11
-28.742993
 21
-85.245888
  0
LINE
  8
型材断面
  6
CONTINUOUS
 10
73.24034
 20
-85.245888
 11
-28.742993
 21
-85.245888
  0
LINE
  8
型材断面
  6
CONTINUOUS
 10
72.74034
 20
-85.745888
 11
-28.742993
 21
-85.745888
  0
LINE
  8
型材断面
  6
CONTINUOUS
 10
73.24034
 20
-81.92922
 11
-28.742993
 21
-81.92922
  0
LINE
  8
型材断面
  6
CONTINUOUS
 10
73.24701
 20
-81.762505
 11
-28.742993
 21
-81.762505
  0
LINE
  8
型材断面
  6
CONTINUOUS
 10
72.657005
 20
-77.595838
 11
-28.742993
 21
-77.595838
  0
LINE
  8
型材断面
  6
CONTINUOUS
 10
72.813528
 20
-77.762505
 11
-28.742993
 21
-77.762505
  0
LINE
  8
型材断面
  6
CONTINUOUS
 10
72.657005
 20
-79.262505
 11
-28.742993
 21
-79.262505
  0
LINE
  8
型材断面
  6
CONTINUOUS
 10
73.240345
 20
-79.589173
 11
-28.742993
 21
-79.589173
  0
INSERT
  2
*GRP_0023
  8
型材断面
  6
CONTINUOUS
 10
0.0
 20
0.0
  0
INSERT
  2
*GRP_0024
  8
型材断面
  6
CONTINUOUS
 10
0.0
 20
0.0
  0
INSERT
  2
*GRP_0025
  8
型材断面
  6
CONTINUOUS
 10
0.0
 20
0.0
  0
INSERT
  2
*GRP_0026
  8
型材断面
  6
CONTINUOUS
 10
0.0
 20
0.0
  0
INSERT
  2
*GRP_0027
  8
型材断面
  6
CONTINUOUS
 10
0.0
 20
0.0
  0
INSERT
  2
*GRP_0028
  8
型材断面
  6
CONTINUOUS
 10
0.0
 20
0.0
  0
ARC
  8
型材断面
  6
DOT
 62
    47
 10
-130.726329
 20
-70.045835
 40
0.016668
 50
89.999123
 51
180.0
  0
ARC
  8
型材断面
  6
DOT
 62
    47
 10
-130.732995
 20
-70.085837
 40
0.010002
 50
180.0
 51
269.791626
  0
LINE
  8
型材断面
  6
DOT
 62
    47
 10
-130.72633
 20
-70.029165
 11
-130.72633
 21
-67.922505
  0
LINE
  8
型材断面
  6
DOT
 62
    47
 10
-129.84299
 20
-67.922505
 11
-129.84299
 21
-67.595838
  0
LINE
  8
型材断面
  6
DOT
 62
    47
 10
-130.74299
 20
-70.045832
 11
-130.74299
 21
-70.085492
  0
ARC
  8
型材断面
  6
DOT
 62
    47
 10
73.240343
 20
-70.045835
 40
0.016668
 50
0.0
 51
90.000877
  0
ARC
  8
型材断面
  6
DOT
 62
    47
 10
73.247009
 20
-70.085837
 40
0.010002
 50
270.208374
 51
360.0
  0
LINE
  8
型材断面
  6
DOT
 62
    47
 10
73.240345
 20
-70.029165
 11
73.240345
 21
-67.922505
  0
LINE
  8
型材断面
  6
DOT
 62
    47
 10
72.357005
 20
-67.922505
 11
72.357005
 21
-67.595838
  0
LINE
  8
型材断面
  6
DOT
 62
    47
 10
73.257005
 20
-70.045832
 11
73.257005
 21
-70.085492
  0
LINE
  8
型材断面
  6
DOT
 10
-130.299513
 20
-66.095838
 11
-28.742993
 21
-66.095838
  0
LINE
  8
型材断面
  6
DOT
 10
-130.14299
 20
-65.92917
 11
-28.742993
 21
-65.92917
  0
LINE
  8
型材断面
  6
DOT
 10
-130.72633
 20
-67.922505
 11
-28.742993
 21
-67.922505
  0
LINE
  8
型材断面
  6
DOT
 10
-130.14299
 20
-67.595838
 11
-28.742993
 21
-67.595838
  0
LINE
  8
型材断面
  6
DOT
 10
-130.732995
 20
-70.095838
 11
-28.742993
 21
-70.095838
  0
LINE
  8
型材断面
  6
DOT
 10
73.24701
 20
-70.095838
 11
-28.742993
 21
-70.095838
  0
LINE
  8
型材断面
  6
DOT
 10
73.240345
 20
-67.922505
 11
-28.742993
 21
-67.922505
  0
LINE
  8
型材断面
  6
DOT
 10
72.657005
 20
-67.595838
 11
-28.742993
 21
-67.595838
  0
LINE
  8
型材断面
  6
DOT
 10
72.657005
 20
-65.92917
 11
-28.742993
 21
-65.92917
  0
LINE
  8
型材断面
  6
DOT
 10
72.813528
 20
-66.095838
 11
-28.742993
 21
-66.095838
  0
LINE
  8
型材断面
  6
DASHDOT
 10
-95.576325
 20
13.399048
 11
-95.576325
 21
43.399048
  0
LINE
  8
型材断面
  6
DASHDOT
 10
-62.159657
 20
13.399048
 11
-62.159657
 21
43.399048
  0
LINE
  8
型材断面
  6
DASHDOT
 10
38.09034
 20
13.399048
 11
38.09034
 21
43.399048
  0
LINE
  8
型材断面
  6
DASHDOT
 10
4.673673
 20
13.399048
 11
4.673673
 21
43.399048
  0
LINE
  8
型材断面
  6
CONTINUOUS
 10
55.090343
 20
14.342527
 11
55.090343
 21
11.842527
  0
LINE
  8
型材断面
  6
CONTINUOUS
 10
54.257007
 20
14.342527
 11
54.257007
 21
11.842527
  0
LINE
  8
型材断面
  6
CONTINUOUS
 10
21.798673
 20
11.842527
 11
21.798673
 21
14.342527
  0
LINE
  8
型材断面
  6
CONTINUOUS
 10
20.965337
 20
11.842527
 11
20.965337
 21
14.342527
  0
LINE
  8
型材断面
  6
CONTINUOUS
 10
-11.617995
 20
11.842527
 11
-11.617995
 21
14.342527
  0
LINE
  8
型材断面
  6
CONTINUOUS
 10
-12.45133
 20
11.842527
 11
-12.45133
 21
14.342527
  0
LINE
  8
型材断面
  6
CONTINUOUS
 10
-112.576328
 20
14.342527
 11
-112.576328
 21
11.842527
  0
LINE
  8
型材断面
  6
CONTINUOUS
 10
-111.742993
 20
14.342527
 11
-111.742993
 21
11.842527
  0
LINE
  8
型材断面
  6
CONTINUOUS
 10
-79.284657
 20
11.842527
 11
-79.284657
 21
14.342527
  0
LINE
  8
型材断面
  6
CONTINUOUS
 10
-78.451322
 20
11.842527
 11
-78.451322
 21
14.342527
  0
LINE
  8
型材断面
  6
CONTINUOUS
 10
-45.86799
 20
11.842527
 11
-45.86799
 21
14.342527
  0
LINE
  8
型材断面
  6
CONTINUOUS
 10
-45.034655
 20
11.842527
 11
-45.034655
 21
14.342527
  0
LINE
  8
型材断面
  6
CONTINUOUS
 10
55.090343
 20
42.455567
 11
55.090343
 21
44.955567
  0
LINE
  8
型材断面
  6
CONTINUOUS
 10
54.257007
 20
42.455567
 11
54.257007
 21
44.955567
  0
LINE
  8
型材断面
  6
CONTINUOUS
 10
21.798673
 20
44.955567
 11
21.798673
 21
42.455567
  0
LINE
  8
型材断面
  6
CONTINUOUS
 10
20.965337
 20
44.955567
 11
20.965337
 21
42.455567
  0
LINE
  8
型材断面
  6
CONTINUOUS
 10
-11.617995
 20
44.955567
 11
-11.617995
 21
42.455567
  0
LINE
  8
型材断面
  6
CONTINUOUS
 10
-12.45133
 20
44.955567
 11
-12.45133
 21
42.455567
  0
LINE
  8
型材断面
  6
CONTINUOUS
 10
-112.576328
 20
42.455567
 11
-112.576328
 21
44.955567
  0
LINE
  8
型材断面
  6
CONTINUOUS
 10
-111.742993
 20
42.455567
 11
-111.742993
 21
44.955567
  0
LINE
  8
型材断面
  6
CONTINUOUS
 10
-79.284657
 20
44.955567
 11
-79.284657
 21
42.455567
  0
LINE
  8
型材断面
  6
CONTINUOUS
 10
-78.451322
 20
44.955567
 11
-78.451322
 21
42.455567
  0
LINE
  8
型材断面
  6
CONTINUOUS
 10
-45.86799
 20
44.955567
 11
-45.86799
 21
42.455567
  0
LINE
  8
型材断面
  6
CONTINUOUS
 10
-45.034655
 20
44.955567
 11
-45.034655
 21
42.455567
  0
LINE
  8
型材断面
  6
CONTINUOUS
 10
72.813528
 20
27.98238
 11
70.313528
 21
27.98238
  0
LINE
  8
型材断面
  6
CONTINUOUS
 10
72.813528
 20
28.815715
 11
70.313528
 21
28.815715
  0
LINE
  8
型材断面
  6
CONTINUOUS
 10
21.798673
 20
42.455567
 11
54.257007
 21
42.455567
  0
LINE
  8
型材断面
  6
CONTINUOUS
 10
21.798673
 20
14.342527
 11
54.257007
 21
14.342527
  0
LINE
  8
型材断面
  6
CONTINUOUS
 10
-11.617995
 20
14.342527
 11
20.965337
 21
14.342527
  0
LINE
  8
型材断面
  6
CONTINUOUS
 10
-11.617995
 20
42.455567
 11
20.965337
 21
42.455567
  0
LINE
  8
型材断面
  6
CONTINUOUS
 10
-45.034655
 20
42.455567
 11
-12.45133
 21
42.455567
  0
LINE
  8
型材断面
  6
CONTINUOUS
 10
-45.034655
 20
14.342527
 11
-12.45133
 21
14.342527
  0
LINE
  8
型材断面
  6
CONTINUOUS
 10
-78.451322
 20
14.342527
 11
-45.86799
 21
14.342527
  0
LINE
  8
型材断面
  6
CONTINUOUS
 10
-78.451322
 20
42.455567
 11
-45.86799
 21
42.455567
  0
LINE
  8
型材断面
  6
CONTINUOUS
 10
-111.742993
 20
42.455567
 11
-79.284657
 21
42.455567
  0
LINE
  8
型材断面
  6
CONTINUOUS
 10
-111.742993
 20
14.342527
 11
-79.284657
 21
14.342527
  0
LINE
  8
型材断面
  6
CONTINUOUS
 10
72.57783
 20
11.842525
 11
72.813528
 21
12.078233
  0
LINE
  8
型材断面
  6
CONTINUOUS
 10
73.240193
 20
11.415868
 11
72.69568
 21
11.96038
  0
LINE
  8
型材断面
  6
CONTINUOUS
 10
39.34034
 20
15.175857
 11
36.84034
 21
15.175857
  0
LINE
  8
型材断面
  6
CONTINUOUS
 10
70.313528
 20
27.98238
 11
70.313528
 21
14.578227
  0
LINE
  8
型材断面
  6
CONTINUOUS
 10
70.313528
 20
14.578227
 11
70.077828
 21
14.342527
  0
LINE
  8
型材断面
  6
CONTINUOUS
 10
55.090343
 20
14.342527
 11
70.077828
 21
14.342527
  0
LINE
  8
型材断面
  6
CONTINUOUS
 10
70.077825
 20
14.342525
 11
72.577828
 21
11.842527
  0
LINE
  8
型材断面
  6
CONTINUOUS
 10
70.313528
 20
14.578227
 11
72.813528
 21
12.078233
  0
LINE
  8
型材断面
  6
CONTINUOUS
 10
72.57783
 20
44.95557
 11
72.813528
 21
44.719863
  0
LINE
  8
型材断面
  6
CONTINUOUS
 10
73.240193
 20
45.382228
 11
72.69568
 21
44.837715
  0
LINE
  8
型材断面
  6
CONTINUOUS
 10
39.34034
 20
41.622237
 11
36.84034
 21
41.622237
  0
LINE
  8
型材断面
  6
CONTINUOUS
 10
70.313528
 20
42.219867
 11
72.813528
 21
44.719863
  0
LINE
  8
型材断面
  6
CONTINUOUS
 10
72.813528
 20
12.078233
 11
72.813528
 21
44.719863
  0
LINE
  8
型材断面
  6
CONTINUOUS
 10
70.077825
 20
42.45557
 11
72.577828
 21
44.955567
  0
LINE
  8
型材断面
  6
CONTINUOUS
 10
70.313528
 20
28.815715
 11
70.313528
 21
42.219867
  0
LINE
  8
型材断面
  6
CONTINUOUS
 10
70.313528
 20
42.219867
 11
70.077828
 21
42.455567
  0
LINE
  8
型材断面
  6
CONTINUOUS
 10
55.090343
 20
42.455567
 11
70.077828
 21
42.455567
  0
LINE
  8
型材断面
  6
CONTINUOUS
 10
39.34034
 20
15.175857
 11
39.34034
 21
41.622237
  0
LINE
  8
型材断面
  6
CONTINUOUS
 10
36.84034
 20
15.175857
 11
36.84034
 21
41.622237
  0
LINE
  8
型材断面
  6
CONTINUOUS
 10
5.923673
 20
15.175857
 11
3.423673
 21
15.175857
  0
LINE
  8
型材断面
  6
CONTINUOUS
 10
5.923673
 20
41.622237
 11
3.423673
 21
41.622237
  0
LINE
  8
型材断面
  6
CONTINUOUS
 10
5.923673
 20
15.175857
 11
5.923673
 21
41.622237
  0
LINE
  8
型材断面
  6
CONTINUOUS
 10
3.423673
 20
15.175857
 11
3.423673
 21
41.622237
  0
LINE
  8
型材断面
  6
CONTINUOUS
 10
-27.492993
 20
15.175857
 11
-29.992993
 21
15.175857
  0
LINE
  8
型材断面
  6
CONTINUOUS
 10
-27.492993
 20
41.622237
 11
-29.992993
 21
41.622237
  0
LINE
  8
型材断面
  6
CONTINUOUS
 10
-27.492993
 20
15.175857
 11
-27.492993
 21
41.622237
  0
LINE
  8
型材断面
  6
CONTINUOUS
 10
-29.992993
 20
15.175857
 11
-29.992993
 21
41.622237
  0
LINE
  8
型材断面
  6
CONTINUOUS
 10
-130.726178
 20
45.382228
 11
-130.726178
 21
28.399048
  0
LINE
  8
型材断面
  6
CONTINUOUS
 10
-130.726178
 20
11.415868
 11
-130.726178
 21
28.399048
  0
LINE
  8
型材断面
  6
CONTINUOUS
 10
-130.299513
 20
27.98238
 11
-127.799513
 21
27.98238
  0
LINE
  8
型材断面
  6
CONTINUOUS
 10
-130.299513
 20
28.815715
 11
-127.799513
 21
28.815715
  0
LINE
  8
型材断面
  6
CONTINUOUS
 10
-130.063815
 20
11.842525
 11
-130.299513
 21
12.078233
  0
LINE
  8
型材断面
  6
CONTINUOUS
 10
-130.726178
 20
11.415868
 11
-130.181665
 21
11.96038
  0
LINE
  8
型材断面
  6
CONTINUOUS
 10
-96.826325
 20
15.175857
 11
-94.326325
 21
15.175857
  0
LINE
  8
型材断面
  6
CONTINUOUS
 10
-127.799513
 20
27.98238
 11
-127.799513
 21
14.578227
  0
LINE
  8
型材断面
  6
CONTINUOUS
 10
-127.799513
 20
14.578227
 11
-127.563813
 21
14.342527
  0
LINE
  8
型材断面
  6
CONTINUOUS
 10
-127.56381
 20
14.342525
 11
-130.063813
 21
11.842527
  0
LINE
  8
型材断面
  6
CONTINUOUS
 10
-127.799513
 20
14.578227
 11
-130.299513
 21
12.078233
  0
LINE
  8
型材断面
  6
CONTINUOUS
 10
-130.063815
 20
44.95557
 11
-130.299513
 21
44.719863
  0
LINE
  8
型材断面
  6
CONTINUOUS
 10
-130.726178
 20
45.382228
 11
-130.181665
 21
44.837715
  0
LINE
  8
型材断面
  6
CONTINUOUS
 10
-96.826325
 20
41.622237
 11
-94.326325
 21
41.622237
  0
LINE
  8
型材断面
  6
CONTINUOUS
 10
-127.799513
 20
42.219867
 11
-130.299513
 21
44.719863
  0
LINE
  8
型材断面
  6
CONTINUOUS
 10
-130.299513
 20
12.078233
 11
-130.299513
 21
44.719863
  0
LINE
  8
型材断面
  6
CONTINUOUS
 10
-127.56381
 20
42.45557
 11
-130.063813
 21
44.955567
  0
LINE
  8
型材断面
  6
CONTINUOUS
 10
-127.799513
 20
28.815715
 11
-127.799513
 21
42.219867
  0
LINE
  8
型材断面
  6
CONTINUOUS
 10
-127.799513
 20
42.219867
 11
-127.563813
 21
42.455567
  0
LINE
  8
型材断面
  6
CONTINUOUS
 10
-96.826325
 20
15.175857
 11
-96.826325
 21
41.622237
  0
LINE
  8
型材断面
  6
CONTINUOUS
 10
-94.326325
 20
15.175857
 11
-94.326325
 21
41.622237
  0
LINE
  8
型材断面
  6
CONTINUOUS
 10
-63.409657
 20
15.175857
 11
-60.909657
 21
15.175857
  0
LINE
  8
型材断面
  6
CONTINUOUS
 10
-63.409657
 20
41.622237
 11
-60.909657
 21
41.622237
  0
LINE
  8
型材断面
  6
CONTINUOUS
 10
-63.409657
 20
15.175857
 11
-63.409657
 21
41.622237
  0
LINE
  8
型材断面
  6
CONTINUOUS
 10
-60.909657
 20
15.175857
 11
-60.909657
 21
41.622237
  0
LINE
  8
型材断面
  6
CONTINUOUS
 10
-112.576328
 20
14.342527
 11
-127.563807
 21
14.342527
  0
LINE
  8
型材断面
  6
CONTINUOUS
 10
72.577828
 20
11.842527
 11
-130.063813
 21
11.842527
  0
LINE
  8
型材断面
  6
CONTINUOUS
 10
-112.576328
 20
42.455567
 11
-127.563807
 21
42.455567
  0
LINE
  8
型材断面
  6
CONTINUOUS
 10
72.577828
 20
44.955567
 11
-130.063813
 21
44.955567
  0
TEXT
  7
TextStyle03
  8
文字
  6
CONTINUOUS
 10
-37.025
 20
-0.075
  1
可動装置側
 40
3.0
 72
     5
 11
-20.525
 21
-0.075
  0
TEXT
  7
TextStyle03
  8
文字
  6
CONTINUOUS
 10
147.775
 20
-86.1
  1
網入り6.8t
 40
3.0
 72
     5
 11
164.4625
 21
-86.1
  0
TEXT
  7
TextStyle03
  8
文字
  6
CONTINUOUS
 10
154.45
 20
-90.775
  1
×６枚
 40
3.0
 72
     5
 11
164.2
 21
-90.775
  0
TEXT
  7
TextStyle03
  8
文字
  6
CONTINUOUS
 10
-37.025
 20
53.875
  1
可動装置側
 40
3.0
 72
     5
 11
-20.525
 21
53.875
  0
TEXT
  7
TextStyle03
  8
文字
  6
CONTINUOUS
 10
-166.775
 20
80.0
  1
はケーシング位置を示す
 40
3.0
 72
     5
 11
-130.025
 21
80.0
  0
TEXT
  7
TextStyle03
  8
文字
  6
CONTINUOUS
 10
-166.775
 20
76.625
  1
４ヶ所中1ヶ所に設定
 40
3.0
 72
     5
 11
-135.0875
 21
76.625
  0
TEXT
  7
TextStyle03
  8
文字
  6
CONTINUOUS
 10
-166.775
 20
85.525
  1
は排水穴位置を示す
 40
3.0
 72
     5
 11
-136.775
 21
85.525
  0
TEXT
  7
TextStyle03
  8
文字
  6
CONTINUOUS
 10
-149.7
 20
6.875
  1
アンカーピッチ
 40
3.0
 50
90.0
 72
     5
 11
-149.7
 21
30.125
  0
TEXT
  7
TextStyle03
  8
文字
  6
CONTINUOUS
 10
-115.3
 20
80.55
  1
アンカーピッチ
 40
3.0
 72
     5
 11
-92.05
 21
80.55
  0
TEXT
  7
TextStyle03
  8
文字
  6
CONTINUOUS
 10
-170.5
 20
70.65
  1
アンカー数量　２２ヶ所
 40
3.0
 72
     5
 11
-133.75
 21
70.65
  0
TEXT
  7
TextStyle03
  8
文字
  6
CONTINUOUS
 10
-170.575
 20
64.875
  1
アームユニット数　４～６ヶ所
 40
3.0
 72
     5
 11
-123.7
 21
64.875
  0
TEXT
  7
TextStyle03
  8
文字
  6
CONTINUOUS
 10
-175.5
 20
59.925
  1
※重量に依るのでご相談ください
 40
3.0
 72
     5
 11
-125.25
 21
59.925
  0
LINE
  8
文字
  6
CONTINUOUS
 10
159.417243
 20
57.22862
 11
159.417243
 21
46.678658
  0
LINE
  8
文字
  6
CONTINUOUS
 10
167.067293
 20
57.22862
 11
167.067293
 21
46.743737
  0
LINE
  8
文字
  6
CONTINUOUS
 10
84.492252
 20
-77.595838
 11
73.94229
 21
-77.595838
  0
LINE
  8
文字
  6
CONTINUOUS
 10
84.492252
 20
-85.245888
 11
74.00737
 21
-85.245888
  0
LINE
  8
文字
  6
CONTINUOUS
 10
84.492252
 20
-65.92917
 11
73.94229
 21
-65.92917
  0
LINE
  8
文字
  6
CONTINUOUS
 10
134.093563
 20
-61.60788
 11
134.093563
 21
-54.11956
  0
LINE
  8
文字
  6
CONTINUOUS
 10
166.343563
 20
-61.60788
 11
166.343563
 21
-54.11956
  0
TEXT
  7
TextStyle03
  8
文字
  6
CONTINUOUS
 10
60.85
 20
125.25
  1
シリーズ：ＴＦ２ＦＬ
 40
5.0
 72
     5
 11
116.475
 21
125.25
  0
TEXT
  7
TextStyle03
  8
文字
  6
CONTINUOUS
 10
60.85
 20
119.625
  1
　　　　　（上下可動）900×6000タイプ
 40
5.0
 72
     5
 11
164.2875
 21
119.625
  0
TEXT
  7
TextStyle03
  8
文字
  6
CONTINUOUS
 10
60.85
 20
114.0
  1
図面名　：外観姿図
 40
5.0
 72
     5
 11
110.85
 21
114.0
  0
TEXT
  7
TextStyle03
  8
文字
  6
CONTINUOUS
 10
60.85
 20
108.375
  1
　　　　　　
 40
5.0
 72
     5
 11
93.975
 21
108.375
  0
TEXT
  7
TextStyle03
  8
文字
  6
CONTINUOUS
 10
61.0
 20
104.525
  1
ＮＳコード：ＮＳＦＺＬ
 40
5.0
 72
     5
 11
122.25
 21
104.525
  0
INSERT
  2
*DIM_0002
  8
寸法
  6
CONTINUOUS
 10
0.0
 20
0.0
  0
INSERT
  2
*DIM_0003
  8
寸法
  6
CONTINUOUS
 10
0.0
 20
0.0
  0
INSERT
  2
*DIM_0004
  8
寸法
  6
CONTINUOUS
 10
0.0
 20
0.0
  0
INSERT
  2
*DIM_0005
  8
寸法
  6
CONTINUOUS
 10
0.0
 20
0.0
  0
INSERT
  2
*DIM_0006
  8
寸法
  6
CONTINUOUS
 10
0.0
 20
0.0
  0
INSERT
  2
*DIM_0007
  8
寸法
  6
CONTINUOUS
 10
0.0
 20
0.0
  0
INSERT
  2
*DIM_0008
  8
寸法
  6
CONTINUOUS
 10
0.0
 20
0.0
  0
INSERT
  2
*DIM_0009
  8
寸法
  6
CONTINUOUS
 10
0.0
 20
0.0
  0
INSERT
  2
*DIM_0010
  8
寸法
  6
CONTINUOUS
 10
0.0
 20
0.0
  0
INSERT
  2
*DIM_0011
  8
寸法
  6
CONTINUOUS
 10
0.0
 20
0.0
  0
INSERT
  2
*DIM_0012
  8
寸法
  6
CONTINUOUS
 10
0.0
 20
0.0
  0
INSERT
  2
*DIM_0013
  8
寸法
  6
CONTINUOUS
 10
0.0
 20
0.0
  0
INSERT
  2
*DIM_0014
  8
寸法
  6
CONTINUOUS
 10
0.0
 20
0.0
  0
INSERT
  2
*DIM_0015
  8
寸法
  6
CONTINUOUS
 10
0.0
 20
0.0
  0
INSERT
  2
*DIM_0016
  8
寸法
  6
CONTINUOUS
 10
0.0
 20
0.0
  0
INSERT
  2
*DIM_0017
  8
寸法
  6
CONTINUOUS
 10
0.0
 20
0.0
  0
INSERT
  2
*DIM_0018
  8
寸法
  6
CONTINUOUS
 10
0.0
 20
0.0
  0
INSERT
  2
*DIM_0019
  8
寸法
  6
CONTINUOUS
 10
0.0
 20
0.0
  0
INSERT
  2
*DIM_0020
  8
寸法
  6
CONTINUOUS
 10
0.0
 20
0.0
  0
INSERT
  2
*DIM_0021
  8
寸法
  6
CONTINUOUS
 10
0.0
 20
0.0
  0
INSERT
  2
*DIM_0022
  8
寸法
  6
CONTINUOUS
 10
0.0
 20
0.0
  0
INSERT
  2
*DIM_0029
  8
寸法
  6
CONTINUOUS
 10
0.0
 20
0.0
  0
INSERT
  2
*DIM_0030
  8
寸法
  6
CONTINUOUS
 10
0.0
 20
0.0
  0
INSERT
  2
*DIM_0031
  8
寸法
  6
CONTINUOUS
 10
0.0
 20
0.0
  0
LINE
  8
別途部材
  6
CONTINUOUS
 62
    47
 10
159.517243
 20
11.842527
 11
159.583907
 21
11.842527
  0
ARC
  8
別途部材
  6
CONTINUOUS
 62
    47
 10
159.517241
 20
11.942528
 40
0.1
 50
180.0
 51
270.0
  0
LINE
  8
別途部材
  6
CONTINUOUS
 62
    47
 10
159.417243
 20
11.942527
 11
159.417243
 21
14.309195
  0
LINE
  8
別途部材
  6
CONTINUOUS
 62
    47
 10
161.083907
 20
11.99905
 11
159.583907
 21
11.99905
  0
LINE
  8
別途部材
  6
CONTINUOUS
 62
    47
 10
159.517243
 20
44.955567
 11
159.583907
 21
44.955567
  0
ARC
  8
別途部材
  6
CONTINUOUS
 62
    47
 10
159.517241
 20
44.85557
 40
0.1
 50
90.0
 51
180.0
  0
LINE
  8
別途部材
  6
CONTINUOUS
 62
    47
 10
159.417243
 20
44.855567
 11
159.417243
 21
42.488903
  0
LINE
  8
別途部材
  6
CONTINUOUS
 62
    47
 10
161.083907
 20
44.799048
 11
159.583907
 21
44.799048
  0
LINE
  8
別途部材
  6
CONTINUOUS
 62
    47
 10
-130.299513
 20
-77.695838
 11
-130.299513
 21
-77.762505
  0
ARC
  8
別途部材
  6
CONTINUOUS
 62
    47
 10
-130.199514
 20
-77.695839
 40
0.1
 50
90.0
 51
180.0
  0
LINE
  8
別途部材
  6
CONTINUOUS
 62
    47
 10
-130.199513
 20
-77.595838
 11
-127.832845
 21
-77.595838
  0
LINE
  8
別途部材
  6
CONTINUOUS
 62
    47
 10
-130.14299
 20
-79.262505
 11
-130.14299
 21
-77.762505
  0
LINE
  8
別途部材
  6
CONTINUOUS
 62
    47
 10
72.813528
 20
-77.695838
 11
72.813528
 21
-77.762505
  0
ARC
  8
別途部材
  6
CONTINUOUS
 62
    47
 10
72.713528
 20
-77.695839
 40
0.1
 50
0.0
 51
90.0
  0
LINE
  8
別途部材
  6
CONTINUOUS
 62
    47
 10
72.713528
 20
-77.595838
 11
70.34686
 21
-77.595838
  0
LINE
  8
別途部材
  6
CONTINUOUS
 62
    47
 10
72.657005
 20
-79.262505
 11
72.657005
 21
-77.762505
  0
LINE
  8
別途部材
  6
DOT
 62
    47
 10
-130.299513
 20
-66.02917
 11
-130.299513
 21
-66.095838
  0
ARC
  8
別途部材
  6
DOT
 62
    47
 10
-130.199514
 20
-66.029173
 40
0.1
 50
90.0
 51
180.0
  0
LINE
  8
別途部材
  6
DOT
 62
    47
 10
-130.199513
 20
-65.92917
 11
-127.832845
 21
-65.92917
  0
LINE
  8
別途部材
  6
DOT
 62
    47
 10
-130.14299
 20
-67.595838
 11
-130.14299
 21
-66.095838
  0
LINE
  8
別途部材
  6
DOT
 62
    47
 10
72.813528
 20
-66.02917
 11
72.813528
 21
-66.095838
  0
ARC
  8
別途部材
  6
DOT
 62
    47
 10
72.713528
 20
-66.029173
 40
0.1
 50
0.0
 51
90.0
  0
LINE
  8
別途部材
  6
DOT
 62
    47
 10
72.713528
 20
-65.92917
 11
70.34686
 21
-65.92917
  0
LINE
  8
別途部材
  6
DOT
 62
    47
 10
72.657005
 20
-67.595838
 11
72.657005
 21
-66.095838
  0
LINE
  8
曲げ物
  6
CONTINUOUS
 10
166.343563
 20
-92.533713
 11
166.343563
 21
-63.20038
  0
LINE
  8
曲げ物
  6
CONTINUOUS
 10
55.982738
 20
30.602695
 11
52.287425
 21
26.907382
  0
LINE
  8
曲げ物
  6
CONTINUOUS
 10
55.279268
 20
29.066585
 11
53.823538
 21
27.610855
  0
LINE
  8
曲げ物
  6
CONTINUOUS
 10
54.446628
 20
29.899225
 11
52.990898
 21
28.443495
  0
LINE
  8
曲げ物
  6
CONTINUOUS
 10
23.355437
 20
30.602695
 11
19.660125
 21
26.907382
  0
LINE
  8
曲げ物
  6
CONTINUOUS
 10
22.651967
 20
29.066585
 11
21.196237
 21
27.610855
  0
LINE
  8
曲げ物
  6
CONTINUOUS
 10
21.819327
 20
29.899225
 11
20.363597
 21
28.443495
  0
LINE
  8
曲げ物
  6
CONTINUOUS
 10
-9.597012
 20
30.602695
 11
-13.292325
 21
26.907382
  0
LINE
  8
曲げ物
  6
CONTINUOUS
 10
-10.300482
 20
29.066585
 11
-11.756213
 21
27.610855
  0
LINE
  8
曲げ物
  6
CONTINUOUS
 10
-11.133122
 20
29.899225
 11
-12.588853
 21
28.443495
  0
LINE
  8
曲げ物
  6
CONTINUOUS
 10
-42.977415
 20
30.602695
 11
-46.672728
 21
26.907382
  0
LINE
  8
曲げ物
  6
CONTINUOUS
 10
-43.680885
 20
29.066585
 11
-45.136615
 21
27.610855
  0
LINE
  8
曲げ物
  6
CONTINUOUS
 10
-44.513525
 20
29.899225
 11
-45.969255
 21
28.443495
  0
LINE
  8
曲げ物
  6
CONTINUOUS
 10
-75.930945
 20
30.602695
 11
-79.626257
 21
26.907382
  0
LINE
  8
曲げ物
  6
CONTINUOUS
 10
-76.634415
 20
29.066585
 11
-78.090145
 21
27.610855
  0
LINE
  8
曲げ物
  6
CONTINUOUS
 10
-77.467055
 20
29.899225
 11
-78.922785
 21
28.443495
  0
LINE
  8
曲げ物
  6
CONTINUOUS
 10
-109.596652
 20
30.602695
 11
-113.291965
 21
26.907382
  0
LINE
  8
曲げ物
  6
CONTINUOUS
 10
-110.300123
 20
29.066585
 11
-111.755853
 21
27.610855
  0
LINE
  8
曲げ物
  6
CONTINUOUS
 10
-111.132762
 20
29.899225
 11
-112.588493
 21
28.443495
  0
LINE
  8
曲げ物
  6
CONTINUOUS
 10
134.093563
 20
-92.533713
 11
134.093563
 21
-63.20038
  0
LINE
  8
曲げ物
  6
CONTINUOUS
 10
166.343563
 20
-63.20038
 11
134.093563
 21
-63.20038
  0
LINE
  8
曲げ物
  6
CONTINUOUS
 10
166.343563
 20
-92.533713
 11
134.093563
 21
-92.533713
  0
ENDSEC
  0
EOF
