  0
SECTION
  2
HEADER
  9
$EXTMIN
 10
-210.0
 20
-148.5
  9
$EXTMAX
 10
210.0
 20
148.5
  9
$PDMODE
 70
    32
  9
$PDSIZE
 40
1.5
  9
$LTSCALE
 40
10.0
  0
ENDSEC
  0
SECTION
  2
TABLES
  0
TABLE
  2
LTYPE
 70
    15
  0
LTYPE
  2
CONTINUOUS
 70
    64
  3
実線
 72
    65
 73
     0
 40
0.0
  0
LTYPE
  2
DASHED
 70
    64
  3
破線A
 72
    65
 73
     2
 40
0.6
 49
0.4
 49
-0.2
  0
LTYPE
  2
DASHEDX2
 70
    64
  3
破線B
 72
    65
 73
     2
 40
1.3
 49
0.9
 49
-0.4
  0
LTYPE
  2
DASHDOT
 70
    64
  3
１点鎖線A
 72
    65
 73
     4
 40
0.5375
 49
0.375
 49
-0.05
 49
0.0625
 49
-0.05
  0
LTYPE
  2
DASHDOTX2
 70
    64
  3
１点鎖線B
 72
    65
 73
     4
 40
1.075
 49
0.75
 49
-0.1
 49
0.125
 49
-0.1
  0
LTYPE
  2
DIVIDE2
 70
    64
  3
２点鎖線A
 72
    65
 73
     6
 40
0.5125
 49
0.3
 49
-0.0375
 49
0.05
 49
-0.0375
 49
0.05
 49
-0.0375
  0
LTYPE
  2
DIVIDE
 70
    64
  3
２点鎖線B
 72
    65
 73
     6
 40
1.05
 49
0.55
 49
-0.1
 49
0.1
 49
-0.1
 49
0.1
 49
-0.1
  0
LTYPE
  2
DOT
 70
    64
  3
点線A
 72
    65
 73
     2
 40
0.1125
 49
0.0625
 49
-0.05
  0
LTYPE
  2
DOTX2
 70
    64
  3
点線B
 72
    65
 73
     2
 40
0.275
 49
0.15
 49
-0.125
  0
LTYPE
  2
CONTINUOUS
 70
    64
  3
実線
 72
    65
 73
     0
 40
0.0
  0
LTYPE
  2
CONTINUOUS
 70
    64
  3
実線
 72
    65
 73
     0
 40
0.0
  0
LTYPE
  2
CONTINUOUS
 70
    64
  3
実線
 72
    65
 73
     0
 40
0.0
  0
LTYPE
  2
CONTINUOUS
 70
    64
  3
実線
 72
    65
 73
     0
 40
0.0
  0
LTYPE
  2
CONTINUOUS
 70
    64
  3
実線
 72
    65
 73
     0
 40
0.0
  0
LTYPE
  2
CONTINUOUS
 70
    64
  3
実線
 72
    65
 73
     0
 40
0.0
  0
ENDTAB
  0
TABLE
  2
LAYER
 70
    34
  0
LAYER
  2
通り芯
 70
     0
 62
    15
  6
CONTINUOUS
  0
LAYER
  2
補助線
 70
     0
 62
    16
  6
DOT
  0
LAYER
  2
躯体
 70
     0
 62
    31
  6
CONTINUOUS
  0
LAYER
  2
型材
 70
     0
 62
    32
  6
CONTINUOUS
  0
LAYER
  2
型材断面
 70
     0
 62
    47
  6
CONTINUOUS
  0
LAYER
  2
ガラス
 70
     0
 62
    48
  6
CONTINUOUS
  0
LAYER
  2
ゴム等
 70
     0
 62
    63
  6
CONTINUOUS
  0
LAYER
  2
ボルト／ビス
 70
     0
 62
    64
  6
CONTINUOUS
  0
LAYER
  2
文字
 70
     0
 62
    79
  6
CONTINUOUS
  0
LAYER
  2
寸法
 70
     0
 62
    80
  6
CONTINUOUS
  0
LAYER
  2
ﾊｯﾁﾝｸﾞ
 70
     0
 62
    95
  6
CONTINUOUS
  0
LAYER
  2
別途部材
 70
     0
 62
    96
  6
CONTINUOUS
  0
LAYER
  2
曲げ物
 70
     0
 62
   111
  6
CONTINUOUS
  0
LAYER
  2
鉄骨等
 70
     0
 62
   112
  6
CONTINUOUS
  0
LAYER
  2
St
 70
     0
 62
   127
  6
CONTINUOUS
  0
LAYER
  2
その他部品等
 70
     0
 62
   128
  6
CONTINUOUS
  0
LAYER
  2
ｶﾞｽｹｯﾄ
 70
     0
 62
   143
  6
CONTINUOUS
  0
LAYER
  2
ｽｹｯﾁ
 70
     0
 62
    14
  6
CONTINUOUS
  0
LAYER
  2
0
 70
     0
 62
    17
  6
CONTINUOUS
  0
LAYER
  2
1
 70
     0
 62
    30
  6
CONTINUOUS
  0
LAYER
  2
4
 70
     0
 62
    33
  6
CONTINUOUS
  0
LAYER
  2
ﾚｲﾔ3
 70
     0
 62
    46
  6
CONTINUOUS
  0
LAYER
  2
外形線
 70
     0
 62
    49
  6
CONTINUOUS
  0
LAYER
  2
部品
 70
     0
 62
    14
  6
CONTINUOUS
  0
LAYER
  2
サッシ芯
 70
     0
 62
    17
  6
DASHDOTX2
  0
LAYER
  2
寸法線
 70
     0
 62
    62
  6
CONTINUOUS
  0
LAYER
  2
姿図外形線
 70
     0
 62
    65
  6
CONTINUOUS
  0
LAYER
  2
姿補助線
 70
     0
 62
    30
  6
CONTINUOUS
  0
LAYER
  2
透視線
 70
     0
 62
    78
  6
DOT
  0
LAYER
  2
用紙
 70
     0
 62
    81
  6
CONTINUOUS
  0
LAYER
  2
実線図枠
 70
     0
 62
    94
  6
CONTINUOUS
  0
LAYER
  2
補助図枠
 70
     0
 62
    97
  6
CONTINUOUS
  0
LAYER
  2
建具記号
 70
     0
 62
   110
  6
CONTINUOUS
  0
LAYER
  2
補助文字
 70
     0
 62
   113
  6
CONTINUOUS
  0
ENDTAB
  0
TABLE
  2
STYLE
 70
    10
  0
STYLE
  2
STANDARD
 70
     0
 40
1.0
 41
1.0
 42
1.0
 50
0.0
 71
     0
  3
TXT
  4
BIGFONT
  0
STYLE
  2
TATE
 70
     4
 40
1.0
 41
1.0
 42
1.0
 50
0.0
 71
     0
  3
TXT
  4
BIGFONT
  0
STYLE
  2
TextStyle03
 70
     0
 40
1.0
 41
1.0
 42
1.0
 50
0.0
 71
     0
  3
MONOTXT
  4
BIGFONT
  0
STYLE
  2
TextStyle04
 70
     0
 40
1.0
 41
1.0
 42
1.0
 50
0.0
 71
     0
  3
MONOTXT
  4
BIGFONT
  0
STYLE
  2
TextStyle05
 70
     0
 40
1.0
 41
1.0
 42
1.0
 50
0.0
 71
     0
  3
MONOTXT
  4
BIGFONT
  0
STYLE
  2
TextStyle06
 70
     0
 40
1.0
 41
1.0
 42
1.0
 50
0.0
 71
     0
  3
MONOTXT
  4
BIGFONT
  0
STYLE
  2
TextStyle07
 70
     0
 40
1.0
 41
1.0
 42
1.0
 50
0.0
 71
     0
  3
MONOTXT
  4
BIGFONT
  0
STYLE
  2
TextStyle08
 70
     0
 40
1.0
 41
1.0
 42
1.0
 50
0.0
 71
     0
  3
MONOTXT
  4
BIGFONT
  0
STYLE
  2
TextStyle09
 70
     0
 40
1.0
 41
1.0
 42
1.0
 50
0.0
 71
     0
  3
MONOTXT
  4
BIGFONT
  0
STYLE
  2
TextStyle10
 70
     0
 40
1.0
 41
1.0
 42
1.0
 50
0.0
 71
     0
  3
MONOTXT
  4
BIGFONT
  0
ENDTAB
  0
ENDSEC
  0
SECTION
  2
BLOCKS
  0
BLOCK
  2
*GRP_0001
 70
    65
 10
0.0
 20
0.0
  0
LINE
  8
型材断面
  6
CONTINUOUS
 10
195.0
 20
133.5
 11
195.0
 21
-133.5
  0
LINE
  8
型材断面
  6
CONTINUOUS
 10
195.0
 20
-133.5
 11
-185.0
 21
-133.5
  0
LINE
  8
型材断面
  6
CONTINUOUS
 10
-185.0
 20
-133.5
 11
-185.0
 21
133.5
  0
LINE
  8
型材断面
  6
CONTINUOUS
 10
195.0
 20
133.5
 11
-185.0
 21
133.5
  0
LINE
  8
型材断面
  6
CONTINUOUS
 10
145.0
 20
-133.5
 11
145.0
 21
-118.5
  0
LINE
  8
型材断面
  6
CONTINUOUS
 10
195.0
 20
-118.5
 11
145.0
 21
-118.5
  0
ENDBLK
  0
BLOCK
  2
*DIM_0002
 70
    65
 10
0.0
 20
0.0
  0
LINE
  8
寸法
  6
BYBLOCK
 62
     0
 10
136.10293
 20
-53.785395
 11
144.16122
 21
-53.785395
  0
LINE
  8
寸法
  6
BYBLOCK
 62
     0
 10
136.10293
 20
-83.118728
 11
144.16122
 21
-83.118728
  0
LINE
  8
寸法
  6
BYBLOCK
 62
     0
 10
144.16122
 20
-53.785395
 11
144.16122
 21
-83.118728
  0
POINT
  8
寸法
 62
     0
 10
144.16122
 20
-53.785395
  0
POINT
  8
寸法
 62
     0
 10
144.16122
 20
-83.118728
  0
TEXT
  7
TextStyle03
  8
寸法
  6
CONTINUOUS
 62
     0
 10
143.825
 20
-70.9125
  1
880
 40
3.0
 50
90.0
 72
     5
 11
143.825
 21
-66.0375
  0
ENDBLK
  0
BLOCK
  2
*DIM_0003
 70
    65
 10
0.0
 20
0.0
  0
LINE
  8
寸法
  6
BYBLOCK
 62
     0
 10
-76.650292
 20
-13.511205
 11
-76.650292
 21
-13.121378
  0
LINE
  8
寸法
  6
BYBLOCK
 62
     0
 10
40.016375
 20
-13.121378
 11
-76.650292
 21
-13.121378
  0
POINT
  8
寸法
 62
     0
 10
40.016375
 20
-13.121378
  0
POINT
  8
寸法
 62
     0
 10
-76.650292
 20
-13.121378
  0
TEXT
  7
TextStyle03
  8
寸法
  6
CONTINUOUS
 62
     0
 10
-30.01875
 20
-12.75
  1
呼称寸法　3500
 40
3.0
 72
     5
 11
-6.58125
 21
-12.75
  0
ENDBLK
  0
BLOCK
  2
*DIM_0004
 70
    65
 10
0.0
 20
0.0
  0
LINE
  8
寸法
  6
BYBLOCK
 62
     0
 10
-59.983625
 20
19.183902
 11
-59.983625
 21
14.000657
  0
LINE
  8
寸法
  6
BYBLOCK
 62
     0
 10
23.34971
 20
19.183902
 11
23.34971
 21
14.000657
  0
LINE
  8
寸法
  6
BYBLOCK
 62
     0
 10
-59.983625
 20
14.000657
 11
23.34971
 21
14.000657
  0
POINT
  8
寸法
 62
     0
 10
-59.983625
 20
14.000657
  0
POINT
  8
寸法
 62
     0
 10
23.34971
 20
14.000657
  0
TEXT
  7
TextStyle03
  8
寸法
  6
CONTINUOUS
 62
     0
 10
-21.60625
 20
14.375
  1
2500
 40
3.0
 72
     5
 11
-15.04375
 21
14.375
  0
ENDBLK
  0
BLOCK
  2
*DIM_0005
 70
    65
 10
0.0
 20
0.0
  0
LINE
  8
寸法
  6
BYBLOCK
 62
     0
 10
41.016375
 20
52.814035
 11
50.740658
 21
52.814035
  0
LINE
  8
寸法
  6
BYBLOCK
 62
     0
 10
43.646505
 20
49.114035
 11
50.740658
 21
49.114035
  0
LINE
  8
寸法
  6
BYBLOCK
 62
     0
 10
50.740658
 20
52.814035
 11
50.740658
 21
49.114035
  0
POINT
  8
寸法
 62
     0
 10
50.740658
 20
52.814035
  0
POINT
  8
寸法
 62
     0
 10
50.740658
 20
49.114035
  0
TEXT
  7
TextStyle03
  8
寸法
  6
CONTINUOUS
 62
     0
 10
50.4
 20
53.8125
  1
111
 40
3.0
 50
90.0
 72
     5
 11
50.4
 21
58.6875
  0
ENDBLK
  0
BLOCK
  2
*DIM_0006
 70
    65
 10
0.0
 20
0.0
  0
LINE
  8
寸法
  6
BYBLOCK
 62
     0
 10
41.016375
 20
22.81403
 11
50.740658
 21
22.814027
  0
LINE
  8
寸法
  6
BYBLOCK
 62
     0
 10
43.646505
 20
26.51403
 11
50.740658
 21
26.514027
  0
LINE
  8
寸法
  6
BYBLOCK
 62
     0
 10
50.740658
 20
22.814027
 11
50.740658
 21
26.514027
  0
POINT
  8
寸法
 62
     0
 10
50.740658
 20
22.814027
  0
POINT
  8
寸法
 62
     0
 10
50.740658
 20
26.514027
  0
TEXT
  7
TextStyle03
  8
寸法
  6
CONTINUOUS
 62
     0
 10
50.4
 20
16.9375
  1
111
 40
3.0
 50
90.0
 72
     5
 11
50.4
 21
21.8125
  0
ENDBLK
  0
BLOCK
  2
*DIM_0007
 70
    65
 10
0.0
 20
0.0
  0
LINE
  8
寸法
  6
BYBLOCK
 62
     0
 10
74.036025
 20
22.814033
 11
74.036025
 21
52.814033
  0
POINT
  8
寸法
 62
     0
 10
74.036025
 20
22.814033
  0
POINT
  8
寸法
 62
     0
 10
74.036025
 20
52.814033
  0
TEXT
  7
TextStyle03
  8
寸法
  6
CONTINUOUS
 62
     0
 10
73.7
 20
26.9
  1
呼称寸法　900
 40
3.0
 50
90.0
 72
     5
 11
73.7
 21
48.65
  0
ENDBLK
  0
BLOCK
  2
*DIM_0008
 70
    65
 10
0.0
 20
0.0
  0
LINE
  8
寸法
  6
BYBLOCK
 62
     0
 10
127.92642
 20
54.797365
 11
74.036025
 21
54.797365
  0
LINE
  8
寸法
  6
BYBLOCK
 62
     0
 10
74.036025
 20
52.814033
 11
74.036025
 21
54.797365
  0
POINT
  8
寸法
 62
     0
 10
74.036025
 20
52.814033
  0
POINT
  8
寸法
 62
     0
 10
74.036025
 20
54.797365
  0
TEXT
  7
TextStyle03
  8
寸法
  6
CONTINUOUS
 62
     0
 10
73.625
 20
57.26875
  1
59.5
 40
3.0
 50
90.0
 72
     5
 11
73.625
 21
63.83125
  0
ENDBLK
  0
BLOCK
  2
*DIM_0009
 70
    65
 10
0.0
 20
0.0
  0
LINE
  8
寸法
  6
BYBLOCK
 62
     0
 10
127.92642
 20
20.8307
 11
74.036025
 21
20.8307
  0
LINE
  8
寸法
  6
BYBLOCK
 62
     0
 10
74.036025
 20
22.814033
 11
74.036025
 21
20.8307
  0
POINT
  8
寸法
 62
     0
 10
74.036025
 20
22.814033
  0
POINT
  8
寸法
 62
     0
 10
74.036025
 20
20.8307
  0
TEXT
  7
TextStyle03
  8
寸法
  6
CONTINUOUS
 62
     0
 10
73.625
 20
11.76875
  1
59.5
 40
3.0
 50
90.0
 72
     5
 11
73.625
 21
18.33125
  0
ENDBLK
  0
BLOCK
  2
*DIM_0010
 70
    65
 10
0.0
 20
0.0
  0
LINE
  8
寸法
  6
BYBLOCK
 62
     0
 10
41.99971
 20
-56.919728
 11
41.99971
 21
-13.121378
  0
LINE
  8
寸法
  6
BYBLOCK
 62
     0
 10
40.016375
 20
-13.121378
 11
41.99971
 21
-13.121378
  0
POINT
  8
寸法
 62
     0
 10
40.016375
 20
-13.121378
  0
POINT
  8
寸法
 62
     0
 10
41.99971
 20
-13.121378
  0
TEXT
  7
TextStyle03
  8
寸法
  6
CONTINUOUS
 62
     0
 10
44.46875
 20
-12.75
  1
59.5
 40
3.0
 72
     5
 11
51.03125
 21
-12.75
  0
ENDBLK
  0
BLOCK
  2
*DIM_0011
 70
    65
 10
0.0
 20
0.0
  0
LINE
  8
寸法
  6
BYBLOCK
 62
     0
 10
-78.633625
 20
-56.919728
 11
-78.633625
 21
-13.121378
  0
LINE
  8
寸法
  6
BYBLOCK
 62
     0
 10
-76.650292
 20
-13.121378
 11
-78.633625
 21
-13.121378
  0
POINT
  8
寸法
 62
     0
 10
-76.650292
 20
-13.121378
  0
POINT
  8
寸法
 62
     0
 10
-78.633625
 20
-13.121378
  0
TEXT
  7
TextStyle03
  8
寸法
  6
CONTINUOUS
 62
     0
 10
-87.68125
 20
-12.75
  1
59.5
 40
3.0
 72
     5
 11
-81.11875
 21
-12.75
  0
ENDBLK
  0
BLOCK
  2
*DIM_0012
 70
    65
 10
0.0
 20
0.0
  0
LINE
  8
寸法
  6
BYBLOCK
 62
     0
 10
-79.650292
 20
47.814033
 11
-92.94313
 21
47.814033
  0
LINE
  8
寸法
  6
BYBLOCK
 62
     0
 10
-79.650292
 20
27.814033
 11
-92.94313
 21
27.814033
  0
LINE
  8
寸法
  6
BYBLOCK
 62
     0
 10
-92.94313
 20
47.814033
 11
-92.94313
 21
27.814033
  0
POINT
  8
寸法
 62
     0
 10
-92.94313
 20
47.814033
  0
POINT
  8
寸法
 62
     0
 10
-92.94313
 20
27.814033
  0
TEXT
  7
TextStyle03
  8
寸法
  6
CONTINUOUS
 62
     0
 10
-93.325
 20
35.3625
  1
600
 40
3.0
 50
90.0
 72
     5
 11
-93.325
 21
40.2375
  0
ENDBLK
  0
BLOCK
  2
*DIM_0013
 70
    65
 10
0.0
 20
0.0
  0
LINE
  8
寸法
  6
BYBLOCK
 62
     0
 10
-71.65029
 20
55.814033
 11
-71.65029
 21
84.922105
  0
LINE
  8
寸法
  6
BYBLOCK
 62
     0
 10
-44.983625
 20
55.814033
 11
-44.983625
 21
84.922105
  0
LINE
  8
寸法
  6
BYBLOCK
 62
     0
 10
-71.65029
 20
84.922105
 11
-44.983625
 21
84.922105
  0
POINT
  8
寸法
 62
     0
 10
-71.65029
 20
84.922105
  0
POINT
  8
寸法
 62
     0
 10
-44.983625
 20
84.922105
  0
TEXT
  7
TextStyle03
  8
寸法
  6
CONTINUOUS
 62
     0
 10
-60.7625
 20
85.275
  1
800
 40
3.0
 72
     5
 11
-55.8875
 21
85.275
  0
ENDBLK
  0
BLOCK
  2
*DIM_0014
 70
    65
 10
0.0
 20
0.0
  0
LINE
  8
寸法
  6
BYBLOCK
 62
     0
 10
-18.316957
 20
55.814033
 11
-18.316957
 21
84.922105
  0
LINE
  8
寸法
  6
BYBLOCK
 62
     0
 10
-44.983625
 20
84.922105
 11
-18.316957
 21
84.922105
  0
POINT
  8
寸法
 62
     0
 10
-18.316957
 20
84.922105
  0
TEXT
  7
TextStyle03
  8
寸法
  6
CONTINUOUS
 62
     0
 10
-34.1125
 20
85.275
  1
800
 40
3.0
 72
     5
 11
-29.2375
 21
85.275
  0
ENDBLK
  0
BLOCK
  2
*DIM_0015
 70
    65
 10
0.0
 20
0.0
  0
LINE
  8
寸法
  6
BYBLOCK
 62
     0
 10
8.34971
 20
55.814033
 11
8.34971
 21
84.922105
  0
LINE
  8
寸法
  6
BYBLOCK
 62
     0
 10
-18.316957
 20
84.922105
 11
8.34971
 21
84.922105
  0
POINT
  8
寸法
 62
     0
 10
8.34971
 20
84.922105
  0
TEXT
  7
TextStyle03
  8
寸法
  6
CONTINUOUS
 62
     0
 10
-7.4375
 20
85.275
  1
800
 40
3.0
 72
     5
 11
-2.5625
 21
85.275
  0
ENDBLK
  0
BLOCK
  2
*DIM_0016
 70
    65
 10
0.0
 20
0.0
  0
LINE
  8
寸法
  6
BYBLOCK
 62
     0
 10
35.016375
 20
55.814033
 11
35.016375
 21
84.922105
  0
LINE
  8
寸法
  6
BYBLOCK
 62
     0
 10
8.34971
 20
84.922105
 11
35.016375
 21
84.922105
  0
POINT
  8
寸法
 62
     0
 10
35.016375
 20
84.922105
  0
TEXT
  7
TextStyle03
  8
寸法
  6
CONTINUOUS
 62
     0
 10
19.2375
 20
85.275
  1
800
 40
3.0
 72
     5
 11
24.1125
 21
85.275
  0
ENDBLK
  0
BLOCK
  2
*DIM_0017
 70
    65
 10
0.0
 20
0.0
  0
LINE
  8
寸法
  6
CONTINUOUS
 10
127.024575
 20
66.643603
 11
134.674625
 21
66.643603
  0
POINT
  8
寸法
 10
127.024575
 20
66.643603
  0
POINT
  8
寸法
 10
134.674625
 20
66.643603
  0
TEXT
  7
TextStyle03
  8
寸法
  6
CONTINUOUS
 10
126.7
 20
67.0
  1
229.5
 40
3.0
 72
     5
 11
134.95
 21
67.0
  0
ENDBLK
  0
BLOCK
  2
*GRP_0018
 70
    65
 10
0.0
 20
0.0
  0
LINE
  8
補助線
  6
BYBLOCK
 62
    64
 10
-64.919883
 20
-72.96145
 11
-65.047368
 21
-73.06881
  0
LINE
  8
補助線
  6
BYBLOCK
 62
    64
 10
-65.037305
 20
-72.951385
 11
-64.929945
 21
-73.078873
  0
LINE
  8
補助線
  6
BYBLOCK
 62
    64
 10
-56.429465
 20
-65.811427
 11
-56.55695
 21
-65.918782
  0
LINE
  8
補助線
  6
BYBLOCK
 62
    64
 10
-56.546887
 20
-65.801362
 11
-56.439527
 21
-65.928845
  0
LINE
  8
補助線
  6
BYBLOCK
 62
    64
 10
-48.06653
 20
-58.768757
 11
-47.939048
 21
-58.6614
  0
LINE
  8
補助線
  6
BYBLOCK
 62
    64
 10
-48.05647
 20
-58.651335
 11
-47.94911
 21
-58.778823
  0
LINE
  8
型材断面
  6
CONTINUOUS
 10
-65.77538
 20
-72.592428
 11
-65.835758
 21
-73.296953
  0
LINE
  8
型材断面
  6
CONTINUOUS
 10
-65.835758
 20
-73.296953
 11
-65.406325
 21
-73.806887
  0
LINE
  8
型材断面
  6
CONTINUOUS
 10
-65.406325
 20
-73.806887
 11
-64.7018
 21
-73.867265
  0
LINE
  8
型材断面
  6
CONTINUOUS
 10
-48.284613
 20
-57.862947
 11
-47.580087
 21
-57.923325
  0
LINE
  8
型材断面
  6
CONTINUOUS
 10
-47.580087
 20
-57.923325
 11
-47.150655
 21
-58.43326
  0
LINE
  8
型材断面
  6
CONTINUOUS
 10
-47.150655
 20
-58.43326
 11
-47.211032
 21
-59.137785
  0
LINE
  8
型材断面
  6
CONTINUOUS
 10
-65.77538
 20
-72.592428
 11
-48.284613
 21
-57.862947
  0
LINE
  8
型材断面
  6
CONTINUOUS
 10
-64.7018
 20
-73.867265
 11
-47.211032
 21
-59.137785
  0
CIRCLE
  8
ボルト／ビス
  6
CONTINUOUS
 10
-64.983625
 20
-73.01513
 40
0.250185
  0
CIRCLE
  8
ボルト／ビス
  6
CONTINUOUS
 10
-64.983625
 20
-73.01513
 40
0.301025
  0
LINE
  8
ボルト／ビス
  6
CONTINUOUS
 62
    64
 10
-65.229932
 20
-73.059012
 11
-65.14478
 21
-72.823765
  0
LINE
  8
ボルト／ビス
  6
CONTINUOUS
 62
    64
 10
-64.898473
 20
-72.77988
 11
-65.14478
 21
-72.823765
  0
LINE
  8
ボルト／ビス
  6
CONTINUOUS
 62
    64
 10
-65.068778
 20
-73.25038
 11
-64.82247
 21
-73.206495
  0
LINE
  8
ボルト／ビス
  6
CONTINUOUS
 62
    64
 10
-64.737317
 20
-72.971248
 11
-64.82247
 21
-73.206495
  0
LINE
  8
ボルト／ビス
  6
CONTINUOUS
 62
    64
 10
-65.229932
 20
-73.059012
 11
-65.068778
 21
-73.25038
  0
LINE
  8
ボルト／ビス
  6
CONTINUOUS
 62
    64
 10
-64.898473
 20
-72.77988
 11
-64.737317
 21
-72.971248
  0
CIRCLE
  8
ボルト／ビス
  6
CONTINUOUS
 62
    64
 10
-64.983625
 20
-73.01513
 40
0.216668
  0
CIRCLE
  8
ボルト／ビス
  6
CONTINUOUS
 10
-56.493207
 20
-65.865105
 40
0.250185
  0
CIRCLE
  8
ボルト／ビス
  6
CONTINUOUS
 10
-56.493207
 20
-65.865105
 40
0.301025
  0
LINE
  8
ボルト／ビス
  6
CONTINUOUS
 62
    64
 10
-56.739515
 20
-65.908987
 11
-56.654363
 21
-65.673737
  0
LINE
  8
ボルト／ビス
  6
CONTINUOUS
 62
    64
 10
-56.408055
 20
-65.629855
 11
-56.654363
 21
-65.673737
  0
LINE
  8
ボルト／ビス
  6
CONTINUOUS
 62
    64
 10
-56.57836
 20
-66.100355
 11
-56.33205
 21
-66.056473
  0
LINE
  8
ボルト／ビス
  6
CONTINUOUS
 62
    64
 10
-56.2469
 20
-65.821225
 11
-56.33205
 21
-66.056473
  0
LINE
  8
ボルト／ビス
  6
CONTINUOUS
 62
    64
 10
-56.739515
 20
-65.908987
 11
-56.57836
 21
-66.100355
  0
LINE
  8
ボルト／ビス
  6
CONTINUOUS
 62
    64
 10
-56.408055
 20
-65.629855
 11
-56.2469
 21
-65.821225
  0
CIRCLE
  8
ボルト／ビス
  6
CONTINUOUS
 62
    64
 10
-56.493207
 20
-65.865105
 40
0.216668
  0
CIRCLE
  8
ボルト／ビス
  6
CONTINUOUS
 10
-48.002787
 20
-58.71508
 40
0.250185
  0
CIRCLE
  8
ボルト／ビス
  6
CONTINUOUS
 10
-48.002787
 20
-58.71508
 40
0.301025
  0
LINE
  8
ボルト／ビス
  6
CONTINUOUS
 62
    64
 10
-47.917635
 20
-58.47983
 11
-48.163945
 21
-58.523715
  0
LINE
  8
ボルト／ビス
  6
CONTINUOUS
 62
    64
 10
-48.249097
 20
-58.758962
 11
-48.163945
 21
-58.523715
  0
LINE
  8
ボルト／ビス
  6
CONTINUOUS
 62
    64
 10
-47.756483
 20
-58.671198
 11
-47.841633
 21
-58.906445
  0
LINE
  8
ボルト／ビス
  6
CONTINUOUS
 62
    64
 10
-48.087943
 20
-58.95033
 11
-47.841633
 21
-58.906445
  0
LINE
  8
ボルト／ビス
  6
CONTINUOUS
 62
    64
 10
-47.917635
 20
-58.47983
 11
-47.756483
 21
-58.671198
  0
LINE
  8
ボルト／ビス
  6
CONTINUOUS
 62
    64
 10
-48.249097
 20
-58.758962
 11
-48.087943
 21
-58.95033
  0
CIRCLE
  8
ボルト／ビス
  6
CONTINUOUS
 62
    64
 10
-48.002787
 20
-58.71508
 40
0.216668
  0
ENDBLK
  0
BLOCK
  2
*GRP_0019
 70
    65
 10
0.0
 20
0.0
  0
LINE
  8
補助線
  6
BYBLOCK
 62
    64
 10
-48.066532
 20
-72.96145
 11
-47.939048
 21
-73.06881
  0
LINE
  8
補助線
  6
BYBLOCK
 62
    64
 10
-47.94911
 20
-72.951385
 11
-48.05647
 21
-73.078873
  0
LINE
  8
補助線
  6
BYBLOCK
 62
    64
 10
-56.55695
 20
-65.811427
 11
-56.429465
 21
-65.918782
  0
LINE
  8
補助線
  6
BYBLOCK
 62
    64
 10
-56.439527
 20
-65.801362
 11
-56.546887
 21
-65.928845
  0
LINE
  8
補助線
  6
BYBLOCK
 62
    64
 10
-64.919885
 20
-58.768757
 11
-65.047368
 21
-58.6614
  0
LINE
  8
補助線
  6
BYBLOCK
 62
    64
 10
-64.929945
 20
-58.651335
 11
-65.037305
 21
-58.778823
  0
LINE
  8
型材断面
  6
CONTINUOUS
 10
-47.211035
 20
-72.592428
 11
-47.150658
 21
-73.296953
  0
LINE
  8
型材断面
  6
CONTINUOUS
 10
-47.150658
 20
-73.296953
 11
-47.58009
 21
-73.806887
  0
LINE
  8
型材断面
  6
CONTINUOUS
 10
-47.58009
 20
-73.806887
 11
-48.284615
 21
-73.867265
  0
LINE
  8
型材断面
  6
CONTINUOUS
 10
-64.701803
 20
-57.862947
 11
-65.406328
 21
-57.923325
  0
LINE
  8
型材断面
  6
CONTINUOUS
 10
-65.406328
 20
-57.923325
 11
-65.83576
 21
-58.43326
  0
LINE
  8
型材断面
  6
CONTINUOUS
 10
-65.83576
 20
-58.43326
 11
-65.775382
 21
-59.137785
  0
LINE
  8
型材断面
  6
CONTINUOUS
 10
-47.211035
 20
-72.592428
 11
-64.701803
 21
-57.862947
  0
LINE
  8
型材断面
  6
CONTINUOUS
 10
-48.284615
 20
-73.867265
 11
-65.775382
 21
-59.137785
  0
CIRCLE
  8
ボルト／ビス
  6
CONTINUOUS
 10
-48.00279
 20
-73.01513
 40
0.250185
  0
CIRCLE
  8
ボルト／ビス
  6
CONTINUOUS
 10
-48.00279
 20
-73.01513
 40
0.301025
  0
LINE
  8
ボルト／ビス
  6
CONTINUOUS
 62
    64
 10
-47.756483
 20
-73.059012
 11
-47.841635
 21
-72.823765
  0
LINE
  8
ボルト／ビス
  6
CONTINUOUS
 62
    64
 10
-48.087943
 20
-72.77988
 11
-47.841635
 21
-72.823765
  0
LINE
  8
ボルト／ビス
  6
CONTINUOUS
 62
    64
 10
-47.917637
 20
-73.25038
 11
-48.163945
 21
-73.206495
  0
LINE
  8
ボルト／ビス
  6
CONTINUOUS
 62
    64
 10
-48.249097
 20
-72.971248
 11
-48.163945
 21
-73.206495
  0
LINE
  8
ボルト／ビス
  6
CONTINUOUS
 62
    64
 10
-47.756483
 20
-73.059012
 11
-47.917637
 21
-73.25038
  0
LINE
  8
ボルト／ビス
  6
CONTINUOUS
 62
    64
 10
-48.087943
 20
-72.77988
 11
-48.249097
 21
-72.971248
  0
CIRCLE
  8
ボルト／ビス
  6
CONTINUOUS
 62
    64
 10
-48.00279
 20
-73.01513
 40
0.216668
  0
CIRCLE
  8
ボルト／ビス
  6
CONTINUOUS
 10
-56.493207
 20
-65.865105
 40
0.250185
  0
CIRCLE
  8
ボルト／ビス
  6
CONTINUOUS
 10
-56.493207
 20
-65.865105
 40
0.301025
  0
LINE
  8
ボルト／ビス
  6
CONTINUOUS
 62
    64
 10
-56.2469
 20
-65.908987
 11
-56.332053
 21
-65.673737
  0
LINE
  8
ボルト／ビス
  6
CONTINUOUS
 62
    64
 10
-56.57836
 20
-65.629855
 11
-56.332053
 21
-65.673737
  0
LINE
  8
ボルト／ビス
  6
CONTINUOUS
 62
    64
 10
-56.408055
 20
-66.100355
 11
-56.654365
 21
-66.056473
  0
LINE
  8
ボルト／ビス
  6
CONTINUOUS
 62
    64
 10
-56.739515
 20
-65.821225
 11
-56.654365
 21
-66.056473
  0
LINE
  8
ボルト／ビス
  6
CONTINUOUS
 62
    64
 10
-56.2469
 20
-65.908987
 11
-56.408055
 21
-66.100355
  0
LINE
  8
ボルト／ビス
  6
CONTINUOUS
 62
    64
 10
-56.57836
 20
-65.629855
 11
-56.739515
 21
-65.821225
  0
CIRCLE
  8
ボルト／ビス
  6
CONTINUOUS
 62
    64
 10
-56.493207
 20
-65.865105
 40
0.216668
  0
CIRCLE
  8
ボルト／ビス
  6
CONTINUOUS
 10
-64.983627
 20
-58.71508
 40
0.250185
  0
CIRCLE
  8
ボルト／ビス
  6
CONTINUOUS
 10
-64.983627
 20
-58.71508
 40
0.301025
  0
LINE
  8
ボルト／ビス
  6
CONTINUOUS
 62
    64
 10
-65.06878
 20
-58.47983
 11
-64.82247
 21
-58.523715
  0
LINE
  8
ボルト／ビス
  6
CONTINUOUS
 62
    64
 10
-64.737317
 20
-58.758962
 11
-64.82247
 21
-58.523715
  0
LINE
  8
ボルト／ビス
  6
CONTINUOUS
 62
    64
 10
-65.229932
 20
-58.671198
 11
-65.144783
 21
-58.906445
  0
LINE
  8
ボルト／ビス
  6
CONTINUOUS
 62
    64
 10
-64.898473
 20
-58.95033
 11
-65.144783
 21
-58.906445
  0
LINE
  8
ボルト／ビス
  6
CONTINUOUS
 62
    64
 10
-65.06878
 20
-58.47983
 11
-65.229932
 21
-58.671198
  0
LINE
  8
ボルト／ビス
  6
CONTINUOUS
 62
    64
 10
-64.737317
 20
-58.758962
 11
-64.898473
 21
-58.95033
  0
CIRCLE
  8
ボルト／ビス
  6
CONTINUOUS
 62
    64
 10
-64.983627
 20
-58.71508
 40
0.216668
  0
ENDBLK
  0
BLOCK
  2
*GRP_0020
 70
    65
 10
0.0
 20
0.0
  0
LINE
  8
補助線
  6
BYBLOCK
 62
    64
 10
28.285967
 20
-72.96145
 11
28.413452
 21
-73.06881
  0
LINE
  8
補助線
  6
BYBLOCK
 62
    64
 10
28.40339
 20
-72.951385
 11
28.29603
 21
-73.078873
  0
LINE
  8
補助線
  6
BYBLOCK
 62
    64
 10
19.79555
 20
-65.811427
 11
19.923035
 21
-65.918782
  0
LINE
  8
補助線
  6
BYBLOCK
 62
    64
 10
19.912973
 20
-65.801362
 11
19.805612
 21
-65.928845
  0
LINE
  8
補助線
  6
BYBLOCK
 62
    64
 10
11.432615
 20
-58.768757
 11
11.305133
 21
-58.6614
  0
LINE
  8
補助線
  6
BYBLOCK
 62
    64
 10
11.422555
 20
-58.651335
 11
11.315195
 21
-58.778823
  0
LINE
  8
型材断面
  6
CONTINUOUS
 10
29.141465
 20
-72.592428
 11
29.201843
 21
-73.296953
  0
LINE
  8
型材断面
  6
CONTINUOUS
 10
29.201843
 20
-73.296953
 11
28.77241
 21
-73.806887
  0
LINE
  8
型材断面
  6
CONTINUOUS
 10
28.77241
 20
-73.806887
 11
28.067885
 21
-73.867265
  0
LINE
  8
型材断面
  6
CONTINUOUS
 10
11.650698
 20
-57.862947
 11
10.946172
 21
-57.923325
  0
LINE
  8
型材断面
  6
CONTINUOUS
 10
10.946172
 20
-57.923325
 11
10.51674
 21
-58.43326
  0
LINE
  8
型材断面
  6
CONTINUOUS
 10
10.51674
 20
-58.43326
 11
10.577117
 21
-59.137785
  0
LINE
  8
型材断面
  6
CONTINUOUS
 10
29.141465
 20
-72.592428
 11
11.650698
 21
-57.862947
  0
LINE
  8
型材断面
  6
CONTINUOUS
 10
28.067885
 20
-73.867265
 11
10.577117
 21
-59.137785
  0
CIRCLE
  8
ボルト／ビス
  6
CONTINUOUS
 10
28.34971
 20
-73.01513
 40
0.250185
  0
CIRCLE
  8
ボルト／ビス
  6
CONTINUOUS
 10
28.34971
 20
-73.01513
 40
0.301025
  0
LINE
  8
ボルト／ビス
  6
CONTINUOUS
 62
    64
 10
28.596018
 20
-73.059012
 11
28.510865
 21
-72.823765
  0
LINE
  8
ボルト／ビス
  6
CONTINUOUS
 62
    64
 10
28.264558
 20
-72.77988
 11
28.510865
 21
-72.823765
  0
LINE
  8
ボルト／ビス
  6
CONTINUOUS
 62
    64
 10
28.434863
 20
-73.25038
 11
28.188555
 21
-73.206495
  0
LINE
  8
ボルト／ビス
  6
CONTINUOUS
 62
    64
 10
28.103403
 20
-72.971248
 11
28.188555
 21
-73.206495
  0
LINE
  8
ボルト／ビス
  6
CONTINUOUS
 62
    64
 10
28.596018
 20
-73.059012
 11
28.434863
 21
-73.25038
  0
LINE
  8
ボルト／ビス
  6
CONTINUOUS
 62
    64
 10
28.264558
 20
-72.77988
 11
28.103403
 21
-72.971248
  0
CIRCLE
  8
ボルト／ビス
  6
CONTINUOUS
 62
    64
 10
28.34971
 20
-73.01513
 40
0.216668
  0
CIRCLE
  8
ボルト／ビス
  6
CONTINUOUS
 10
19.859293
 20
-65.865105
 40
0.250185
  0
CIRCLE
  8
ボルト／ビス
  6
CONTINUOUS
 10
19.859293
 20
-65.865105
 40
0.301025
  0
LINE
  8
ボルト／ビス
  6
CONTINUOUS
 62
    64
 10
20.1056
 20
-65.908987
 11
20.020448
 21
-65.673737
  0
LINE
  8
ボルト／ビス
  6
CONTINUOUS
 62
    64
 10
19.77414
 20
-65.629855
 11
20.020448
 21
-65.673737
  0
LINE
  8
ボルト／ビス
  6
CONTINUOUS
 62
    64
 10
19.944445
 20
-66.100355
 11
19.698135
 21
-66.056473
  0
LINE
  8
ボルト／ビス
  6
CONTINUOUS
 62
    64
 10
19.612985
 20
-65.821225
 11
19.698135
 21
-66.056473
  0
LINE
  8
ボルト／ビス
  6
CONTINUOUS
 62
    64
 10
20.1056
 20
-65.908987
 11
19.944445
 21
-66.100355
  0
LINE
  8
ボルト／ビス
  6
CONTINUOUS
 62
    64
 10
19.77414
 20
-65.629855
 11
19.612985
 21
-65.821225
  0
CIRCLE
  8
ボルト／ビス
  6
CONTINUOUS
 62
    64
 10
19.859293
 20
-65.865105
 40
0.216668
  0
CIRCLE
  8
ボルト／ビス
  6
CONTINUOUS
 10
11.368872
 20
-58.71508
 40
0.250185
  0
CIRCLE
  8
ボルト／ビス
  6
CONTINUOUS
 10
11.368872
 20
-58.71508
 40
0.301025
  0
LINE
  8
ボルト／ビス
  6
CONTINUOUS
 62
    64
 10
11.28372
 20
-58.47983
 11
11.53003
 21
-58.523715
  0
LINE
  8
ボルト／ビス
  6
CONTINUOUS
 62
    64
 10
11.615183
 20
-58.758962
 11
11.53003
 21
-58.523715
  0
LINE
  8
ボルト／ビス
  6
CONTINUOUS
 62
    64
 10
11.122567
 20
-58.671198
 11
11.207718
 21
-58.906445
  0
LINE
  8
ボルト／ビス
  6
CONTINUOUS
 62
    64
 10
11.454027
 20
-58.95033
 11
11.207718
 21
-58.906445
  0
LINE
  8
ボルト／ビス
  6
CONTINUOUS
 62
    64
 10
11.28372
 20
-58.47983
 11
11.122567
 21
-58.671198
  0
LINE
  8
ボルト／ビス
  6
CONTINUOUS
 62
    64
 10
11.615183
 20
-58.758962
 11
11.454027
 21
-58.95033
  0
CIRCLE
  8
ボルト／ビス
  6
CONTINUOUS
 62
    64
 10
11.368872
 20
-58.71508
 40
0.216668
  0
ENDBLK
  0
BLOCK
  2
*GRP_0021
 70
    65
 10
0.0
 20
0.0
  0
LINE
  8
補助線
  6
BYBLOCK
 62
    64
 10
11.432618
 20
-72.96145
 11
11.305133
 21
-73.06881
  0
LINE
  8
補助線
  6
BYBLOCK
 62
    64
 10
11.315195
 20
-72.951385
 11
11.422555
 21
-73.078873
  0
LINE
  8
補助線
  6
BYBLOCK
 62
    64
 10
19.923035
 20
-65.811427
 11
19.79555
 21
-65.918782
  0
LINE
  8
補助線
  6
BYBLOCK
 62
    64
 10
19.805612
 20
-65.801362
 11
19.912973
 21
-65.928845
  0
LINE
  8
補助線
  6
BYBLOCK
 62
    64
 10
28.28597
 20
-58.768757
 11
28.413452
 21
-58.6614
  0
LINE
  8
補助線
  6
BYBLOCK
 62
    64
 10
28.29603
 20
-58.651335
 11
28.40339
 21
-58.778823
  0
LINE
  8
型材断面
  6
CONTINUOUS
 10
10.57712
 20
-72.592428
 11
10.516742
 21
-73.296953
  0
LINE
  8
型材断面
  6
CONTINUOUS
 10
10.516742
 20
-73.296953
 11
10.946175
 21
-73.806887
  0
LINE
  8
型材断面
  6
CONTINUOUS
 10
10.946175
 20
-73.806887
 11
11.6507
 21
-73.867265
  0
LINE
  8
型材断面
  6
CONTINUOUS
 10
28.067887
 20
-57.862947
 11
28.772413
 21
-57.923325
  0
LINE
  8
型材断面
  6
CONTINUOUS
 10
28.772413
 20
-57.923325
 11
29.201845
 21
-58.43326
  0
LINE
  8
型材断面
  6
CONTINUOUS
 10
29.201845
 20
-58.43326
 11
29.141467
 21
-59.137785
  0
LINE
  8
型材断面
  6
CONTINUOUS
 10
10.57712
 20
-72.592428
 11
28.067887
 21
-57.862947
  0
LINE
  8
型材断面
  6
CONTINUOUS
 10
11.6507
 20
-73.867265
 11
29.141467
 21
-59.137785
  0
CIRCLE
  8
ボルト／ビス
  6
CONTINUOUS
 10
11.368875
 20
-73.01513
 40
0.250185
  0
CIRCLE
  8
ボルト／ビス
  6
CONTINUOUS
 10
11.368875
 20
-73.01513
 40
0.301025
  0
LINE
  8
ボルト／ビス
  6
CONTINUOUS
 62
    64
 10
11.122567
 20
-73.059012
 11
11.20772
 21
-72.823765
  0
LINE
  8
ボルト／ビス
  6
CONTINUOUS
 62
    64
 10
11.454027
 20
-72.77988
 11
11.20772
 21
-72.823765
  0
LINE
  8
ボルト／ビス
  6
CONTINUOUS
 62
    64
 10
11.283722
 20
-73.25038
 11
11.53003
 21
-73.206495
  0
LINE
  8
ボルト／ビス
  6
CONTINUOUS
 62
    64
 10
11.615183
 20
-72.971248
 11
11.53003
 21
-73.206495
  0
LINE
  8
ボルト／ビス
  6
CONTINUOUS
 62
    64
 10
11.122567
 20
-73.059012
 11
11.283722
 21
-73.25038
  0
LINE
  8
ボルト／ビス
  6
CONTINUOUS
 62
    64
 10
11.454027
 20
-72.77988
 11
11.615183
 21
-72.971248
  0
CIRCLE
  8
ボルト／ビス
  6
CONTINUOUS
 62
    64
 10
11.368875
 20
-73.01513
 40
0.216668
  0
CIRCLE
  8
ボルト／ビス
  6
CONTINUOUS
 10
19.859293
 20
-65.865105
 40
0.250185
  0
CIRCLE
  8
ボルト／ビス
  6
CONTINUOUS
 10
19.859293
 20
-65.865105
 40
0.301025
  0
LINE
  8
ボルト／ビス
  6
CONTINUOUS
 62
    64
 10
19.612985
 20
-65.908987
 11
19.698137
 21
-65.673737
  0
LINE
  8
ボルト／ビス
  6
CONTINUOUS
 62
    64
 10
19.944445
 20
-65.629855
 11
19.698137
 21
-65.673737
  0
LINE
  8
ボルト／ビス
  6
CONTINUOUS
 62
    64
 10
19.77414
 20
-66.100355
 11
20.02045
 21
-66.056473
  0
LINE
  8
ボルト／ビス
  6
CONTINUOUS
 62
    64
 10
20.1056
 20
-65.821225
 11
20.02045
 21
-66.056473
  0
LINE
  8
ボルト／ビス
  6
CONTINUOUS
 62
    64
 10
19.612985
 20
-65.908987
 11
19.77414
 21
-66.100355
  0
LINE
  8
ボルト／ビス
  6
CONTINUOUS
 62
    64
 10
19.944445
 20
-65.629855
 11
20.1056
 21
-65.821225
  0
CIRCLE
  8
ボルト／ビス
  6
CONTINUOUS
 62
    64
 10
19.859293
 20
-65.865105
 40
0.216668
  0
CIRCLE
  8
ボルト／ビス
  6
CONTINUOUS
 10
28.349712
 20
-58.71508
 40
0.250185
  0
CIRCLE
  8
ボルト／ビス
  6
CONTINUOUS
 10
28.349712
 20
-58.71508
 40
0.301025
  0
LINE
  8
ボルト／ビス
  6
CONTINUOUS
 62
    64
 10
28.434865
 20
-58.47983
 11
28.188555
 21
-58.523715
  0
LINE
  8
ボルト／ビス
  6
CONTINUOUS
 62
    64
 10
28.103403
 20
-58.758962
 11
28.188555
 21
-58.523715
  0
LINE
  8
ボルト／ビス
  6
CONTINUOUS
 62
    64
 10
28.596018
 20
-58.671198
 11
28.510867
 21
-58.906445
  0
LINE
  8
ボルト／ビス
  6
CONTINUOUS
 62
    64
 10
28.264558
 20
-58.95033
 11
28.510867
 21
-58.906445
  0
LINE
  8
ボルト／ビス
  6
CONTINUOUS
 62
    64
 10
28.434865
 20
-58.47983
 11
28.596018
 21
-58.671198
  0
LINE
  8
ボルト／ビス
  6
CONTINUOUS
 62
    64
 10
28.103403
 20
-58.758962
 11
28.264558
 21
-58.95033
  0
CIRCLE
  8
ボルト／ビス
  6
CONTINUOUS
 62
    64
 10
28.349712
 20
-58.71508
 40
0.216668
  0
ENDBLK
  0
BLOCK
  2
*DIM_0022
 70
    65
 10
0.0
 20
0.0
  0
LINE
  8
寸法
  6
CONTINUOUS
 10
53.25162
 20
-67.363937
 11
53.25162
 21
-75.013987
  0
POINT
  8
寸法
 10
53.25162
 20
-67.363937
  0
POINT
  8
寸法
 10
53.25162
 20
-75.013987
  0
TEXT
  7
TextStyle03
  8
寸法
  6
CONTINUOUS
 10
57.575
 20
-75.125
  1
229.5
 40
3.0
 50
90.0
 72
     5
 11
57.575
 21
-66.875
  0
ENDBLK
  0
BLOCK
  2
*DIM_0023
 70
    65
 10
0.0
 20
0.0
  0
LINE
  8
寸法
  6
CONTINUOUS
 10
135.10293
 20
-45.734905
 11
97.21293
 21
-45.734905
  0
POINT
  8
寸法
 10
135.10293
 20
-45.734905
  0
POINT
  8
寸法
 10
97.21293
 20
-45.734905
  0
TEXT
  7
TextStyle03
  8
寸法
  6
CONTINUOUS
 10
111.18125
 20
-45.375
  1
1136.7
 40
3.0
 72
     5
 11
121.11875
 21
-45.375
  0
ENDBLK
  0
BLOCK
  2
*DIM_0024
 70
    65
 10
0.0
 20
0.0
  0
LINE
  8
寸法
  6
BYBLOCK
 62
     0
 10
53.25162
 20
-67.363937
 11
53.25162
 21
-55.69727
  0
POINT
  8
寸法
 62
     0
 10
53.25162
 20
-67.363937
  0
POINT
  8
寸法
 62
     0
 10
53.25162
 20
-55.69727
  0
TEXT
  7
TextStyle03
  8
寸法
  6
CONTINUOUS
 62
     0
 10
52.475
 20
-53.69375
  1
上昇294以上
 40
3.0
 50
90.0
 72
     5
 11
52.475
 21
-35.50625
  0
ENDBLK
  0
ENDSEC
  0
SECTION
  2
ENTITIES
  0
POLYLINE
  8
通り芯
  6
CONTINUOUS
 66
     1
 70
     1
  0
VERTEX
  8
通り芯
 10
-210.0
 20
-148.5
  0
VERTEX
  8
通り芯
 10
210.0
 20
-148.5
  0
VERTEX
  8
通り芯
 10
210.0
 20
148.5
  0
VERTEX
  8
通り芯
 10
-210.0
 20
148.5
  0
SEQEND
  0
INSERT
  2
*GRP_0001
  8
型材断面
  6
CONTINUOUS
 10
0.0
 20
0.0
  0
LINE
  8
型材断面
  6
DASHDOT
 10
40.016375
 20
-77.836442
 11
40.016375
 21
52.814033
  0
LINE
  8
型材断面
  6
DASHDOT
 10
-18.316957
 20
-77.836442
 11
-18.316957
 21
52.814033
  0
LINE
  8
型材断面
  6
DASHDOT
 10
-76.650292
 20
-77.836442
 11
-76.650292
 21
52.814033
  0
LINE
  8
型材断面
  6
DASHDOT
 10
137.693138
 20
22.814033
 11
-76.650292
 21
22.814033
  0
LINE
  8
型材断面
  6
DASHDOT
 10
137.693138
 20
37.814033
 11
-76.650292
 21
37.814033
  0
LINE
  8
型材断面
  6
DASHDOT
 10
137.693138
 20
52.814033
 11
-76.650292
 21
52.814033
  0
POLYLINE
  8
型材断面
  6
CONTINUOUS
 66
     1
 70
     1
  0
VERTEX
  8
型材断面
 10
-8.770652
 20
13.03811
  0
VERTEX
  8
型材断面
 10
-27.542583
 20
13.03811
  0
VERTEX
  8
型材断面
 10
-27.542583
 20
8.301267
  0
VERTEX
  8
型材断面
 10
-8.770652
 20
8.301267
  0
SEQEND
  0
POLYLINE
  8
型材断面
  6
CONTINUOUS
 66
     1
 70
     1
  0
VERTEX
  8
型材断面
 10
-8.770652
 20
62.589955
  0
VERTEX
  8
型材断面
 10
-27.542583
 20
62.589955
  0
VERTEX
  8
型材断面
 10
-27.542583
 20
67.326798
  0
VERTEX
  8
型材断面
 10
-8.770652
 20
67.326798
  0
SEQEND
  0
LINE
  8
型材断面
  6
CONTINUOUS
 10
-59.983625
 20
55.444162
 11
-61.479255
 21
58.03467
  0
LINE
  8
型材断面
  6
CONTINUOUS
 10
-59.983625
 20
55.444162
 11
-58.487995
 21
58.03467
  0
LINE
  8
型材断面
  6
CONTINUOUS
 10
-58.487995
 20
58.03467
 11
-61.479255
 21
58.03467
  0
LINE
  8
型材断面
  6
CONTINUOUS
 10
-79.280422
 20
37.814033
 11
-81.87093
 21
39.309663
  0
LINE
  8
型材断面
  6
CONTINUOUS
 10
-79.280422
 20
37.814033
 11
-81.87093
 21
36.318403
  0
LINE
  8
型材断面
  6
CONTINUOUS
 10
-81.87093
 20
36.318403
 11
-81.87093
 21
39.309663
  0
LINE
  8
型材断面
  6
CONTINUOUS
 10
-59.983625
 20
20.183902
 11
-61.479255
 21
17.593395
  0
LINE
  8
型材断面
  6
CONTINUOUS
 10
-59.983625
 20
20.183902
 11
-58.487995
 21
17.593395
  0
LINE
  8
型材断面
  6
CONTINUOUS
 10
-58.487995
 20
17.593395
 11
-61.479255
 21
17.593395
  0
LINE
  8
型材断面
  6
CONTINUOUS
 10
-130.528815
 20
90.791505
 11
-129.93276
 21
88.200998
  0
LINE
  8
型材断面
  6
CONTINUOUS
 10
-130.528815
 20
90.791505
 11
-131.124873
 21
88.200998
  0
LINE
  8
型材断面
  6
CONTINUOUS
 10
-131.124873
 20
88.200998
 11
-129.93276
 21
88.200998
  0
LINE
  8
型材断面
  6
CONTINUOUS
 10
-136.551403
 20
84.922105
 11
-90.309625
 21
84.922105
  0
LINE
  8
型材断面
  6
CONTINUOUS
 10
-130.528815
 20
97.32138
 11
-132.024445
 21
94.730873
  0
LINE
  8
型材断面
  6
CONTINUOUS
 10
-130.528815
 20
97.32138
 11
-129.033185
 21
94.730873
  0
LINE
  8
型材断面
  6
CONTINUOUS
 10
-129.033185
 20
94.730873
 11
-132.024445
 21
94.730873
  0
LINE
  8
型材断面
  6
CONTINUOUS
 10
-136.551403
 20
93.792277
 11
-90.309625
 21
93.792277
  0
LINE
  8
型材断面
  6
CONTINUOUS
 10
-136.551403
 20
79.134073
 11
-90.309625
 21
79.134073
  0
LINE
  8
型材断面
  6
CONTINUOUS
 10
23.34971
 20
55.444162
 11
24.84534
 21
58.03467
  0
LINE
  8
型材断面
  6
CONTINUOUS
 10
23.34971
 20
55.444162
 11
21.85408
 21
58.03467
  0
LINE
  8
型材断面
  6
CONTINUOUS
 10
21.85408
 20
58.03467
 11
24.84534
 21
58.03467
  0
LINE
  8
型材断面
  6
CONTINUOUS
 10
42.646508
 20
37.814033
 11
45.237015
 21
39.309663
  0
LINE
  8
型材断面
  6
CONTINUOUS
 10
42.646508
 20
37.814033
 11
45.237015
 21
36.318403
  0
LINE
  8
型材断面
  6
CONTINUOUS
 10
45.237015
 20
36.318403
 11
45.237015
 21
39.309663
  0
LINE
  8
型材断面
  6
CONTINUOUS
 10
23.34971
 20
20.183902
 11
24.84534
 21
17.593395
  0
LINE
  8
型材断面
  6
CONTINUOUS
 10
23.34971
 20
20.183902
 11
21.85408
 21
17.593395
  0
LINE
  8
型材断面
  6
CONTINUOUS
 10
21.85408
 20
17.593395
 11
24.84534
 21
17.593395
  0
LINE
  8
型材断面
  6
CONTINUOUS
 10
42.646505
 20
49.114035
 11
45.237015
 21
48.517982
  0
LINE
  8
型材断面
  6
CONTINUOUS
 10
42.646505
 20
49.114035
 11
45.237012
 21
49.710095
  0
LINE
  8
型材断面
  6
CONTINUOUS
 10
45.237012
 20
49.710095
 11
45.237015
 21
48.517982
  0
LINE
  8
型材断面
  6
CONTINUOUS
 10
42.646505
 20
26.51403
 11
45.237015
 21
27.110082
  0
LINE
  8
型材断面
  6
CONTINUOUS
 10
42.646505
 20
26.51403
 11
45.237012
 21
25.91797
  0
LINE
  8
型材断面
  6
CONTINUOUS
 10
45.237012
 20
25.91797
 11
45.237015
 21
27.110082
  0
LINE
  8
型材断面
  6
CONTINUOUS
 10
-79.28042
 20
49.114035
 11
-81.87093
 21
48.517982
  0
LINE
  8
型材断面
  6
CONTINUOUS
 10
-79.28042
 20
49.114035
 11
-81.870928
 21
49.710095
  0
LINE
  8
型材断面
  6
CONTINUOUS
 10
-81.870928
 20
49.710095
 11
-81.87093
 21
48.517982
  0
LINE
  8
型材断面
  6
CONTINUOUS
 10
-79.28042
 20
26.51403
 11
-81.87093
 21
27.110082
  0
LINE
  8
型材断面
  6
CONTINUOUS
 10
-79.28042
 20
26.51403
 11
-81.870928
 21
25.91797
  0
LINE
  8
型材断面
  6
CONTINUOUS
 10
-81.870928
 20
25.91797
 11
-81.87093
 21
27.110082
  0
LINE
  8
型材断面
  6
CONTINUOUS
 10
-78.633478
 20
20.830853
 11
-18.316957
 21
20.830853
  0
LINE
  8
型材断面
  6
CONTINUOUS
 10
41.999562
 20
20.830853
 11
-18.316957
 21
20.830853
  0
LINE
  8
型材断面
  6
CONTINUOUS
 10
41.999562
 20
54.797213
 11
-18.316957
 21
54.797213
  0
LINE
  8
型材断面
  6
CONTINUOUS
 10
-78.633478
 20
54.797213
 11
-18.316957
 21
54.797213
  0
LINE
  8
型材断面
  6
CONTINUOUS
 10
-136.551403
 20
73.34604
 11
-90.309625
 21
73.34604
  0
ARC
  8
型材断面
  6
CONTINUOUS
 62
    47
 10
131.141235
 20
20.830696
 40
0.016668
 50
179.999123
 51
270.0
  0
ARC
  8
型材断面
  6
CONTINUOUS
 62
    47
 10
131.181237
 20
20.82403
 40
0.010002
 50
270.0
 51
359.791626
  0
LINE
  8
型材断面
  6
CONTINUOUS
 62
    47
 10
131.35796
 20
20.864033
 11
131.35796
 21
21.71418
  0
LINE
  8
型材断面
  6
CONTINUOUS
 62
    47
 10
131.12457
 20
20.830695
 11
129.01791
 21
20.830695
  0
LINE
  8
型材断面
  6
CONTINUOUS
 62
    47
 10
131.35796
 20
20.8307
 11
134.674625
 21
20.8307
  0
LINE
  8
型材断面
  6
CONTINUOUS
 62
    47
 10
135.174625
 20
21.3307
 11
134.674625
 21
21.3307
  0
LINE
  8
型材断面
  6
CONTINUOUS
 62
    47
 10
129.01791
 20
21.714035
 11
128.691243
 21
21.714035
  0
LINE
  8
型材断面
  6
CONTINUOUS
 62
    47
 10
131.141237
 20
20.814033
 11
131.180897
 21
20.814033
  0
ARC
  8
型材断面
  6
CONTINUOUS
 62
    47
 10
131.141235
 20
54.797368
 40
0.016668
 50
90.0
 51
180.000877
  0
ARC
  8
型材断面
  6
CONTINUOUS
 62
    47
 10
131.181237
 20
54.804034
 40
0.010002
 50
0.208374
 51
90.0
  0
LINE
  8
型材断面
  6
CONTINUOUS
 62
    47
 10
131.35796
 20
54.76403
 11
131.35796
 21
53.913883
  0
LINE
  8
型材断面
  6
CONTINUOUS
 62
    47
 10
131.12457
 20
54.797367
 11
129.01791
 21
54.797367
  0
LINE
  8
型材断面
  6
CONTINUOUS
 62
    47
 10
131.35796
 20
54.797363
 11
134.674625
 21
54.797363
  0
LINE
  8
型材断面
  6
CONTINUOUS
 62
    47
 10
135.174625
 20
54.297363
 11
134.674625
 21
54.297363
  0
LINE
  8
型材断面
  6
CONTINUOUS
 62
    47
 10
129.01791
 20
53.914027
 11
128.691243
 21
53.914027
  0
LINE
  8
型材断面
  6
CONTINUOUS
 62
    47
 10
131.141237
 20
54.81403
 11
131.180897
 21
54.81403
  0
LINE
  8
型材断面
  6
CONTINUOUS
 10
127.024575
 20
54.21403
 11
127.024575
 21
37.814033
  0
LINE
  8
型材断面
  6
CONTINUOUS
 10
127.191243
 20
54.370552
 11
127.191243
 21
37.814033
  0
LINE
  8
型材断面
  6
CONTINUOUS
 10
128.691243
 20
54.21403
 11
128.691243
 21
37.814033
  0
LINE
  8
型材断面
  6
CONTINUOUS
 10
129.01791
 20
54.797367
 11
129.01791
 21
37.814033
  0
LINE
  8
型材断面
  6
CONTINUOUS
 10
131.191243
 20
54.804032
 11
131.191243
 21
37.814033
  0
LINE
  8
型材断面
  6
CONTINUOUS
 10
131.35796
 20
54.797363
 11
131.35796
 21
37.814033
  0
LINE
  8
型材断面
  6
CONTINUOUS
 10
134.674625
 20
54.797363
 11
134.674625
 21
37.814033
  0
LINE
  8
型材断面
  6
CONTINUOUS
 10
135.174625
 20
54.297363
 11
135.174625
 21
37.814033
  0
LINE
  8
型材断面
  6
CONTINUOUS
 10
135.174625
 20
21.3307
 11
135.174625
 21
37.814033
  0
LINE
  8
型材断面
  6
CONTINUOUS
 10
134.674625
 20
20.8307
 11
134.674625
 21
37.814033
  0
LINE
  8
型材断面
  6
CONTINUOUS
 10
131.191243
 20
20.82403
 11
131.191243
 21
37.814033
  0
LINE
  8
型材断面
  6
CONTINUOUS
 10
131.35796
 20
20.8307
 11
131.35796
 21
37.814033
  0
LINE
  8
型材断面
  6
CONTINUOUS
 10
129.01791
 20
20.830695
 11
129.01791
 21
37.814033
  0
LINE
  8
型材断面
  6
CONTINUOUS
 10
128.691243
 20
21.414033
 11
128.691243
 21
37.814033
  0
LINE
  8
型材断面
  6
CONTINUOUS
 10
127.191243
 20
21.257512
 11
127.191243
 21
37.814033
  0
LINE
  8
型材断面
  6
CONTINUOUS
 10
127.024575
 20
21.414033
 11
127.024575
 21
37.814033
  0
ARC
  8
型材断面
  6
CONTINUOUS
 62
    47
 10
-78.633629
 20
-71.480602
 40
0.016668
 50
89.999123
 51
180.0
  0
ARC
  8
型材断面
  6
CONTINUOUS
 62
    47
 10
-78.640295
 20
-71.520603
 40
0.010002
 50
180.0
 51
269.791626
  0
LINE
  8
型材断面
  6
CONTINUOUS
 62
    47
 10
-78.60029
 20
-71.697322
 11
-77.750145
 21
-71.697322
  0
LINE
  8
型材断面
  6
CONTINUOUS
 62
    47
 10
-78.63363
 20
-71.463933
 11
-78.63363
 21
-69.357272
  0
LINE
  8
型材断面
  6
CONTINUOUS
 62
    47
 10
-78.633625
 20
-71.697322
 11
-78.633625
 21
-75.013987
  0
LINE
  8
型材断面
  6
CONTINUOUS
 62
    47
 10
-78.133625
 20
-75.513987
 11
-78.133625
 21
-75.013987
  0
LINE
  8
型材断面
  6
CONTINUOUS
 62
    47
 10
-77.75029
 20
-69.357272
 11
-77.75029
 21
-69.030605
  0
LINE
  8
型材断面
  6
CONTINUOUS
 62
    47
 10
-78.65029
 20
-71.4806
 11
-78.65029
 21
-71.52026
  0
ARC
  8
型材断面
  6
CONTINUOUS
 62
    47
 10
41.99971
 20
-71.480602
 40
0.016668
 50
0.0
 51
90.000877
  0
ARC
  8
型材断面
  6
CONTINUOUS
 62
    47
 10
42.006376
 20
-71.520603
 40
0.010002
 50
270.208374
 51
360.0
  0
LINE
  8
型材断面
  6
CONTINUOUS
 62
    47
 10
41.966373
 20
-71.697322
 11
41.116225
 21
-71.697322
  0
LINE
  8
型材断面
  6
CONTINUOUS
 62
    47
 10
41.99971
 20
-71.463933
 11
41.99971
 21
-69.357272
  0
LINE
  8
型材断面
  6
CONTINUOUS
 62
    47
 10
41.999705
 20
-71.697322
 11
41.999705
 21
-75.013987
  0
LINE
  8
型材断面
  6
CONTINUOUS
 62
    47
 10
41.499705
 20
-75.513987
 11
41.499705
 21
-75.013987
  0
LINE
  8
型材断面
  6
CONTINUOUS
 62
    47
 10
41.11637
 20
-69.357272
 11
41.11637
 21
-69.030605
  0
LINE
  8
型材断面
  6
CONTINUOUS
 62
    47
 10
42.016373
 20
-71.4806
 11
42.016373
 21
-71.52026
  0
LINE
  8
型材断面
  6
CONTINUOUS
 10
-78.63363
 20
-69.357272
 11
-18.31696
 21
-69.357272
  0
LINE
  8
型材断面
  6
CONTINUOUS
 10
-78.05029
 20
-69.030605
 11
-18.31696
 21
-69.030605
  0
LINE
  8
型材断面
  6
CONTINUOUS
 10
-78.05029
 20
-67.363937
 11
-18.31696
 21
-67.363937
  0
LINE
  8
型材断面
  6
CONTINUOUS
 10
-78.206812
 20
-67.530605
 11
-18.31696
 21
-67.530605
  0
LINE
  8
型材断面
  6
CONTINUOUS
 10
-78.640295
 20
-71.530605
 11
-18.31696
 21
-71.530605
  0
LINE
  8
型材断面
  6
CONTINUOUS
 10
-78.633625
 20
-71.697322
 11
-18.31696
 21
-71.697322
  0
LINE
  8
型材断面
  6
CONTINUOUS
 10
-78.133625
 20
-75.513987
 11
-18.31696
 21
-75.513987
  0
LINE
  8
型材断面
  6
CONTINUOUS
 10
-78.633625
 20
-75.013987
 11
-18.31696
 21
-75.013987
  0
LINE
  8
型材断面
  6
CONTINUOUS
 10
41.999705
 20
-75.013987
 11
-18.31696
 21
-75.013987
  0
LINE
  8
型材断面
  6
CONTINUOUS
 10
41.499705
 20
-75.513987
 11
-18.31696
 21
-75.513987
  0
LINE
  8
型材断面
  6
CONTINUOUS
 10
42.006375
 20
-71.530605
 11
-18.31696
 21
-71.530605
  0
LINE
  8
型材断面
  6
CONTINUOUS
 10
41.999705
 20
-71.697322
 11
-18.31696
 21
-71.697322
  0
LINE
  8
型材断面
  6
CONTINUOUS
 10
41.416373
 20
-69.030605
 11
-18.31696
 21
-69.030605
  0
LINE
  8
型材断面
  6
CONTINUOUS
 10
41.99971
 20
-69.357272
 11
-18.31696
 21
-69.357272
  0
LINE
  8
型材断面
  6
CONTINUOUS
 10
41.572895
 20
-67.530605
 11
-18.31696
 21
-67.530605
  0
LINE
  8
型材断面
  6
CONTINUOUS
 10
41.416373
 20
-67.363937
 11
-18.31696
 21
-67.363937
  0
INSERT
  2
*GRP_0018
  8
型材断面
  6
CONTINUOUS
 10
0.0
 20
0.0
  0
INSERT
  2
*GRP_0019
  8
型材断面
  6
CONTINUOUS
 10
0.0
 20
0.0
  0
INSERT
  2
*GRP_0020
  8
型材断面
  6
CONTINUOUS
 10
0.0
 20
0.0
  0
INSERT
  2
*GRP_0021
  8
型材断面
  6
CONTINUOUS
 10
0.0
 20
0.0
  0
ARC
  8
型材断面
  6
DOT
 62
    47
 10
-78.633629
 20
-59.813936
 40
0.016668
 50
89.999123
 51
180.0
  0
ARC
  8
型材断面
  6
DOT
 62
    47
 10
-78.640295
 20
-59.853938
 40
0.010002
 50
180.0
 51
269.791626
  0
LINE
  8
型材断面
  6
DOT
 62
    47
 10
-78.63363
 20
-59.797265
 11
-78.63363
 21
-57.690605
  0
LINE
  8
型材断面
  6
DOT
 62
    47
 10
-77.75029
 20
-57.690605
 11
-77.75029
 21
-57.363937
  0
LINE
  8
型材断面
  6
DOT
 62
    47
 10
-78.65029
 20
-59.813933
 11
-78.65029
 21
-59.853593
  0
ARC
  8
型材断面
  6
DOT
 62
    47
 10
41.99971
 20
-59.813936
 40
0.016668
 50
0.0
 51
90.000877
  0
ARC
  8
型材断面
  6
DOT
 62
    47
 10
42.006376
 20
-59.853938
 40
0.010002
 50
270.208374
 51
360.0
  0
LINE
  8
型材断面
  6
DOT
 62
    47
 10
41.99971
 20
-59.797265
 11
41.99971
 21
-57.690605
  0
LINE
  8
型材断面
  6
DOT
 62
    47
 10
41.11637
 20
-57.690605
 11
41.11637
 21
-57.363937
  0
LINE
  8
型材断面
  6
DOT
 62
    47
 10
42.016373
 20
-59.813933
 11
42.016373
 21
-59.853593
  0
LINE
  8
型材断面
  6
DOT
 10
-78.63363
 20
-57.690605
 11
-18.31696
 21
-57.690605
  0
LINE
  8
型材断面
  6
DOT
 10
-78.206812
 20
-55.863937
 11
-18.31696
 21
-55.863937
  0
LINE
  8
型材断面
  6
DOT
 10
-78.05029
 20
-55.69727
 11
-18.31696
 21
-55.69727
  0
LINE
  8
型材断面
  6
DOT
 10
-78.05029
 20
-57.363937
 11
-18.31696
 21
-57.363937
  0
LINE
  8
型材断面
  6
DOT
 10
-78.640295
 20
-59.863937
 11
-18.31696
 21
-59.863937
  0
LINE
  8
型材断面
  6
DOT
 10
42.006375
 20
-59.863937
 11
-18.31696
 21
-59.863937
  0
LINE
  8
型材断面
  6
DOT
 10
41.99971
 20
-57.690605
 11
-18.31696
 21
-57.690605
  0
LINE
  8
型材断面
  6
DOT
 10
41.416373
 20
-57.363937
 11
-18.31696
 21
-57.363937
  0
LINE
  8
型材断面
  6
DOT
 10
41.572895
 20
-55.863937
 11
-18.31696
 21
-55.863937
  0
LINE
  8
型材断面
  6
DOT
 10
41.416373
 20
-55.69727
 11
-18.31696
 21
-55.69727
  0
LINE
  8
型材断面
  6
DASHDOT
 10
-37.843625
 20
22.814033
 11
-37.843625
 21
52.814033
  0
LINE
  8
型材断面
  6
DASHDOT
 10
1.20971
 20
22.814033
 11
1.20971
 21
52.814033
  0
LINE
  8
型材断面
  6
CONTINUOUS
 10
21.02971
 20
23.757512
 11
21.02971
 21
21.257512
  0
LINE
  8
型材断面
  6
CONTINUOUS
 10
20.196375
 20
23.757512
 11
20.196375
 21
21.257512
  0
LINE
  8
型材断面
  6
CONTINUOUS
 10
-17.90029
 20
23.757512
 11
-17.90029
 21
21.257512
  0
LINE
  8
型材断面
  6
CONTINUOUS
 10
-18.733625
 20
23.757512
 11
-18.733625
 21
21.257512
  0
LINE
  8
型材断面
  6
CONTINUOUS
 10
-57.663625
 20
23.757512
 11
-57.663625
 21
21.257512
  0
LINE
  8
型材断面
  6
CONTINUOUS
 10
-56.83029
 20
23.757512
 11
-56.83029
 21
21.257512
  0
LINE
  8
型材断面
  6
CONTINUOUS
 10
21.02971
 20
51.870552
 11
21.02971
 21
54.370552
  0
LINE
  8
型材断面
  6
CONTINUOUS
 10
20.196375
 20
51.870552
 11
20.196375
 21
54.370552
  0
LINE
  8
型材断面
  6
CONTINUOUS
 10
-17.90029
 20
51.870552
 11
-17.90029
 21
54.370552
  0
LINE
  8
型材断面
  6
CONTINUOUS
 10
-18.733625
 20
51.870552
 11
-18.733625
 21
54.370552
  0
LINE
  8
型材断面
  6
CONTINUOUS
 10
-57.663625
 20
51.870552
 11
-57.663625
 21
54.370552
  0
LINE
  8
型材断面
  6
CONTINUOUS
 10
-56.83029
 20
51.870552
 11
-56.83029
 21
54.370552
  0
LINE
  8
型材断面
  6
CONTINUOUS
 10
-17.90029
 20
23.757512
 11
20.196375
 21
23.757512
  0
LINE
  8
型材断面
  6
CONTINUOUS
 10
-17.90029
 20
51.870552
 11
20.196375
 21
51.870552
  0
LINE
  8
型材断面
  6
CONTINUOUS
 10
-56.83029
 20
51.870552
 11
-18.733625
 21
51.870552
  0
LINE
  8
型材断面
  6
CONTINUOUS
 10
-56.83029
 20
23.757512
 11
-18.733625
 21
23.757512
  0
LINE
  8
型材断面
  6
CONTINUOUS
 10
2.45971
 20
24.590845
 11
-0.04029
 21
24.590845
  0
LINE
  8
型材断面
  6
CONTINUOUS
 10
2.45971
 20
24.590845
 11
2.45971
 21
51.03722
  0
LINE
  8
型材断面
  6
CONTINUOUS
 10
-0.04029
 20
24.590845
 11
-0.04029
 21
51.03722
  0
LINE
  8
型材断面
  6
CONTINUOUS
 10
2.45971
 20
51.03722
 11
-0.04029
 21
51.03722
  0
LINE
  8
型材断面
  6
CONTINUOUS
 10
-36.593625
 20
24.590845
 11
-39.093625
 21
24.590845
  0
LINE
  8
型材断面
  6
CONTINUOUS
 10
-36.593625
 20
24.590845
 11
-36.593625
 21
51.03722
  0
LINE
  8
型材断面
  6
CONTINUOUS
 10
-39.093625
 20
24.590845
 11
-39.093625
 21
51.03722
  0
LINE
  8
型材断面
  6
CONTINUOUS
 10
-36.593625
 20
51.03722
 11
-39.093625
 21
51.03722
  0
LINE
  8
型材断面
  6
CONTINUOUS
 10
41.99956
 20
54.797213
 11
41.99956
 21
37.814033
  0
LINE
  8
型材断面
  6
CONTINUOUS
 10
41.99956
 20
20.830853
 11
41.99956
 21
37.814033
  0
LINE
  8
型材断面
  6
CONTINUOUS
 10
41.572895
 20
37.397365
 11
39.072895
 21
37.397365
  0
LINE
  8
型材断面
  6
CONTINUOUS
 10
41.572895
 20
38.2307
 11
39.072895
 21
38.2307
  0
LINE
  8
型材断面
  6
CONTINUOUS
 10
41.337198
 20
21.25751
 11
41.572895
 21
21.493217
  0
LINE
  8
型材断面
  6
CONTINUOUS
 10
41.99956
 20
20.830853
 11
41.455047
 21
21.375365
  0
LINE
  8
型材断面
  6
CONTINUOUS
 10
39.072895
 20
37.397365
 11
39.072895
 21
23.993212
  0
LINE
  8
型材断面
  6
CONTINUOUS
 10
39.072895
 20
23.993212
 11
38.837195
 21
23.757512
  0
LINE
  8
型材断面
  6
CONTINUOUS
 10
38.837192
 20
23.75751
 11
41.337195
 21
21.257512
  0
LINE
  8
型材断面
  6
CONTINUOUS
 10
39.072895
 20
23.993212
 11
41.572895
 21
21.493217
  0
LINE
  8
型材断面
  6
CONTINUOUS
 10
41.337198
 20
54.370555
 11
41.572895
 21
54.134848
  0
LINE
  8
型材断面
  6
CONTINUOUS
 10
41.99956
 20
54.797213
 11
41.455047
 21
54.2527
  0
LINE
  8
型材断面
  6
CONTINUOUS
 10
39.072895
 20
51.634852
 11
41.572895
 21
54.134848
  0
LINE
  8
型材断面
  6
CONTINUOUS
 10
41.572895
 20
21.493217
 11
41.572895
 21
54.134848
  0
LINE
  8
型材断面
  6
CONTINUOUS
 10
38.837192
 20
51.870555
 11
41.337195
 21
54.370552
  0
LINE
  8
型材断面
  6
CONTINUOUS
 10
39.072895
 20
38.2307
 11
39.072895
 21
51.634852
  0
LINE
  8
型材断面
  6
CONTINUOUS
 10
39.072895
 20
51.634852
 11
38.837195
 21
51.870552
  0
LINE
  8
型材断面
  6
CONTINUOUS
 10
21.02971
 20
51.870552
 11
38.83719
 21
51.870552
  0
LINE
  8
型材断面
  6
CONTINUOUS
 10
21.02971
 20
23.757512
 11
38.83719
 21
23.757512
  0
LINE
  8
型材断面
  6
CONTINUOUS
 10
-78.633475
 20
54.797213
 11
-78.633475
 21
37.814033
  0
LINE
  8
型材断面
  6
CONTINUOUS
 10
-78.633475
 20
20.830853
 11
-78.633475
 21
37.814033
  0
LINE
  8
型材断面
  6
CONTINUOUS
 10
-78.20681
 20
37.397365
 11
-75.70681
 21
37.397365
  0
LINE
  8
型材断面
  6
CONTINUOUS
 10
-78.20681
 20
38.2307
 11
-75.70681
 21
38.2307
  0
LINE
  8
型材断面
  6
CONTINUOUS
 10
-77.971112
 20
21.25751
 11
-78.20681
 21
21.493217
  0
LINE
  8
型材断面
  6
CONTINUOUS
 10
-78.633475
 20
20.830853
 11
-78.088962
 21
21.375365
  0
LINE
  8
型材断面
  6
CONTINUOUS
 10
-75.70681
 20
37.397365
 11
-75.70681
 21
23.993212
  0
LINE
  8
型材断面
  6
CONTINUOUS
 10
-75.70681
 20
23.993212
 11
-75.47111
 21
23.757512
  0
LINE
  8
型材断面
  6
CONTINUOUS
 10
-75.471108
 20
23.75751
 11
-77.97111
 21
21.257512
  0
LINE
  8
型材断面
  6
CONTINUOUS
 10
-75.70681
 20
23.993212
 11
-78.20681
 21
21.493217
  0
LINE
  8
型材断面
  6
CONTINUOUS
 10
-77.971112
 20
54.370555
 11
-78.20681
 21
54.134848
  0
LINE
  8
型材断面
  6
CONTINUOUS
 10
-78.633475
 20
54.797213
 11
-78.088962
 21
54.2527
  0
LINE
  8
型材断面
  6
CONTINUOUS
 10
-75.70681
 20
51.634852
 11
-78.20681
 21
54.134848
  0
LINE
  8
型材断面
  6
CONTINUOUS
 10
-78.20681
 20
21.493217
 11
-78.20681
 21
54.134848
  0
LINE
  8
型材断面
  6
CONTINUOUS
 10
-75.471108
 20
51.870555
 11
-77.97111
 21
54.370552
  0
LINE
  8
型材断面
  6
CONTINUOUS
 10
-75.70681
 20
38.2307
 11
-75.70681
 21
51.634852
  0
LINE
  8
型材断面
  6
CONTINUOUS
 10
-75.70681
 20
51.634852
 11
-75.47111
 21
51.870552
  0
LINE
  8
型材断面
  6
CONTINUOUS
 10
-57.663625
 20
23.757512
 11
-75.471105
 21
23.757512
  0
LINE
  8
型材断面
  6
CONTINUOUS
 10
41.337195
 20
21.257512
 11
-77.97111
 21
21.257512
  0
LINE
  8
型材断面
  6
CONTINUOUS
 10
-57.663625
 20
51.870552
 11
-75.471105
 21
51.870552
  0
LINE
  8
型材断面
  6
CONTINUOUS
 10
41.337195
 20
54.370552
 11
-77.97111
 21
54.370552
  0
TEXT
  7
TextStyle03
  8
文字
  6
CONTINUOUS
 10
116.575
 20
-76.7
  1
網入り6.8t
 40
3.0
 72
     5
 11
133.2625
 21
-76.7
  0
TEXT
  7
TextStyle03
  8
文字
  6
CONTINUOUS
 10
-26.45
 20
9.325
  1
可動装置側
 40
3.0
 72
     5
 11
-9.95
 21
9.325
  0
TEXT
  7
TextStyle03
  8
文字
  6
CONTINUOUS
 10
-26.45
 20
63.275
  1
可動装置側
 40
3.0
 72
     5
 11
-9.95
 21
63.275
  0
TEXT
  7
TextStyle03
  8
文字
  6
CONTINUOUS
 10
123.25
 20
-81.375
  1
×３枚
 40
3.0
 72
     5
 11
133.0
 21
-81.375
  0
TEXT
  7
TextStyle03
  8
文字
  6
CONTINUOUS
 10
-127.75
 20
89.4
  1
はケーシング位置を示す
 40
3.0
 72
     5
 11
-91.0
 21
89.4
  0
TEXT
  7
TextStyle03
  8
文字
  6
CONTINUOUS
 10
-127.75
 20
86.025
  1
４ヶ所中1ヶ所に設定
 40
3.0
 72
     5
 11
-96.0625
 21
86.025
  0
TEXT
  7
TextStyle03
  8
文字
  6
CONTINUOUS
 10
-127.75
 20
94.925
  1
は排水穴位置を示す
 40
3.0
 72
     5
 11
-97.75
 21
94.925
  0
TEXT
  7
TextStyle03
  8
文字
  6
CONTINUOUS
 10
-97.65
 20
16.275
  1
アンカーピッチ
 40
3.0
 50
90.0
 72
     5
 11
-97.65
 21
39.525
  0
TEXT
  7
TextStyle03
  8
文字
  6
CONTINUOUS
 10
-65.5
 20
89.75
  1
アンカーピッチ
 40
3.0
 72
     5
 11
-42.25
 21
89.75
  0
TEXT
  7
TextStyle03
  8
文字
  6
CONTINUOUS
 10
-131.475
 20
80.05
  1
アンカー数量　１４ヶ所
 40
3.0
 72
     5
 11
-94.725
 21
80.05
  0
TEXT
  7
TextStyle03
  8
文字
  6
CONTINUOUS
 10
-131.525
 20
74.3
  1
アームユニット数　４ヶ所
 40
3.0
 72
     5
 11
-91.4
 21
74.3
  0
LINE
  8
文字
  6
CONTINUOUS
 10
127.024575
 20
66.643603
 11
127.024575
 21
56.09364
  0
LINE
  8
文字
  6
CONTINUOUS
 10
134.674625
 20
66.643603
 11
134.674625
 21
56.158722
  0
LINE
  8
文字
  6
CONTINUOUS
 10
53.25162
 20
-67.363937
 11
42.701655
 21
-67.363937
  0
LINE
  8
文字
  6
CONTINUOUS
 10
53.25162
 20
-75.013987
 11
42.766738
 21
-75.013987
  0
LINE
  8
文字
  6
CONTINUOUS
 10
53.25162
 20
-55.69727
 11
42.701655
 21
-55.69727
  0
LINE
  8
文字
  6
CONTINUOUS
 10
135.10293
 20
-45.734905
 11
135.10293
 21
-52.142313
  0
LINE
  8
文字
  6
CONTINUOUS
 10
97.21293
 20
-45.734905
 11
97.21293
 21
-52.142313
  0
TEXT
  7
TextStyle03
  8
文字
  6
CONTINUOUS
 10
61.125
 20
125.25
  1
シリーズ：ＴＦ２ＦＬ
 40
5.0
 72
     5
 11
116.75
 21
125.25
  0
TEXT
  7
TextStyle03
  8
文字
  6
CONTINUOUS
 10
61.125
 20
119.625
  1
　　　　　（上下可動）900×3500タイプ
 40
5.0
 72
     5
 11
164.5625
 21
119.625
  0
TEXT
  7
TextStyle03
  8
文字
  6
CONTINUOUS
 10
61.125
 20
114.0
  1
図面名　：外観姿図
 40
5.0
 72
     5
 11
111.125
 21
114.0
  0
TEXT
  7
TextStyle03
  8
文字
  6
CONTINUOUS
 10
61.125
 20
108.375
  1
　　　　　　
 40
5.0
 72
     5
 11
94.25
 21
108.375
  0
TEXT
  7
TextStyle03
  8
文字
  6
CONTINUOUS
 10
61.275
 20
104.525
  1
ＮＳコード：ＮＳＦＺＬ
 40
5.0
 72
     5
 11
122.525
 21
104.525
  0
INSERT
  2
*DIM_0002
  8
寸法
  6
CONTINUOUS
 10
0.0
 20
0.0
  0
INSERT
  2
*DIM_0003
  8
寸法
  6
CONTINUOUS
 10
0.0
 20
0.0
  0
INSERT
  2
*DIM_0004
  8
寸法
  6
CONTINUOUS
 10
0.0
 20
0.0
  0
INSERT
  2
*DIM_0005
  8
寸法
  6
CONTINUOUS
 10
0.0
 20
0.0
  0
INSERT
  2
*DIM_0006
  8
寸法
  6
CONTINUOUS
 10
0.0
 20
0.0
  0
INSERT
  2
*DIM_0007
  8
寸法
  6
CONTINUOUS
 10
0.0
 20
0.0
  0
INSERT
  2
*DIM_0008
  8
寸法
  6
CONTINUOUS
 10
0.0
 20
0.0
  0
INSERT
  2
*DIM_0009
  8
寸法
  6
CONTINUOUS
 10
0.0
 20
0.0
  0
INSERT
  2
*DIM_0010
  8
寸法
  6
CONTINUOUS
 10
0.0
 20
0.0
  0
INSERT
  2
*DIM_0011
  8
寸法
  6
CONTINUOUS
 10
0.0
 20
0.0
  0
INSERT
  2
*DIM_0012
  8
寸法
  6
CONTINUOUS
 10
0.0
 20
0.0
  0
INSERT
  2
*DIM_0013
  8
寸法
  6
CONTINUOUS
 10
0.0
 20
0.0
  0
INSERT
  2
*DIM_0014
  8
寸法
  6
CONTINUOUS
 10
0.0
 20
0.0
  0
INSERT
  2
*DIM_0015
  8
寸法
  6
CONTINUOUS
 10
0.0
 20
0.0
  0
INSERT
  2
*DIM_0016
  8
寸法
  6
CONTINUOUS
 10
0.0
 20
0.0
  0
INSERT
  2
*DIM_0017
  8
寸法
  6
CONTINUOUS
 10
0.0
 20
0.0
  0
INSERT
  2
*DIM_0022
  8
寸法
  6
CONTINUOUS
 10
0.0
 20
0.0
  0
INSERT
  2
*DIM_0023
  8
寸法
  6
CONTINUOUS
 10
0.0
 20
0.0
  0
INSERT
  2
*DIM_0024
  8
寸法
  6
CONTINUOUS
 10
0.0
 20
0.0
  0
LINE
  8
別途部材
  6
CONTINUOUS
 62
    47
 10
127.124575
 20
21.257512
 11
127.191243
 21
21.257512
  0
ARC
  8
別途部材
  6
CONTINUOUS
 62
    47
 10
127.124573
 20
21.357511
 40
0.1
 50
180.0
 51
270.0
  0
LINE
  8
別途部材
  6
CONTINUOUS
 62
    47
 10
127.024575
 20
21.357512
 11
127.024575
 21
23.724178
  0
LINE
  8
別途部材
  6
CONTINUOUS
 62
    47
 10
128.691243
 20
21.414033
 11
127.191243
 21
21.414033
  0
LINE
  8
別途部材
  6
CONTINUOUS
 62
    47
 10
127.124575
 20
54.370552
 11
127.191243
 21
54.370552
  0
ARC
  8
別途部材
  6
CONTINUOUS
 62
    47
 10
127.124573
 20
54.270553
 40
0.1
 50
90.0
 51
180.0
  0
LINE
  8
別途部材
  6
CONTINUOUS
 62
    47
 10
127.024575
 20
54.270552
 11
127.024575
 21
51.903885
  0
LINE
  8
別途部材
  6
CONTINUOUS
 62
    47
 10
128.691243
 20
54.21403
 11
127.191243
 21
54.21403
  0
LINE
  8
別途部材
  6
CONTINUOUS
 62
    47
 10
-78.206812
 20
-67.463937
 11
-78.206812
 21
-67.530605
  0
ARC
  8
別途部材
  6
CONTINUOUS
 62
    47
 10
-78.106814
 20
-67.463939
 40
0.1
 50
90.0
 51
180.0
  0
LINE
  8
別途部材
  6
CONTINUOUS
 62
    47
 10
-78.106812
 20
-67.363937
 11
-75.740145
 21
-67.363937
  0
LINE
  8
別途部材
  6
CONTINUOUS
 62
    47
 10
-78.05029
 20
-69.030605
 11
-78.05029
 21
-67.530605
  0
LINE
  8
別途部材
  6
CONTINUOUS
 62
    47
 10
41.572895
 20
-67.463937
 11
41.572895
 21
-67.530605
  0
ARC
  8
別途部材
  6
CONTINUOUS
 62
    47
 10
41.472894
 20
-67.463939
 40
0.1
 50
0.0
 51
90.0
  0
LINE
  8
別途部材
  6
CONTINUOUS
 62
    47
 10
41.472895
 20
-67.363937
 11
39.106228
 21
-67.363937
  0
LINE
  8
別途部材
  6
CONTINUOUS
 62
    47
 10
41.416373
 20
-69.030605
 11
41.416373
 21
-67.530605
  0
LINE
  8
別途部材
  6
DOT
 62
    47
 10
-78.206812
 20
-55.79727
 11
-78.206812
 21
-55.863937
  0
ARC
  8
別途部材
  6
DOT
 62
    47
 10
-78.106814
 20
-55.797274
 40
0.1
 50
90.0
 51
180.0
  0
LINE
  8
別途部材
  6
DOT
 62
    47
 10
-78.106812
 20
-55.69727
 11
-75.740145
 21
-55.69727
  0
LINE
  8
別途部材
  6
DOT
 62
    47
 10
-78.05029
 20
-57.363937
 11
-78.05029
 21
-55.863937
  0
LINE
  8
別途部材
  6
DOT
 62
    47
 10
41.572895
 20
-55.79727
 11
41.572895
 21
-55.863937
  0
ARC
  8
別途部材
  6
DOT
 62
    47
 10
41.472894
 20
-55.797274
 40
0.1
 50
0.0
 51
90.0
  0
LINE
  8
別途部材
  6
DOT
 62
    47
 10
41.472895
 20
-55.69727
 11
39.106228
 21
-55.69727
  0
LINE
  8
別途部材
  6
DOT
 62
    47
 10
41.416373
 20
-57.363937
 11
41.416373
 21
-55.863937
  0
LINE
  8
曲げ物
  6
CONTINUOUS
 10
135.10293
 20
-83.118728
 11
135.10293
 21
-53.785395
  0
LINE
  8
曲げ物
  6
CONTINUOUS
 10
23.03029
 20
39.693362
 11
19.334978
 21
35.99805
  0
LINE
  8
曲げ物
  6
CONTINUOUS
 10
22.32682
 20
38.157252
 11
20.87109
 21
36.701522
  0
LINE
  8
曲げ物
  6
CONTINUOUS
 10
21.49418
 20
38.989892
 11
20.03845
 21
37.534162
  0
LINE
  8
曲げ物
  6
CONTINUOUS
 10
-16.08599
 20
39.693362
 11
-19.781303
 21
35.99805
  0
LINE
  8
曲げ物
  6
CONTINUOUS
 10
-16.78946
 20
38.157252
 11
-18.24519
 21
36.701522
  0
LINE
  8
曲げ物
  6
CONTINUOUS
 10
-17.6221
 20
38.989892
 11
-19.07783
 21
37.534162
  0
LINE
  8
曲げ物
  6
CONTINUOUS
 10
-54.872012
 20
39.693362
 11
-58.567325
 21
35.99805
  0
LINE
  8
曲げ物
  6
CONTINUOUS
 10
-55.575483
 20
38.157252
 11
-57.031213
 21
36.701522
  0
LINE
  8
曲げ物
  6
CONTINUOUS
 10
-56.408122
 20
38.989892
 11
-57.863853
 21
37.534162
  0
LINE
  8
曲げ物
  6
CONTINUOUS
 10
97.21293
 20
-83.118728
 11
97.21293
 21
-53.785395
  0
LINE
  8
曲げ物
  6
CONTINUOUS
 10
135.10293
 20
-53.785395
 11
97.21293
 21
-53.785395
  0
LINE
  8
曲げ物
  6
CONTINUOUS
 10
135.10293
 20
-83.118728
 11
97.21293
 21
-83.118728
  0
ENDSEC
  0
EOF
