  0
SECTION
  2
HEADER
  9
$EXTMIN
 10
-210.0
 20
-148.5
  9
$EXTMAX
 10
210.0
 20
148.5
  9
$PDMODE
 70
    32
  9
$PDSIZE
 40
1.5
  9
$LTSCALE
 40
10.0
  0
ENDSEC
  0
SECTION
  2
TABLES
  0
TABLE
  2
LTYPE
 70
    15
  0
LTYPE
  2
CONTINUOUS
 70
    64
  3
実線
 72
    65
 73
     0
 40
0.0
  0
LTYPE
  2
DASHED
 70
    64
  3
破線A
 72
    65
 73
     2
 40
0.6
 49
0.4
 49
-0.2
  0
LTYPE
  2
DASHEDX2
 70
    64
  3
破線B
 72
    65
 73
     2
 40
1.3
 49
0.9
 49
-0.4
  0
LTYPE
  2
DASHDOT
 70
    64
  3
１点鎖線A
 72
    65
 73
     4
 40
0.5375
 49
0.375
 49
-0.05
 49
0.0625
 49
-0.05
  0
LTYPE
  2
DASHDOTX2
 70
    64
  3
１点鎖線B
 72
    65
 73
     4
 40
1.075
 49
0.75
 49
-0.1
 49
0.125
 49
-0.1
  0
LTYPE
  2
DIVIDE2
 70
    64
  3
２点鎖線A
 72
    65
 73
     6
 40
0.5125
 49
0.3
 49
-0.0375
 49
0.05
 49
-0.0375
 49
0.05
 49
-0.0375
  0
LTYPE
  2
DIVIDE
 70
    64
  3
２点鎖線B
 72
    65
 73
     6
 40
1.05
 49
0.55
 49
-0.1
 49
0.1
 49
-0.1
 49
0.1
 49
-0.1
  0
LTYPE
  2
DOT
 70
    64
  3
点線A
 72
    65
 73
     2
 40
0.1125
 49
0.0625
 49
-0.05
  0
LTYPE
  2
DOTX2
 70
    64
  3
点線B
 72
    65
 73
     2
 40
0.275
 49
0.15
 49
-0.125
  0
LTYPE
  2
CONTINUOUS
 70
    64
  3
実線
 72
    65
 73
     0
 40
0.0
  0
LTYPE
  2
CONTINUOUS
 70
    64
  3
実線
 72
    65
 73
     0
 40
0.0
  0
LTYPE
  2
CONTINUOUS
 70
    64
  3
実線
 72
    65
 73
     0
 40
0.0
  0
LTYPE
  2
CONTINUOUS
 70
    64
  3
実線
 72
    65
 73
     0
 40
0.0
  0
LTYPE
  2
CONTINUOUS
 70
    64
  3
実線
 72
    65
 73
     0
 40
0.0
  0
LTYPE
  2
CONTINUOUS
 70
    64
  3
実線
 72
    65
 73
     0
 40
0.0
  0
ENDTAB
  0
TABLE
  2
LAYER
 70
    34
  0
LAYER
  2
通り芯
 70
     0
 62
    15
  6
CONTINUOUS
  0
LAYER
  2
補助線
 70
     0
 62
    16
  6
DOT
  0
LAYER
  2
躯体
 70
     0
 62
    31
  6
CONTINUOUS
  0
LAYER
  2
型材
 70
     0
 62
    32
  6
CONTINUOUS
  0
LAYER
  2
型材断面
 70
     0
 62
    47
  6
CONTINUOUS
  0
LAYER
  2
ガラス
 70
     0
 62
    48
  6
CONTINUOUS
  0
LAYER
  2
ゴム等
 70
     0
 62
    63
  6
CONTINUOUS
  0
LAYER
  2
ボルト／ビス
 70
     0
 62
    64
  6
CONTINUOUS
  0
LAYER
  2
文字
 70
     0
 62
    79
  6
CONTINUOUS
  0
LAYER
  2
寸法
 70
     0
 62
    80
  6
CONTINUOUS
  0
LAYER
  2
ﾊｯﾁﾝｸﾞ
 70
     0
 62
    95
  6
CONTINUOUS
  0
LAYER
  2
別途部材
 70
     0
 62
    96
  6
CONTINUOUS
  0
LAYER
  2
曲げ物
 70
     0
 62
   111
  6
CONTINUOUS
  0
LAYER
  2
鉄骨等
 70
     0
 62
   112
  6
CONTINUOUS
  0
LAYER
  2
St
 70
     0
 62
   127
  6
CONTINUOUS
  0
LAYER
  2
その他部品等
 70
     0
 62
   128
  6
CONTINUOUS
  0
LAYER
  2
ｶﾞｽｹｯﾄ
 70
     0
 62
   143
  6
CONTINUOUS
  0
LAYER
  2
ｽｹｯﾁ
 70
     0
 62
    14
  6
CONTINUOUS
  0
LAYER
  2
0
 70
     0
 62
    17
  6
CONTINUOUS
  0
LAYER
  2
1
 70
     0
 62
    30
  6
CONTINUOUS
  0
LAYER
  2
4
 70
     0
 62
    33
  6
CONTINUOUS
  0
LAYER
  2
ﾚｲﾔ3
 70
     0
 62
    46
  6
CONTINUOUS
  0
LAYER
  2
外形線
 70
     0
 62
    49
  6
CONTINUOUS
  0
LAYER
  2
部品
 70
     0
 62
    14
  6
CONTINUOUS
  0
LAYER
  2
サッシ芯
 70
     0
 62
    17
  6
DASHDOTX2
  0
LAYER
  2
寸法線
 70
     0
 62
    62
  6
CONTINUOUS
  0
LAYER
  2
姿図外形線
 70
     0
 62
    65
  6
CONTINUOUS
  0
LAYER
  2
姿補助線
 70
     0
 62
    30
  6
CONTINUOUS
  0
LAYER
  2
透視線
 70
     0
 62
    78
  6
DOT
  0
LAYER
  2
用紙
 70
     0
 62
    81
  6
CONTINUOUS
  0
LAYER
  2
実線図枠
 70
     0
 62
    94
  6
CONTINUOUS
  0
LAYER
  2
補助図枠
 70
     0
 62
    97
  6
CONTINUOUS
  0
LAYER
  2
建具記号
 70
     0
 62
   110
  6
CONTINUOUS
  0
LAYER
  2
補助文字
 70
     0
 62
   113
  6
CONTINUOUS
  0
ENDTAB
  0
TABLE
  2
STYLE
 70
    10
  0
STYLE
  2
STANDARD
 70
     0
 40
1.0
 41
1.0
 42
1.0
 50
0.0
 71
     0
  3
TXT
  4
BIGFONT
  0
STYLE
  2
TATE
 70
     4
 40
1.0
 41
1.0
 42
1.0
 50
0.0
 71
     0
  3
TXT
  4
BIGFONT
  0
STYLE
  2
TextStyle03
 70
     0
 40
1.0
 41
1.0
 42
1.0
 50
0.0
 71
     0
  3
MONOTXT
  4
BIGFONT
  0
STYLE
  2
TextStyle04
 70
     0
 40
1.0
 41
1.0
 42
1.0
 50
0.0
 71
     0
  3
MONOTXT
  4
BIGFONT
  0
STYLE
  2
TextStyle05
 70
     0
 40
1.0
 41
1.0
 42
1.0
 50
0.0
 71
     0
  3
MONOTXT
  4
BIGFONT
  0
STYLE
  2
TextStyle06
 70
     0
 40
1.0
 41
1.0
 42
1.0
 50
0.0
 71
     0
  3
MONOTXT
  4
BIGFONT
  0
STYLE
  2
TextStyle07
 70
     0
 40
1.0
 41
1.0
 42
1.0
 50
0.0
 71
     0
  3
MONOTXT
  4
BIGFONT
  0
STYLE
  2
TextStyle08
 70
     0
 40
1.0
 41
1.0
 42
1.0
 50
0.0
 71
     0
  3
MONOTXT
  4
BIGFONT
  0
STYLE
  2
TextStyle09
 70
     0
 40
1.0
 41
1.0
 42
1.0
 50
0.0
 71
     0
  3
MONOTXT
  4
BIGFONT
  0
STYLE
  2
TextStyle10
 70
     0
 40
1.0
 41
1.0
 42
1.0
 50
0.0
 71
     0
  3
MONOTXT
  4
BIGFONT
  0
ENDTAB
  0
ENDSEC
  0
SECTION
  2
BLOCKS
  0
BLOCK
  2
*GRP_0001
 70
    65
 10
0.0
 20
0.0
  0
LINE
  8
型材断面
  6
CONTINUOUS
 10
195.0
 20
133.5
 11
195.0
 21
-133.5
  0
LINE
  8
型材断面
  6
CONTINUOUS
 10
195.0
 20
-133.5
 11
-185.0
 21
-133.5
  0
LINE
  8
型材断面
  6
CONTINUOUS
 10
-185.0
 20
-133.5
 11
-185.0
 21
133.5
  0
LINE
  8
型材断面
  6
CONTINUOUS
 10
195.0
 20
133.5
 11
-185.0
 21
133.5
  0
LINE
  8
型材断面
  6
CONTINUOUS
 10
145.0
 20
-133.5
 11
145.0
 21
-118.5
  0
LINE
  8
型材断面
  6
CONTINUOUS
 10
195.0
 20
-118.5
 11
145.0
 21
-118.5
  0
ENDBLK
  0
BLOCK
  2
*DIM_0002
 70
    65
 10
0.0
 20
0.0
  0
LINE
  8
寸法
  6
BYBLOCK
 62
     0
 10
117.489623
 20
-53.785395
 11
125.547912
 21
-53.785395
  0
LINE
  8
寸法
  6
BYBLOCK
 62
     0
 10
117.489623
 20
-83.118728
 11
125.547912
 21
-83.118728
  0
LINE
  8
寸法
  6
BYBLOCK
 62
     0
 10
125.547912
 20
-53.785395
 11
125.547912
 21
-83.118728
  0
POINT
  8
寸法
 62
     0
 10
125.547912
 20
-53.785395
  0
POINT
  8
寸法
 62
     0
 10
125.547912
 20
-83.118728
  0
TEXT
  7
TextStyle03
  8
寸法
  6
CONTINUOUS
 62
     0
 10
125.225
 20
-70.9125
  1
880
 40
3.0
 50
90.0
 72
     5
 11
125.225
 21
-66.0375
  0
ENDBLK
  0
BLOCK
  2
*DIM_0003
 70
    65
 10
0.0
 20
0.0
  0
LINE
  8
寸法
  6
BYBLOCK
 62
     0
 10
-78.596933
 20
-13.511205
 11
-78.596933
 21
-13.121378
  0
LINE
  8
寸法
  6
BYBLOCK
 62
     0
 10
21.403067
 20
-13.121378
 11
-78.596933
 21
-13.121378
  0
POINT
  8
寸法
 62
     0
 10
21.403067
 20
-13.121378
  0
POINT
  8
寸法
 62
     0
 10
-78.596933
 20
-13.121378
  0
TEXT
  7
TextStyle03
  8
寸法
  6
CONTINUOUS
 62
     0
 10
-40.31875
 20
-12.75
  1
呼称寸法　3000
 40
3.0
 72
     5
 11
-16.88125
 21
-12.75
  0
ENDBLK
  0
BLOCK
  2
*DIM_0004
 70
    65
 10
0.0
 20
0.0
  0
LINE
  8
寸法
  6
BYBLOCK
 62
     0
 10
-61.930265
 20
19.183902
 11
-61.930265
 21
14.10329
  0
LINE
  8
寸法
  6
BYBLOCK
 62
     0
 10
4.7364
 20
19.183902
 11
4.7364
 21
14.10329
  0
LINE
  8
寸法
  6
BYBLOCK
 62
     0
 10
-61.930265
 20
14.10329
 11
4.7364
 21
14.10329
  0
POINT
  8
寸法
 62
     0
 10
-61.930265
 20
14.10329
  0
POINT
  8
寸法
 62
     0
 10
4.7364
 20
14.10329
  0
TEXT
  7
TextStyle03
  8
寸法
  6
CONTINUOUS
 62
     0
 10
-31.88125
 20
14.475
  1
2000
 40
3.0
 72
     5
 11
-25.31875
 21
14.475
  0
ENDBLK
  0
BLOCK
  2
*DIM_0005
 70
    65
 10
0.0
 20
0.0
  0
LINE
  8
寸法
  6
BYBLOCK
 62
     0
 10
22.403067
 20
52.814035
 11
32.12735
 21
52.814035
  0
LINE
  8
寸法
  6
BYBLOCK
 62
     0
 10
25.033197
 20
49.114035
 11
32.12735
 21
49.114035
  0
LINE
  8
寸法
  6
BYBLOCK
 62
     0
 10
32.12735
 20
52.814035
 11
32.12735
 21
49.114035
  0
POINT
  8
寸法
 62
     0
 10
32.12735
 20
52.814035
  0
POINT
  8
寸法
 62
     0
 10
32.12735
 20
49.114035
  0
TEXT
  7
TextStyle03
  8
寸法
  6
CONTINUOUS
 62
     0
 10
31.8
 20
53.8125
  1
111
 40
3.0
 50
90.0
 72
     5
 11
31.8
 21
58.6875
  0
ENDBLK
  0
BLOCK
  2
*DIM_0006
 70
    65
 10
0.0
 20
0.0
  0
LINE
  8
寸法
  6
BYBLOCK
 62
     0
 10
22.403067
 20
22.81403
 11
32.12735
 21
22.814027
  0
LINE
  8
寸法
  6
BYBLOCK
 62
     0
 10
25.033197
 20
26.51403
 11
32.12735
 21
26.514027
  0
LINE
  8
寸法
  6
BYBLOCK
 62
     0
 10
32.12735
 20
22.814027
 11
32.12735
 21
26.514027
  0
POINT
  8
寸法
 62
     0
 10
32.12735
 20
22.814027
  0
POINT
  8
寸法
 62
     0
 10
32.12735
 20
26.514027
  0
TEXT
  7
TextStyle03
  8
寸法
  6
CONTINUOUS
 62
     0
 10
31.8
 20
16.9375
  1
111
 40
3.0
 50
90.0
 72
     5
 11
31.8
 21
21.8125
  0
ENDBLK
  0
BLOCK
  2
*DIM_0007
 70
    65
 10
0.0
 20
0.0
  0
LINE
  8
寸法
  6
BYBLOCK
 62
     0
 10
55.422717
 20
22.814033
 11
55.422717
 21
52.814033
  0
POINT
  8
寸法
 62
     0
 10
55.422717
 20
22.814033
  0
POINT
  8
寸法
 62
     0
 10
55.422717
 20
52.814033
  0
TEXT
  7
TextStyle03
  8
寸法
  6
CONTINUOUS
 62
     0
 10
55.1
 20
26.9
  1
呼称寸法　900
 40
3.0
 50
90.0
 72
     5
 11
55.1
 21
48.65
  0
ENDBLK
  0
BLOCK
  2
*DIM_0008
 70
    65
 10
0.0
 20
0.0
  0
LINE
  8
寸法
  6
BYBLOCK
 62
     0
 10
109.313112
 20
54.797365
 11
55.422717
 21
54.797365
  0
LINE
  8
寸法
  6
BYBLOCK
 62
     0
 10
55.422717
 20
52.814033
 11
55.422717
 21
54.797365
  0
POINT
  8
寸法
 62
     0
 10
55.422717
 20
52.814033
  0
POINT
  8
寸法
 62
     0
 10
55.422717
 20
54.797365
  0
TEXT
  7
TextStyle03
  8
寸法
  6
CONTINUOUS
 62
     0
 10
55.025
 20
57.26875
  1
59.5
 40
3.0
 50
90.0
 72
     5
 11
55.025
 21
63.83125
  0
ENDBLK
  0
BLOCK
  2
*DIM_0009
 70
    65
 10
0.0
 20
0.0
  0
LINE
  8
寸法
  6
BYBLOCK
 62
     0
 10
109.313112
 20
20.8307
 11
55.422717
 21
20.8307
  0
LINE
  8
寸法
  6
BYBLOCK
 62
     0
 10
55.422717
 20
22.814033
 11
55.422717
 21
20.8307
  0
POINT
  8
寸法
 62
     0
 10
55.422717
 20
22.814033
  0
POINT
  8
寸法
 62
     0
 10
55.422717
 20
20.8307
  0
TEXT
  7
TextStyle03
  8
寸法
  6
CONTINUOUS
 62
     0
 10
55.025
 20
11.76875
  1
59.5
 40
3.0
 50
90.0
 72
     5
 11
55.025
 21
18.33125
  0
ENDBLK
  0
BLOCK
  2
*DIM_0010
 70
    65
 10
0.0
 20
0.0
  0
LINE
  8
寸法
  6
BYBLOCK
 62
     0
 10
23.3864
 20
-56.919728
 11
23.3864
 21
-13.121378
  0
LINE
  8
寸法
  6
BYBLOCK
 62
     0
 10
21.403067
 20
-13.121378
 11
23.3864
 21
-13.121378
  0
POINT
  8
寸法
 62
     0
 10
21.403067
 20
-13.121378
  0
POINT
  8
寸法
 62
     0
 10
23.3864
 20
-13.121378
  0
TEXT
  7
TextStyle03
  8
寸法
  6
CONTINUOUS
 62
     0
 10
25.84375
 20
-12.75
  1
59.5
 40
3.0
 72
     5
 11
32.40625
 21
-12.75
  0
ENDBLK
  0
BLOCK
  2
*DIM_0011
 70
    65
 10
0.0
 20
0.0
  0
LINE
  8
寸法
  6
BYBLOCK
 62
     0
 10
-80.580265
 20
-56.919728
 11
-80.580265
 21
-13.121378
  0
LINE
  8
寸法
  6
BYBLOCK
 62
     0
 10
-78.596933
 20
-13.121378
 11
-80.580265
 21
-13.121378
  0
POINT
  8
寸法
 62
     0
 10
-78.596933
 20
-13.121378
  0
POINT
  8
寸法
 62
     0
 10
-80.580265
 20
-13.121378
  0
TEXT
  7
TextStyle03
  8
寸法
  6
CONTINUOUS
 62
     0
 10
-89.63125
 20
-12.75
  1
59.5
 40
3.0
 72
     5
 11
-83.06875
 21
-12.75
  0
ENDBLK
  0
BLOCK
  2
*DIM_0012
 70
    65
 10
0.0
 20
0.0
  0
LINE
  8
寸法
  6
BYBLOCK
 62
     0
 10
-81.596933
 20
47.814033
 11
-94.88977
 21
47.814033
  0
LINE
  8
寸法
  6
BYBLOCK
 62
     0
 10
-81.596933
 20
27.814033
 11
-94.88977
 21
27.814033
  0
LINE
  8
寸法
  6
BYBLOCK
 62
     0
 10
-94.88977
 20
47.814033
 11
-94.88977
 21
27.814033
  0
POINT
  8
寸法
 62
     0
 10
-94.88977
 20
47.814033
  0
POINT
  8
寸法
 62
     0
 10
-94.88977
 20
27.814033
  0
TEXT
  7
TextStyle03
  8
寸法
  6
CONTINUOUS
 62
     0
 10
-95.25
 20
35.3625
  1
600
 40
3.0
 50
90.0
 72
     5
 11
-95.25
 21
40.2375
  0
ENDBLK
  0
BLOCK
  2
*DIM_0013
 70
    65
 10
0.0
 20
0.0
  0
LINE
  8
寸法
  6
BYBLOCK
 62
     0
 10
-68.596933
 20
55.814033
 11
-68.596933
 21
84.922105
  0
LINE
  8
寸法
  6
BYBLOCK
 62
     0
 10
-41.930265
 20
55.814033
 11
-41.930265
 21
84.922105
  0
LINE
  8
寸法
  6
BYBLOCK
 62
     0
 10
-68.596933
 20
84.922105
 11
-41.930265
 21
84.922105
  0
POINT
  8
寸法
 62
     0
 10
-68.596933
 20
84.922105
  0
POINT
  8
寸法
 62
     0
 10
-41.930265
 20
84.922105
  0
TEXT
  7
TextStyle03
  8
寸法
  6
CONTINUOUS
 62
     0
 10
-57.7375
 20
85.275
  1
800
 40
3.0
 72
     5
 11
-52.8625
 21
85.275
  0
ENDBLK
  0
BLOCK
  2
*DIM_0014
 70
    65
 10
0.0
 20
0.0
  0
LINE
  8
寸法
  6
BYBLOCK
 62
     0
 10
-15.2636
 20
55.814033
 11
-15.2636
 21
84.922105
  0
LINE
  8
寸法
  6
BYBLOCK
 62
     0
 10
-41.930265
 20
84.922105
 11
-15.2636
 21
84.922105
  0
POINT
  8
寸法
 62
     0
 10
-15.2636
 20
84.922105
  0
TEXT
  7
TextStyle03
  8
寸法
  6
CONTINUOUS
 62
     0
 10
-31.0625
 20
85.275
  1
800
 40
3.0
 72
     5
 11
-26.1875
 21
85.275
  0
ENDBLK
  0
BLOCK
  2
*DIM_0015
 70
    65
 10
0.0
 20
0.0
  0
LINE
  8
寸法
  6
BYBLOCK
 62
     0
 10
11.403067
 20
55.814033
 11
11.403067
 21
84.922105
  0
LINE
  8
寸法
  6
BYBLOCK
 62
     0
 10
-15.2636
 20
84.922105
 11
11.403067
 21
84.922105
  0
POINT
  8
寸法
 62
     0
 10
11.403067
 20
84.922105
  0
TEXT
  7
TextStyle03
  8
寸法
  6
CONTINUOUS
 62
     0
 10
-4.3875
 20
85.275
  1
800
 40
3.0
 72
     5
 11
0.4875
 21
85.275
  0
ENDBLK
  0
BLOCK
  2
*DIM_0016
 70
    65
 10
0.0
 20
0.0
  0
LINE
  8
寸法
  6
CONTINUOUS
 10
109.372862
 20
66.643603
 11
117.022912
 21
66.643603
  0
POINT
  8
寸法
 10
109.372862
 20
66.643603
  0
POINT
  8
寸法
 10
117.022912
 20
66.643603
  0
TEXT
  7
TextStyle03
  8
寸法
  6
CONTINUOUS
 10
109.075
 20
67.0
  1
229.5
 40
3.0
 72
     5
 11
117.325
 21
67.0
  0
ENDBLK
  0
BLOCK
  2
*GRP_0017
 70
    65
 10
0.0
 20
0.0
  0
LINE
  8
補助線
  6
BYBLOCK
 62
    64
 10
-75.199852
 20
-72.135412
 11
-75.327337
 21
-72.242772
  0
LINE
  8
補助線
  6
BYBLOCK
 62
    64
 10
-75.317275
 20
-72.125348
 11
-75.209915
 21
-72.252835
  0
LINE
  8
補助線
  6
BYBLOCK
 62
    64
 10
-66.709435
 20
-64.98539
 11
-66.83692
 21
-65.092745
  0
LINE
  8
補助線
  6
BYBLOCK
 62
    64
 10
-66.826858
 20
-64.975325
 11
-66.719498
 21
-65.102808
  0
LINE
  8
補助線
  6
BYBLOCK
 62
    64
 10
-58.3465
 20
-57.94272
 11
-58.219017
 21
-57.835362
  0
LINE
  8
補助線
  6
BYBLOCK
 62
    64
 10
-58.33644
 20
-57.825298
 11
-58.22908
 21
-57.952785
  0
LINE
  8
型材断面
  6
CONTINUOUS
 10
-76.05535
 20
-71.76639
 11
-76.115727
 21
-72.470915
  0
LINE
  8
型材断面
  6
CONTINUOUS
 10
-76.115727
 20
-72.470915
 11
-75.686295
 21
-72.98085
  0
LINE
  8
型材断面
  6
CONTINUOUS
 10
-75.686295
 20
-72.98085
 11
-74.98177
 21
-73.041227
  0
LINE
  8
型材断面
  6
CONTINUOUS
 10
-58.564582
 20
-57.03691
 11
-57.860058
 21
-57.097288
  0
LINE
  8
型材断面
  6
CONTINUOUS
 10
-57.860058
 20
-57.097288
 11
-57.430625
 21
-57.607222
  0
LINE
  8
型材断面
  6
CONTINUOUS
 10
-57.430625
 20
-57.607222
 11
-57.491003
 21
-58.311748
  0
LINE
  8
型材断面
  6
CONTINUOUS
 10
-76.05535
 20
-71.76639
 11
-58.564582
 21
-57.03691
  0
LINE
  8
型材断面
  6
CONTINUOUS
 10
-74.98177
 20
-73.041227
 11
-57.491003
 21
-58.311748
  0
CIRCLE
  8
ボルト／ビス
  6
CONTINUOUS
 10
-75.263595
 20
-72.189092
 40
0.250185
  0
CIRCLE
  8
ボルト／ビス
  6
CONTINUOUS
 10
-75.263595
 20
-72.189092
 40
0.301025
  0
LINE
  8
ボルト／ビス
  6
CONTINUOUS
 62
    64
 10
-75.509903
 20
-72.232975
 11
-75.42475
 21
-71.997728
  0
LINE
  8
ボルト／ビス
  6
CONTINUOUS
 62
    64
 10
-75.178442
 20
-71.953842
 11
-75.42475
 21
-71.997728
  0
LINE
  8
ボルト／ビス
  6
CONTINUOUS
 62
    64
 10
-75.348747
 20
-72.424342
 11
-75.10244
 21
-72.380458
  0
LINE
  8
ボルト／ビス
  6
CONTINUOUS
 62
    64
 10
-75.017288
 20
-72.14521
 11
-75.10244
 21
-72.380458
  0
LINE
  8
ボルト／ビス
  6
CONTINUOUS
 62
    64
 10
-75.509903
 20
-72.232975
 11
-75.348747
 21
-72.424342
  0
LINE
  8
ボルト／ビス
  6
CONTINUOUS
 62
    64
 10
-75.178442
 20
-71.953842
 11
-75.017288
 21
-72.14521
  0
CIRCLE
  8
ボルト／ビス
  6
CONTINUOUS
 62
    64
 10
-75.263595
 20
-72.189092
 40
0.216668
  0
CIRCLE
  8
ボルト／ビス
  6
CONTINUOUS
 10
-66.773178
 20
-65.039067
 40
0.250185
  0
CIRCLE
  8
ボルト／ビス
  6
CONTINUOUS
 10
-66.773178
 20
-65.039067
 40
0.301025
  0
LINE
  8
ボルト／ビス
  6
CONTINUOUS
 62
    64
 10
-67.019485
 20
-65.08295
 11
-66.934332
 21
-64.8477
  0
LINE
  8
ボルト／ビス
  6
CONTINUOUS
 62
    64
 10
-66.688025
 20
-64.803817
 11
-66.934332
 21
-64.8477
  0
LINE
  8
ボルト／ビス
  6
CONTINUOUS
 62
    64
 10
-66.85833
 20
-65.274317
 11
-66.61202
 21
-65.230435
  0
LINE
  8
ボルト／ビス
  6
CONTINUOUS
 62
    64
 10
-66.52687
 20
-64.995187
 11
-66.61202
 21
-65.230435
  0
LINE
  8
ボルト／ビス
  6
CONTINUOUS
 62
    64
 10
-67.019485
 20
-65.08295
 11
-66.85833
 21
-65.274317
  0
LINE
  8
ボルト／ビス
  6
CONTINUOUS
 62
    64
 10
-66.688025
 20
-64.803817
 11
-66.52687
 21
-64.995187
  0
CIRCLE
  8
ボルト／ビス
  6
CONTINUOUS
 62
    64
 10
-66.773178
 20
-65.039067
 40
0.216668
  0
CIRCLE
  8
ボルト／ビス
  6
CONTINUOUS
 10
-58.282758
 20
-57.889042
 40
0.250185
  0
CIRCLE
  8
ボルト／ビス
  6
CONTINUOUS
 10
-58.282758
 20
-57.889042
 40
0.301025
  0
LINE
  8
ボルト／ビス
  6
CONTINUOUS
 62
    64
 10
-58.197605
 20
-57.653792
 11
-58.443915
 21
-57.697678
  0
LINE
  8
ボルト／ビス
  6
CONTINUOUS
 62
    64
 10
-58.529068
 20
-57.932925
 11
-58.443915
 21
-57.697678
  0
LINE
  8
ボルト／ビス
  6
CONTINUOUS
 62
    64
 10
-58.036452
 20
-57.84516
 11
-58.121602
 21
-58.080408
  0
LINE
  8
ボルト／ビス
  6
CONTINUOUS
 62
    64
 10
-58.367912
 20
-58.124292
 11
-58.121602
 21
-58.080408
  0
LINE
  8
ボルト／ビス
  6
CONTINUOUS
 62
    64
 10
-58.197605
 20
-57.653792
 11
-58.036452
 21
-57.84516
  0
LINE
  8
ボルト／ビス
  6
CONTINUOUS
 62
    64
 10
-58.529068
 20
-57.932925
 11
-58.367912
 21
-58.124292
  0
CIRCLE
  8
ボルト／ビス
  6
CONTINUOUS
 62
    64
 10
-58.282758
 20
-57.889042
 40
0.216668
  0
ENDBLK
  0
BLOCK
  2
*GRP_0018
 70
    65
 10
0.0
 20
0.0
  0
LINE
  8
補助線
  6
BYBLOCK
 62
    64
 10
-58.346503
 20
-72.135412
 11
-58.219017
 21
-72.242772
  0
LINE
  8
補助線
  6
BYBLOCK
 62
    64
 10
-58.22908
 20
-72.125348
 11
-58.33644
 21
-72.252835
  0
LINE
  8
補助線
  6
BYBLOCK
 62
    64
 10
-66.83692
 20
-64.98539
 11
-66.709435
 21
-65.092745
  0
LINE
  8
補助線
  6
BYBLOCK
 62
    64
 10
-66.719498
 20
-64.975325
 11
-66.826858
 21
-65.102808
  0
LINE
  8
補助線
  6
BYBLOCK
 62
    64
 10
-75.199855
 20
-57.94272
 11
-75.327337
 21
-57.835362
  0
LINE
  8
補助線
  6
BYBLOCK
 62
    64
 10
-75.209915
 20
-57.825298
 11
-75.317275
 21
-57.952785
  0
LINE
  8
型材断面
  6
CONTINUOUS
 10
-57.491005
 20
-71.76639
 11
-57.430627
 21
-72.470915
  0
LINE
  8
型材断面
  6
CONTINUOUS
 10
-57.430627
 20
-72.470915
 11
-57.86006
 21
-72.98085
  0
LINE
  8
型材断面
  6
CONTINUOUS
 10
-57.86006
 20
-72.98085
 11
-58.564585
 21
-73.041227
  0
LINE
  8
型材断面
  6
CONTINUOUS
 10
-74.981772
 20
-57.03691
 11
-75.686297
 21
-57.097288
  0
LINE
  8
型材断面
  6
CONTINUOUS
 10
-75.686297
 20
-57.097288
 11
-76.11573
 21
-57.607222
  0
LINE
  8
型材断面
  6
CONTINUOUS
 10
-76.11573
 20
-57.607222
 11
-76.055353
 21
-58.311748
  0
LINE
  8
型材断面
  6
CONTINUOUS
 10
-57.491005
 20
-71.76639
 11
-74.981772
 21
-57.03691
  0
LINE
  8
型材断面
  6
CONTINUOUS
 10
-58.564585
 20
-73.041227
 11
-76.055353
 21
-58.311748
  0
CIRCLE
  8
ボルト／ビス
  6
CONTINUOUS
 10
-58.28276
 20
-72.189092
 40
0.250185
  0
CIRCLE
  8
ボルト／ビス
  6
CONTINUOUS
 10
-58.28276
 20
-72.189092
 40
0.301025
  0
LINE
  8
ボルト／ビス
  6
CONTINUOUS
 62
    64
 10
-58.036452
 20
-72.232975
 11
-58.121605
 21
-71.997728
  0
LINE
  8
ボルト／ビス
  6
CONTINUOUS
 62
    64
 10
-58.367912
 20
-71.953842
 11
-58.121605
 21
-71.997728
  0
LINE
  8
ボルト／ビス
  6
CONTINUOUS
 62
    64
 10
-58.197607
 20
-72.424342
 11
-58.443915
 21
-72.380458
  0
LINE
  8
ボルト／ビス
  6
CONTINUOUS
 62
    64
 10
-58.529068
 20
-72.14521
 11
-58.443915
 21
-72.380458
  0
LINE
  8
ボルト／ビス
  6
CONTINUOUS
 62
    64
 10
-58.036452
 20
-72.232975
 11
-58.197607
 21
-72.424342
  0
LINE
  8
ボルト／ビス
  6
CONTINUOUS
 62
    64
 10
-58.367912
 20
-71.953842
 11
-58.529068
 21
-72.14521
  0
CIRCLE
  8
ボルト／ビス
  6
CONTINUOUS
 62
    64
 10
-58.28276
 20
-72.189092
 40
0.216668
  0
CIRCLE
  8
ボルト／ビス
  6
CONTINUOUS
 10
-66.773178
 20
-65.039067
 40
0.250185
  0
CIRCLE
  8
ボルト／ビス
  6
CONTINUOUS
 10
-66.773178
 20
-65.039067
 40
0.301025
  0
LINE
  8
ボルト／ビス
  6
CONTINUOUS
 62
    64
 10
-66.52687
 20
-65.08295
 11
-66.612022
 21
-64.8477
  0
LINE
  8
ボルト／ビス
  6
CONTINUOUS
 62
    64
 10
-66.85833
 20
-64.803817
 11
-66.612022
 21
-64.8477
  0
LINE
  8
ボルト／ビス
  6
CONTINUOUS
 62
    64
 10
-66.688025
 20
-65.274317
 11
-66.934335
 21
-65.230435
  0
LINE
  8
ボルト／ビス
  6
CONTINUOUS
 62
    64
 10
-67.019485
 20
-64.995187
 11
-66.934335
 21
-65.230435
  0
LINE
  8
ボルト／ビス
  6
CONTINUOUS
 62
    64
 10
-66.52687
 20
-65.08295
 11
-66.688025
 21
-65.274317
  0
LINE
  8
ボルト／ビス
  6
CONTINUOUS
 62
    64
 10
-66.85833
 20
-64.803817
 11
-67.019485
 21
-64.995187
  0
CIRCLE
  8
ボルト／ビス
  6
CONTINUOUS
 62
    64
 10
-66.773178
 20
-65.039067
 40
0.216668
  0
CIRCLE
  8
ボルト／ビス
  6
CONTINUOUS
 10
-75.263598
 20
-57.889042
 40
0.250185
  0
CIRCLE
  8
ボルト／ビス
  6
CONTINUOUS
 10
-75.263598
 20
-57.889042
 40
0.301025
  0
LINE
  8
ボルト／ビス
  6
CONTINUOUS
 62
    64
 10
-75.34875
 20
-57.653792
 11
-75.10244
 21
-57.697678
  0
LINE
  8
ボルト／ビス
  6
CONTINUOUS
 62
    64
 10
-75.017288
 20
-57.932925
 11
-75.10244
 21
-57.697678
  0
LINE
  8
ボルト／ビス
  6
CONTINUOUS
 62
    64
 10
-75.509903
 20
-57.84516
 11
-75.424752
 21
-58.080408
  0
LINE
  8
ボルト／ビス
  6
CONTINUOUS
 62
    64
 10
-75.178442
 20
-58.124292
 11
-75.424752
 21
-58.080408
  0
LINE
  8
ボルト／ビス
  6
CONTINUOUS
 62
    64
 10
-75.34875
 20
-57.653792
 11
-75.509903
 21
-57.84516
  0
LINE
  8
ボルト／ビス
  6
CONTINUOUS
 62
    64
 10
-75.017288
 20
-57.932925
 11
-75.178442
 21
-58.124292
  0
CIRCLE
  8
ボルト／ビス
  6
CONTINUOUS
 62
    64
 10
-75.263598
 20
-57.889042
 40
0.216668
  0
ENDBLK
  0
BLOCK
  2
*GRP_0019
 70
    65
 10
0.0
 20
0.0
  0
LINE
  8
補助線
  6
BYBLOCK
 62
    64
 10
18.005998
 20
-72.135412
 11
18.133482
 21
-72.242772
  0
LINE
  8
補助線
  6
BYBLOCK
 62
    64
 10
18.12342
 20
-72.125348
 11
18.01606
 21
-72.252835
  0
LINE
  8
補助線
  6
BYBLOCK
 62
    64
 10
9.51558
 20
-64.98539
 11
9.643065
 21
-65.092745
  0
LINE
  8
補助線
  6
BYBLOCK
 62
    64
 10
9.633002
 20
-64.975325
 11
9.525642
 21
-65.102808
  0
LINE
  8
補助線
  6
BYBLOCK
 62
    64
 10
1.152645
 20
-57.94272
 11
1.025163
 21
-57.835362
  0
LINE
  8
補助線
  6
BYBLOCK
 62
    64
 10
1.142585
 20
-57.825298
 11
1.035225
 21
-57.952785
  0
LINE
  8
型材断面
  6
CONTINUOUS
 10
18.861495
 20
-71.76639
 11
18.921873
 21
-72.470915
  0
LINE
  8
型材断面
  6
CONTINUOUS
 10
18.921873
 20
-72.470915
 11
18.49244
 21
-72.98085
  0
LINE
  8
型材断面
  6
CONTINUOUS
 10
18.49244
 20
-72.98085
 11
17.787915
 21
-73.041227
  0
LINE
  8
型材断面
  6
CONTINUOUS
 10
1.370728
 20
-57.03691
 11
0.666202
 21
-57.097288
  0
LINE
  8
型材断面
  6
CONTINUOUS
 10
0.666202
 20
-57.097288
 11
0.23677
 21
-57.607222
  0
LINE
  8
型材断面
  6
CONTINUOUS
 10
0.23677
 20
-57.607222
 11
0.297148
 21
-58.311748
  0
LINE
  8
型材断面
  6
CONTINUOUS
 10
18.861495
 20
-71.76639
 11
1.370728
 21
-57.03691
  0
LINE
  8
型材断面
  6
CONTINUOUS
 10
17.787915
 20
-73.041227
 11
0.297148
 21
-58.311748
  0
CIRCLE
  8
ボルト／ビス
  6
CONTINUOUS
 10
18.06974
 20
-72.189092
 40
0.250185
  0
CIRCLE
  8
ボルト／ビス
  6
CONTINUOUS
 10
18.06974
 20
-72.189092
 40
0.301025
  0
LINE
  8
ボルト／ビス
  6
CONTINUOUS
 62
    64
 10
18.316048
 20
-72.232975
 11
18.230895
 21
-71.997728
  0
LINE
  8
ボルト／ビス
  6
CONTINUOUS
 62
    64
 10
17.984588
 20
-71.953842
 11
18.230895
 21
-71.997728
  0
LINE
  8
ボルト／ビス
  6
CONTINUOUS
 62
    64
 10
18.154892
 20
-72.424342
 11
17.908585
 21
-72.380458
  0
LINE
  8
ボルト／ビス
  6
CONTINUOUS
 62
    64
 10
17.823432
 20
-72.14521
 11
17.908585
 21
-72.380458
  0
LINE
  8
ボルト／ビス
  6
CONTINUOUS
 62
    64
 10
18.316048
 20
-72.232975
 11
18.154892
 21
-72.424342
  0
LINE
  8
ボルト／ビス
  6
CONTINUOUS
 62
    64
 10
17.984588
 20
-71.953842
 11
17.823432
 21
-72.14521
  0
CIRCLE
  8
ボルト／ビス
  6
CONTINUOUS
 62
    64
 10
18.06974
 20
-72.189092
 40
0.216668
  0
CIRCLE
  8
ボルト／ビス
  6
CONTINUOUS
 10
9.579322
 20
-65.039067
 40
0.250185
  0
CIRCLE
  8
ボルト／ビス
  6
CONTINUOUS
 10
9.579322
 20
-65.039067
 40
0.301025
  0
LINE
  8
ボルト／ビス
  6
CONTINUOUS
 62
    64
 10
9.82563
 20
-65.08295
 11
9.740478
 21
-64.8477
  0
LINE
  8
ボルト／ビス
  6
CONTINUOUS
 62
    64
 10
9.49417
 20
-64.803817
 11
9.740478
 21
-64.8477
  0
LINE
  8
ボルト／ビス
  6
CONTINUOUS
 62
    64
 10
9.664475
 20
-65.274317
 11
9.418165
 21
-65.230435
  0
LINE
  8
ボルト／ビス
  6
CONTINUOUS
 62
    64
 10
9.333015
 20
-64.995187
 11
9.418165
 21
-65.230435
  0
LINE
  8
ボルト／ビス
  6
CONTINUOUS
 62
    64
 10
9.82563
 20
-65.08295
 11
9.664475
 21
-65.274317
  0
LINE
  8
ボルト／ビス
  6
CONTINUOUS
 62
    64
 10
9.49417
 20
-64.803817
 11
9.333015
 21
-64.995187
  0
CIRCLE
  8
ボルト／ビス
  6
CONTINUOUS
 62
    64
 10
9.579322
 20
-65.039067
 40
0.216668
  0
CIRCLE
  8
ボルト／ビス
  6
CONTINUOUS
 10
1.088903
 20
-57.889042
 40
0.250185
  0
CIRCLE
  8
ボルト／ビス
  6
CONTINUOUS
 10
1.088903
 20
-57.889042
 40
0.301025
  0
LINE
  8
ボルト／ビス
  6
CONTINUOUS
 62
    64
 10
1.00375
 20
-57.653792
 11
1.25006
 21
-57.697678
  0
LINE
  8
ボルト／ビス
  6
CONTINUOUS
 62
    64
 10
1.335212
 20
-57.932925
 11
1.25006
 21
-57.697678
  0
LINE
  8
ボルト／ビス
  6
CONTINUOUS
 62
    64
 10
0.842598
 20
-57.84516
 11
0.927748
 21
-58.080408
  0
LINE
  8
ボルト／ビス
  6
CONTINUOUS
 62
    64
 10
1.174057
 20
-58.124292
 11
0.927748
 21
-58.080408
  0
LINE
  8
ボルト／ビス
  6
CONTINUOUS
 62
    64
 10
1.00375
 20
-57.653792
 11
0.842598
 21
-57.84516
  0
LINE
  8
ボルト／ビス
  6
CONTINUOUS
 62
    64
 10
1.335212
 20
-57.932925
 11
1.174057
 21
-58.124292
  0
CIRCLE
  8
ボルト／ビス
  6
CONTINUOUS
 62
    64
 10
1.088903
 20
-57.889042
 40
0.216668
  0
ENDBLK
  0
BLOCK
  2
*GRP_0020
 70
    65
 10
0.0
 20
0.0
  0
LINE
  8
補助線
  6
BYBLOCK
 62
    64
 10
1.152648
 20
-72.135412
 11
1.025163
 21
-72.242772
  0
LINE
  8
補助線
  6
BYBLOCK
 62
    64
 10
1.035225
 20
-72.125348
 11
1.142585
 21
-72.252835
  0
LINE
  8
補助線
  6
BYBLOCK
 62
    64
 10
9.643065
 20
-64.98539
 11
9.51558
 21
-65.092745
  0
LINE
  8
補助線
  6
BYBLOCK
 62
    64
 10
9.525642
 20
-64.975325
 11
9.633002
 21
-65.102808
  0
LINE
  8
補助線
  6
BYBLOCK
 62
    64
 10
18.006
 20
-57.94272
 11
18.133482
 21
-57.835362
  0
LINE
  8
補助線
  6
BYBLOCK
 62
    64
 10
18.01606
 20
-57.825298
 11
18.12342
 21
-57.952785
  0
LINE
  8
型材断面
  6
CONTINUOUS
 10
0.29715
 20
-71.76639
 11
0.236773
 21
-72.470915
  0
LINE
  8
型材断面
  6
CONTINUOUS
 10
0.236773
 20
-72.470915
 11
0.666205
 21
-72.98085
  0
LINE
  8
型材断面
  6
CONTINUOUS
 10
0.666205
 20
-72.98085
 11
1.37073
 21
-73.041227
  0
LINE
  8
型材断面
  6
CONTINUOUS
 10
17.787918
 20
-57.03691
 11
18.492442
 21
-57.097288
  0
LINE
  8
型材断面
  6
CONTINUOUS
 10
18.492442
 20
-57.097288
 11
18.921875
 21
-57.607222
  0
LINE
  8
型材断面
  6
CONTINUOUS
 10
18.921875
 20
-57.607222
 11
18.861498
 21
-58.311748
  0
LINE
  8
型材断面
  6
CONTINUOUS
 10
0.29715
 20
-71.76639
 11
17.787918
 21
-57.03691
  0
LINE
  8
型材断面
  6
CONTINUOUS
 10
1.37073
 20
-73.041227
 11
18.861498
 21
-58.311748
  0
CIRCLE
  8
ボルト／ビス
  6
CONTINUOUS
 10
1.088905
 20
-72.189092
 40
0.250185
  0
CIRCLE
  8
ボルト／ビス
  6
CONTINUOUS
 10
1.088905
 20
-72.189092
 40
0.301025
  0
LINE
  8
ボルト／ビス
  6
CONTINUOUS
 62
    64
 10
0.842598
 20
-72.232975
 11
0.92775
 21
-71.997728
  0
LINE
  8
ボルト／ビス
  6
CONTINUOUS
 62
    64
 10
1.174057
 20
-71.953842
 11
0.92775
 21
-71.997728
  0
LINE
  8
ボルト／ビス
  6
CONTINUOUS
 62
    64
 10
1.003752
 20
-72.424342
 11
1.25006
 21
-72.380458
  0
LINE
  8
ボルト／ビス
  6
CONTINUOUS
 62
    64
 10
1.335212
 20
-72.14521
 11
1.25006
 21
-72.380458
  0
LINE
  8
ボルト／ビス
  6
CONTINUOUS
 62
    64
 10
0.842598
 20
-72.232975
 11
1.003752
 21
-72.424342
  0
LINE
  8
ボルト／ビス
  6
CONTINUOUS
 62
    64
 10
1.174057
 20
-71.953842
 11
1.335212
 21
-72.14521
  0
CIRCLE
  8
ボルト／ビス
  6
CONTINUOUS
 62
    64
 10
1.088905
 20
-72.189092
 40
0.216668
  0
CIRCLE
  8
ボルト／ビス
  6
CONTINUOUS
 10
9.579322
 20
-65.039067
 40
0.250185
  0
CIRCLE
  8
ボルト／ビス
  6
CONTINUOUS
 10
9.579322
 20
-65.039067
 40
0.301025
  0
LINE
  8
ボルト／ビス
  6
CONTINUOUS
 62
    64
 10
9.333015
 20
-65.08295
 11
9.418167
 21
-64.8477
  0
LINE
  8
ボルト／ビス
  6
CONTINUOUS
 62
    64
 10
9.664475
 20
-64.803817
 11
9.418167
 21
-64.8477
  0
LINE
  8
ボルト／ビス
  6
CONTINUOUS
 62
    64
 10
9.49417
 20
-65.274317
 11
9.74048
 21
-65.230435
  0
LINE
  8
ボルト／ビス
  6
CONTINUOUS
 62
    64
 10
9.82563
 20
-64.995187
 11
9.74048
 21
-65.230435
  0
LINE
  8
ボルト／ビス
  6
CONTINUOUS
 62
    64
 10
9.333015
 20
-65.08295
 11
9.49417
 21
-65.274317
  0
LINE
  8
ボルト／ビス
  6
CONTINUOUS
 62
    64
 10
9.664475
 20
-64.803817
 11
9.82563
 21
-64.995187
  0
CIRCLE
  8
ボルト／ビス
  6
CONTINUOUS
 62
    64
 10
9.579322
 20
-65.039067
 40
0.216668
  0
CIRCLE
  8
ボルト／ビス
  6
CONTINUOUS
 10
18.069743
 20
-57.889042
 40
0.250185
  0
CIRCLE
  8
ボルト／ビス
  6
CONTINUOUS
 10
18.069743
 20
-57.889042
 40
0.301025
  0
LINE
  8
ボルト／ビス
  6
CONTINUOUS
 62
    64
 10
18.154895
 20
-57.653792
 11
17.908585
 21
-57.697678
  0
LINE
  8
ボルト／ビス
  6
CONTINUOUS
 62
    64
 10
17.823432
 20
-57.932925
 11
17.908585
 21
-57.697678
  0
LINE
  8
ボルト／ビス
  6
CONTINUOUS
 62
    64
 10
18.316048
 20
-57.84516
 11
18.230897
 21
-58.080408
  0
LINE
  8
ボルト／ビス
  6
CONTINUOUS
 62
    64
 10
17.984588
 20
-58.124292
 11
18.230897
 21
-58.080408
  0
LINE
  8
ボルト／ビス
  6
CONTINUOUS
 62
    64
 10
18.154895
 20
-57.653792
 11
18.316048
 21
-57.84516
  0
LINE
  8
ボルト／ビス
  6
CONTINUOUS
 62
    64
 10
17.823432
 20
-57.932925
 11
17.984588
 21
-58.124292
  0
CIRCLE
  8
ボルト／ビス
  6
CONTINUOUS
 62
    64
 10
18.069743
 20
-57.889042
 40
0.216668
  0
ENDBLK
  0
BLOCK
  2
*DIM_0021
 70
    65
 10
0.0
 20
0.0
  0
LINE
  8
寸法
  6
CONTINUOUS
 10
34.638313
 20
-66.612375
 11
34.638313
 21
-74.262425
  0
POINT
  8
寸法
 10
34.638313
 20
-66.612375
  0
POINT
  8
寸法
 10
34.638313
 20
-74.262425
  0
TEXT
  7
TextStyle03
  8
寸法
  6
CONTINUOUS
 10
38.65
 20
-74.35
  1
229.5
 40
3.0
 50
90.0
 72
     5
 11
38.65
 21
-66.1
  0
ENDBLK
  0
BLOCK
  2
*DIM_0022
 70
    65
 10
0.0
 20
0.0
  0
LINE
  8
寸法
  6
CONTINUOUS
 10
116.489623
 20
-44.57336
 11
84.15629
 21
-44.57336
  0
POINT
  8
寸法
 10
116.489623
 20
-44.57336
  0
POINT
  8
寸法
 10
84.15629
 20
-44.57336
  0
TEXT
  7
TextStyle03
  8
寸法
  6
CONTINUOUS
 10
97.8625
 20
-44.25
  1
970
 40
3.0
 72
     5
 11
102.7375
 21
-44.25
  0
ENDBLK
  0
BLOCK
  2
*DIM_0023
 70
    65
 10
0.0
 20
0.0
  0
LINE
  8
寸法
  6
BYBLOCK
 62
     0
 10
34.638313
 20
-66.612375
 11
34.638313
 21
-56.612375
  0
POINT
  8
寸法
 62
     0
 10
34.638313
 20
-66.612375
  0
POINT
  8
寸法
 62
     0
 10
34.638313
 20
-56.612375
  0
TEXT
  7
TextStyle03
  8
寸法
  6
CONTINUOUS
 62
     0
 10
34.8
 20
-54.01875
  1
上昇282以上
 40
3.0
 50
90.0
 72
     5
 11
34.8
 21
-35.83125
  0
ENDBLK
  0
ENDSEC
  0
SECTION
  2
ENTITIES
  0
POLYLINE
  8
通り芯
  6
CONTINUOUS
 66
     1
 70
     1
  0
VERTEX
  8
通り芯
 10
-210.0
 20
-148.5
  0
VERTEX
  8
通り芯
 10
210.0
 20
-148.5
  0
VERTEX
  8
通り芯
 10
210.0
 20
148.5
  0
VERTEX
  8
通り芯
 10
-210.0
 20
148.5
  0
SEQEND
  0
INSERT
  2
*GRP_0001
  8
型材断面
  6
CONTINUOUS
 10
0.0
 20
0.0
  0
LINE
  8
型材断面
  6
DASHDOT
 10
21.403067
 20
-77.836442
 11
21.403067
 21
52.814033
  0
LINE
  8
型材断面
  6
DASHDOT
 10
-28.596933
 20
-77.836442
 11
-28.596933
 21
52.814033
  0
LINE
  8
型材断面
  6
DASHDOT
 10
-78.596933
 20
-77.836442
 11
-78.596933
 21
52.814033
  0
LINE
  8
型材断面
  6
DASHDOT
 10
119.07983
 20
52.814033
 11
-78.596933
 21
52.814033
  0
LINE
  8
型材断面
  6
DASHDOT
 10
119.07983
 20
37.814033
 11
-78.596933
 21
37.814033
  0
LINE
  8
型材断面
  6
DASHDOT
 10
119.07983
 20
22.814033
 11
-78.596933
 21
22.814033
  0
POLYLINE
  8
型材断面
  6
CONTINUOUS
 66
     1
 70
     1
  0
VERTEX
  8
型材断面
 10
-19.131995
 20
13.03811
  0
VERTEX
  8
型材断面
 10
-37.903925
 20
13.03811
  0
VERTEX
  8
型材断面
 10
-37.903925
 20
8.301267
  0
VERTEX
  8
型材断面
 10
-19.131995
 20
8.301267
  0
SEQEND
  0
POLYLINE
  8
型材断面
  6
CONTINUOUS
 66
     1
 70
     1
  0
VERTEX
  8
型材断面
 10
-19.131995
 20
62.589955
  0
VERTEX
  8
型材断面
 10
-37.903925
 20
62.589955
  0
VERTEX
  8
型材断面
 10
-37.903925
 20
67.326798
  0
VERTEX
  8
型材断面
 10
-19.131995
 20
67.326798
  0
SEQEND
  0
LINE
  8
型材断面
  6
CONTINUOUS
 10
-61.930265
 20
55.444162
 11
-63.425895
 21
58.03467
  0
LINE
  8
型材断面
  6
CONTINUOUS
 10
-61.930265
 20
55.444162
 11
-60.434635
 21
58.03467
  0
LINE
  8
型材断面
  6
CONTINUOUS
 10
-60.434635
 20
58.03467
 11
-63.425895
 21
58.03467
  0
LINE
  8
型材断面
  6
CONTINUOUS
 10
-81.227063
 20
37.814033
 11
-83.81757
 21
39.309663
  0
LINE
  8
型材断面
  6
CONTINUOUS
 10
-81.227063
 20
37.814033
 11
-83.81757
 21
36.318403
  0
LINE
  8
型材断面
  6
CONTINUOUS
 10
-83.81757
 20
36.318403
 11
-83.81757
 21
39.309663
  0
LINE
  8
型材断面
  6
CONTINUOUS
 10
-61.930265
 20
20.183902
 11
-63.425895
 21
17.593395
  0
LINE
  8
型材断面
  6
CONTINUOUS
 10
-61.930265
 20
20.183902
 11
-60.434635
 21
17.593395
  0
LINE
  8
型材断面
  6
CONTINUOUS
 10
-60.434635
 20
17.593395
 11
-63.425895
 21
17.593395
  0
LINE
  8
型材断面
  6
CONTINUOUS
 10
-132.475455
 20
90.791505
 11
-131.8794
 21
88.200998
  0
LINE
  8
型材断面
  6
CONTINUOUS
 10
-132.475455
 20
90.791505
 11
-133.071512
 21
88.200998
  0
LINE
  8
型材断面
  6
CONTINUOUS
 10
-133.071512
 20
88.200998
 11
-131.8794
 21
88.200998
  0
LINE
  8
型材断面
  6
CONTINUOUS
 10
-138.498042
 20
84.922105
 11
-92.256265
 21
84.922105
  0
LINE
  8
型材断面
  6
CONTINUOUS
 10
-132.475455
 20
97.32138
 11
-133.971085
 21
94.730873
  0
LINE
  8
型材断面
  6
CONTINUOUS
 10
-132.475455
 20
97.32138
 11
-130.979825
 21
94.730873
  0
LINE
  8
型材断面
  6
CONTINUOUS
 10
-130.979825
 20
94.730873
 11
-133.971085
 21
94.730873
  0
LINE
  8
型材断面
  6
CONTINUOUS
 10
-138.498042
 20
93.792277
 11
-92.256265
 21
93.792277
  0
LINE
  8
型材断面
  6
CONTINUOUS
 10
-138.498042
 20
79.134073
 11
-92.256265
 21
79.134073
  0
LINE
  8
型材断面
  6
CONTINUOUS
 10
4.7364
 20
55.444162
 11
6.23203
 21
58.03467
  0
LINE
  8
型材断面
  6
CONTINUOUS
 10
4.7364
 20
55.444162
 11
3.24077
 21
58.03467
  0
LINE
  8
型材断面
  6
CONTINUOUS
 10
3.24077
 20
58.03467
 11
6.23203
 21
58.03467
  0
LINE
  8
型材断面
  6
CONTINUOUS
 10
4.7364
 20
20.183902
 11
6.23203
 21
17.593395
  0
LINE
  8
型材断面
  6
CONTINUOUS
 10
4.7364
 20
20.183902
 11
3.24077
 21
17.593395
  0
LINE
  8
型材断面
  6
CONTINUOUS
 10
3.24077
 20
17.593395
 11
6.23203
 21
17.593395
  0
LINE
  8
型材断面
  6
CONTINUOUS
 10
24.033197
 20
49.114035
 11
26.623707
 21
48.517982
  0
LINE
  8
型材断面
  6
CONTINUOUS
 10
24.033197
 20
49.114035
 11
26.623705
 21
49.710095
  0
LINE
  8
型材断面
  6
CONTINUOUS
 10
26.623705
 20
49.710095
 11
26.623707
 21
48.517982
  0
LINE
  8
型材断面
  6
CONTINUOUS
 10
24.033197
 20
26.51403
 11
26.623707
 21
27.110082
  0
LINE
  8
型材断面
  6
CONTINUOUS
 10
24.033197
 20
26.51403
 11
26.623705
 21
25.91797
  0
LINE
  8
型材断面
  6
CONTINUOUS
 10
26.623705
 20
25.91797
 11
26.623707
 21
27.110082
  0
LINE
  8
型材断面
  6
CONTINUOUS
 10
-81.227063
 20
49.114035
 11
-83.817573
 21
48.517982
  0
LINE
  8
型材断面
  6
CONTINUOUS
 10
-81.227063
 20
49.114035
 11
-83.81757
 21
49.710095
  0
LINE
  8
型材断面
  6
CONTINUOUS
 10
-83.81757
 20
49.710095
 11
-83.817573
 21
48.517982
  0
LINE
  8
型材断面
  6
CONTINUOUS
 10
-81.227063
 20
26.51403
 11
-83.817573
 21
27.110082
  0
LINE
  8
型材断面
  6
CONTINUOUS
 10
-81.227063
 20
26.51403
 11
-83.81757
 21
25.91797
  0
LINE
  8
型材断面
  6
CONTINUOUS
 10
-83.81757
 20
25.91797
 11
-83.817573
 21
27.110082
  0
LINE
  8
型材断面
  6
CONTINUOUS
 10
-80.580117
 20
20.830853
 11
-28.596933
 21
20.830853
  0
LINE
  8
型材断面
  6
CONTINUOUS
 10
23.386253
 20
20.830853
 11
-28.596933
 21
20.830853
  0
LINE
  8
型材断面
  6
CONTINUOUS
 10
23.386253
 20
54.797213
 11
-28.596933
 21
54.797213
  0
LINE
  8
型材断面
  6
CONTINUOUS
 10
-80.580117
 20
54.797213
 11
-28.596933
 21
54.797213
  0
LINE
  8
型材断面
  6
CONTINUOUS
 10
-138.498042
 20
73.34604
 11
-92.256265
 21
73.34604
  0
ARC
  8
型材断面
  6
CONTINUOUS
 62
    47
 10
113.489525
 20
20.830696
 40
0.016668
 50
179.999123
 51
270.0
  0
ARC
  8
型材断面
  6
CONTINUOUS
 62
    47
 10
113.529526
 20
20.82403
 40
0.010002
 50
270.0
 51
359.791626
  0
LINE
  8
型材断面
  6
CONTINUOUS
 62
    47
 10
113.706248
 20
20.864033
 11
113.706248
 21
21.71418
  0
LINE
  8
型材断面
  6
CONTINUOUS
 62
    47
 10
113.472857
 20
20.830695
 11
111.366198
 21
20.830695
  0
LINE
  8
型材断面
  6
CONTINUOUS
 62
    47
 10
113.706248
 20
20.8307
 11
117.022912
 21
20.8307
  0
LINE
  8
型材断面
  6
CONTINUOUS
 62
    47
 10
117.522912
 20
21.3307
 11
117.022912
 21
21.3307
  0
LINE
  8
型材断面
  6
CONTINUOUS
 62
    47
 10
111.366198
 20
21.714035
 11
111.03953
 21
21.714035
  0
LINE
  8
型材断面
  6
CONTINUOUS
 62
    47
 10
113.489525
 20
20.814033
 11
113.529185
 21
20.814033
  0
ARC
  8
型材断面
  6
CONTINUOUS
 62
    47
 10
113.489525
 20
54.797368
 40
0.016668
 50
90.0
 51
180.000877
  0
ARC
  8
型材断面
  6
CONTINUOUS
 62
    47
 10
113.529526
 20
54.804034
 40
0.010002
 50
0.208374
 51
90.0
  0
LINE
  8
型材断面
  6
CONTINUOUS
 62
    47
 10
113.706248
 20
54.76403
 11
113.706248
 21
53.913883
  0
LINE
  8
型材断面
  6
CONTINUOUS
 62
    47
 10
113.472857
 20
54.797367
 11
111.366198
 21
54.797367
  0
LINE
  8
型材断面
  6
CONTINUOUS
 62
    47
 10
113.706248
 20
54.797363
 11
117.022912
 21
54.797363
  0
LINE
  8
型材断面
  6
CONTINUOUS
 62
    47
 10
117.522912
 20
54.297363
 11
117.022912
 21
54.297363
  0
LINE
  8
型材断面
  6
CONTINUOUS
 62
    47
 10
111.366198
 20
53.914027
 11
111.03953
 21
53.914027
  0
LINE
  8
型材断面
  6
CONTINUOUS
 62
    47
 10
113.489525
 20
54.81403
 11
113.529185
 21
54.81403
  0
LINE
  8
型材断面
  6
CONTINUOUS
 10
109.372862
 20
54.21403
 11
109.372862
 21
37.814033
  0
LINE
  8
型材断面
  6
CONTINUOUS
 10
109.53953
 20
54.370552
 11
109.53953
 21
37.814033
  0
LINE
  8
型材断面
  6
CONTINUOUS
 10
111.03953
 20
54.21403
 11
111.03953
 21
37.814033
  0
LINE
  8
型材断面
  6
CONTINUOUS
 10
111.366198
 20
54.797367
 11
111.366198
 21
37.814033
  0
LINE
  8
型材断面
  6
CONTINUOUS
 10
113.53953
 20
54.804032
 11
113.53953
 21
37.814033
  0
LINE
  8
型材断面
  6
CONTINUOUS
 10
113.706248
 20
54.797363
 11
113.706248
 21
37.814033
  0
LINE
  8
型材断面
  6
CONTINUOUS
 10
117.022912
 20
54.797363
 11
117.022912
 21
37.814033
  0
LINE
  8
型材断面
  6
CONTINUOUS
 10
117.522912
 20
54.297363
 11
117.522912
 21
37.814033
  0
LINE
  8
型材断面
  6
CONTINUOUS
 10
117.522912
 20
21.3307
 11
117.522912
 21
37.814033
  0
LINE
  8
型材断面
  6
CONTINUOUS
 10
117.022912
 20
20.8307
 11
117.022912
 21
37.814033
  0
LINE
  8
型材断面
  6
CONTINUOUS
 10
113.53953
 20
20.82403
 11
113.53953
 21
37.814033
  0
LINE
  8
型材断面
  6
CONTINUOUS
 10
113.706248
 20
20.8307
 11
113.706248
 21
37.814033
  0
LINE
  8
型材断面
  6
CONTINUOUS
 10
111.366198
 20
20.830695
 11
111.366198
 21
37.814033
  0
LINE
  8
型材断面
  6
CONTINUOUS
 10
111.03953
 20
21.414033
 11
111.03953
 21
37.814033
  0
LINE
  8
型材断面
  6
CONTINUOUS
 10
109.53953
 20
21.257512
 11
109.53953
 21
37.814033
  0
LINE
  8
型材断面
  6
CONTINUOUS
 10
109.372862
 20
21.414033
 11
109.372862
 21
37.814033
  0
ARC
  8
型材断面
  6
CONTINUOUS
 62
    47
 10
-80.58027
 20
-70.729037
 40
0.016668
 50
89.999123
 51
180.0
  0
ARC
  8
型材断面
  6
CONTINUOUS
 62
    47
 10
-80.586936
 20
-70.769039
 40
0.010002
 50
180.0
 51
269.791626
  0
LINE
  8
型材断面
  6
CONTINUOUS
 62
    47
 10
-80.54693
 20
-70.945758
 11
-79.696785
 21
-70.945758
  0
LINE
  8
型材断面
  6
CONTINUOUS
 62
    47
 10
-80.58027
 20
-70.71237
 11
-80.58027
 21
-68.60571
  0
LINE
  8
型材断面
  6
CONTINUOUS
 62
    47
 10
-80.580265
 20
-70.945758
 11
-80.580265
 21
-74.262425
  0
LINE
  8
型材断面
  6
CONTINUOUS
 62
    47
 10
-80.080265
 20
-74.762425
 11
-80.080265
 21
-74.262425
  0
LINE
  8
型材断面
  6
CONTINUOUS
 62
    47
 10
-79.69693
 20
-68.60571
 11
-79.69693
 21
-68.279043
  0
LINE
  8
型材断面
  6
CONTINUOUS
 62
    47
 10
-80.59693
 20
-70.729037
 11
-80.59693
 21
-70.768697
  0
ARC
  8
型材断面
  6
CONTINUOUS
 62
    47
 10
23.386403
 20
-70.729037
 40
0.016668
 50
0.0
 51
90.000877
  0
ARC
  8
型材断面
  6
CONTINUOUS
 62
    47
 10
23.393069
 20
-70.769039
 40
0.010002
 50
270.208374
 51
360.0
  0
LINE
  8
型材断面
  6
CONTINUOUS
 62
    47
 10
23.353065
 20
-70.945758
 11
22.50292
 21
-70.945758
  0
LINE
  8
型材断面
  6
CONTINUOUS
 62
    47
 10
23.386405
 20
-70.71237
 11
23.386405
 21
-68.60571
  0
LINE
  8
型材断面
  6
CONTINUOUS
 62
    47
 10
23.3864
 20
-70.945758
 11
23.3864
 21
-74.262425
  0
LINE
  8
型材断面
  6
CONTINUOUS
 62
    47
 10
22.8864
 20
-74.762425
 11
22.8864
 21
-74.262425
  0
LINE
  8
型材断面
  6
CONTINUOUS
 62
    47
 10
22.503065
 20
-68.60571
 11
22.503065
 21
-68.279043
  0
LINE
  8
型材断面
  6
CONTINUOUS
 62
    47
 10
23.403065
 20
-70.729037
 11
23.403065
 21
-70.768697
  0
LINE
  8
型材断面
  6
CONTINUOUS
 10
-80.58027
 20
-68.60571
 11
-28.596933
 21
-68.60571
  0
LINE
  8
型材断面
  6
CONTINUOUS
 10
-79.99693
 20
-68.279043
 11
-28.596933
 21
-68.279043
  0
LINE
  8
型材断面
  6
CONTINUOUS
 10
-80.153453
 20
-66.779043
 11
-28.596933
 21
-66.779043
  0
LINE
  8
型材断面
  6
CONTINUOUS
 10
-79.99693
 20
-66.612375
 11
-28.596933
 21
-66.612375
  0
LINE
  8
型材断面
  6
CONTINUOUS
 10
-80.580265
 20
-70.945758
 11
-28.596933
 21
-70.945758
  0
LINE
  8
型材断面
  6
CONTINUOUS
 10
-80.586935
 20
-70.779043
 11
-28.596933
 21
-70.779043
  0
LINE
  8
型材断面
  6
CONTINUOUS
 10
-80.080265
 20
-74.762425
 11
-28.596933
 21
-74.762425
  0
LINE
  8
型材断面
  6
CONTINUOUS
 10
-80.580265
 20
-74.262425
 11
-28.596933
 21
-74.262425
  0
LINE
  8
型材断面
  6
CONTINUOUS
 10
22.8864
 20
-74.762425
 11
-28.596933
 21
-74.762425
  0
LINE
  8
型材断面
  6
CONTINUOUS
 10
23.3864
 20
-74.262425
 11
-28.596933
 21
-74.262425
  0
LINE
  8
型材断面
  6
CONTINUOUS
 10
23.3864
 20
-70.945758
 11
-28.596933
 21
-70.945758
  0
LINE
  8
型材断面
  6
CONTINUOUS
 10
23.39307
 20
-70.779043
 11
-28.596933
 21
-70.779043
  0
LINE
  8
型材断面
  6
CONTINUOUS
 10
23.386405
 20
-68.60571
 11
-28.596933
 21
-68.60571
  0
LINE
  8
型材断面
  6
CONTINUOUS
 10
22.803065
 20
-68.279043
 11
-28.596933
 21
-68.279043
  0
LINE
  8
型材断面
  6
CONTINUOUS
 10
22.959588
 20
-66.779043
 11
-28.596933
 21
-66.779043
  0
LINE
  8
型材断面
  6
CONTINUOUS
 10
22.803065
 20
-66.612375
 11
-28.596933
 21
-66.612375
  0
ARC
  8
型材断面
  6
DOT
 62
    47
 10
-80.58027
 20
-60.729037
 40
0.016668
 50
89.999123
 51
180.0
  0
ARC
  8
型材断面
  6
DOT
 62
    47
 10
-80.586936
 20
-60.769039
 40
0.010002
 50
180.0
 51
269.791626
  0
LINE
  8
型材断面
  6
DOT
 62
    47
 10
-80.58027
 20
-60.71237
 11
-80.58027
 21
-58.60571
  0
LINE
  8
型材断面
  6
DOT
 62
    47
 10
-79.69693
 20
-58.60571
 11
-79.69693
 21
-58.279043
  0
LINE
  8
型材断面
  6
DOT
 62
    47
 10
-80.59693
 20
-60.729037
 11
-80.59693
 21
-60.768697
  0
ARC
  8
型材断面
  6
DOT
 62
    47
 10
23.386403
 20
-60.729037
 40
0.016668
 50
0.0
 51
90.000877
  0
ARC
  8
型材断面
  6
DOT
 62
    47
 10
23.393069
 20
-60.769039
 40
0.010002
 50
270.208374
 51
360.0
  0
LINE
  8
型材断面
  6
DOT
 62
    47
 10
23.386405
 20
-60.71237
 11
23.386405
 21
-58.60571
  0
LINE
  8
型材断面
  6
DOT
 62
    47
 10
22.503065
 20
-58.60571
 11
22.503065
 21
-58.279043
  0
LINE
  8
型材断面
  6
DOT
 62
    47
 10
23.403065
 20
-60.729037
 11
23.403065
 21
-60.768697
  0
LINE
  8
型材断面
  6
DOT
 10
-79.99693
 20
-56.612375
 11
-28.596933
 21
-56.612375
  0
LINE
  8
型材断面
  6
DOT
 10
-80.153453
 20
-56.779043
 11
-28.596933
 21
-56.779043
  0
LINE
  8
型材断面
  6
DOT
 10
-80.58027
 20
-58.60571
 11
-28.596933
 21
-58.60571
  0
LINE
  8
型材断面
  6
DOT
 10
-79.99693
 20
-58.279043
 11
-28.596933
 21
-58.279043
  0
LINE
  8
型材断面
  6
DOT
 10
-80.586935
 20
-60.779043
 11
-28.596933
 21
-60.779043
  0
LINE
  8
型材断面
  6
DOT
 10
23.39307
 20
-60.779043
 11
-28.596933
 21
-60.779043
  0
LINE
  8
型材断面
  6
DOT
 10
22.803065
 20
-58.279043
 11
-28.596933
 21
-58.279043
  0
LINE
  8
型材断面
  6
DOT
 10
23.386405
 20
-58.60571
 11
-28.596933
 21
-58.60571
  0
LINE
  8
型材断面
  6
DOT
 10
22.959588
 20
-56.779043
 11
-28.596933
 21
-56.779043
  0
LINE
  8
型材断面
  6
DOT
 10
22.803065
 20
-56.612375
 11
-28.596933
 21
-56.612375
  0
INSERT
  2
*GRP_0017
  8
型材断面
  6
CONTINUOUS
 10
0.0
 20
0.0
  0
INSERT
  2
*GRP_0018
  8
型材断面
  6
CONTINUOUS
 10
0.0
 20
0.0
  0
INSERT
  2
*GRP_0019
  8
型材断面
  6
CONTINUOUS
 10
0.0
 20
0.0
  0
INSERT
  2
*GRP_0020
  8
型材断面
  6
CONTINUOUS
 10
0.0
 20
0.0
  0
LINE
  8
型材断面
  6
DASHDOT
 10
-45.346933
 20
22.814033
 11
-45.346933
 21
52.814033
  0
LINE
  8
型材断面
  6
DASHDOT
 10
-11.846933
 20
22.814033
 11
-11.846933
 21
52.814033
  0
LINE
  8
型材断面
  6
CONTINUOUS
 10
5.194735
 20
23.757512
 11
5.194735
 21
21.257512
  0
LINE
  8
型材断面
  6
CONTINUOUS
 10
4.3614
 20
23.757512
 11
4.3614
 21
21.257512
  0
LINE
  8
型材断面
  6
CONTINUOUS
 10
-28.180265
 20
23.757512
 11
-28.180265
 21
21.257512
  0
LINE
  8
型材断面
  6
CONTINUOUS
 10
-29.0136
 20
23.757512
 11
-29.0136
 21
21.257512
  0
LINE
  8
型材断面
  6
CONTINUOUS
 10
-62.3886
 20
23.757512
 11
-62.3886
 21
21.257512
  0
LINE
  8
型材断面
  6
CONTINUOUS
 10
-61.555265
 20
23.757512
 11
-61.555265
 21
21.257512
  0
LINE
  8
型材断面
  6
CONTINUOUS
 10
5.194735
 20
51.870552
 11
5.194735
 21
54.370552
  0
LINE
  8
型材断面
  6
CONTINUOUS
 10
4.3614
 20
51.870552
 11
4.3614
 21
54.370552
  0
LINE
  8
型材断面
  6
CONTINUOUS
 10
-28.180265
 20
51.870552
 11
-28.180265
 21
54.370552
  0
LINE
  8
型材断面
  6
CONTINUOUS
 10
-29.0136
 20
51.870552
 11
-29.0136
 21
54.370552
  0
LINE
  8
型材断面
  6
CONTINUOUS
 10
-62.3886
 20
51.870552
 11
-62.3886
 21
54.370552
  0
LINE
  8
型材断面
  6
CONTINUOUS
 10
-61.555265
 20
51.870552
 11
-61.555265
 21
54.370552
  0
LINE
  8
型材断面
  6
CONTINUOUS
 10
-28.180265
 20
51.870552
 11
4.3614
 21
51.870552
  0
LINE
  8
型材断面
  6
CONTINUOUS
 10
-28.180265
 20
23.757512
 11
4.3614
 21
23.757512
  0
LINE
  8
型材断面
  6
CONTINUOUS
 10
-61.555265
 20
23.757512
 11
-29.0136
 21
23.757512
  0
LINE
  8
型材断面
  6
CONTINUOUS
 10
-61.555265
 20
51.870552
 11
-29.0136
 21
51.870552
  0
LINE
  8
型材断面
  6
CONTINUOUS
 10
-10.596933
 20
24.590845
 11
-13.096933
 21
24.590845
  0
LINE
  8
型材断面
  6
CONTINUOUS
 10
-10.596933
 20
51.03722
 11
-13.096933
 21
51.03722
  0
LINE
  8
型材断面
  6
CONTINUOUS
 10
-10.596933
 20
24.590845
 11
-10.596933
 21
51.03722
  0
LINE
  8
型材断面
  6
CONTINUOUS
 10
-13.096933
 20
24.590845
 11
-13.096933
 21
51.03722
  0
LINE
  8
型材断面
  6
CONTINUOUS
 10
23.386253
 20
54.797213
 11
23.386253
 21
37.814033
  0
LINE
  8
型材断面
  6
CONTINUOUS
 10
23.386253
 20
20.830853
 11
23.386253
 21
37.814033
  0
LINE
  8
型材断面
  6
CONTINUOUS
 10
22.959588
 20
37.397365
 11
20.459588
 21
37.397365
  0
LINE
  8
型材断面
  6
CONTINUOUS
 10
22.959588
 20
38.2307
 11
20.459588
 21
38.2307
  0
LINE
  8
型材断面
  6
CONTINUOUS
 10
22.72389
 20
21.25751
 11
22.959588
 21
21.493217
  0
LINE
  8
型材断面
  6
CONTINUOUS
 10
23.386253
 20
20.830853
 11
22.84174
 21
21.375365
  0
LINE
  8
型材断面
  6
CONTINUOUS
 10
20.459588
 20
37.397365
 11
20.459588
 21
23.993212
  0
LINE
  8
型材断面
  6
CONTINUOUS
 10
20.459588
 20
23.993212
 11
20.223887
 21
23.757512
  0
LINE
  8
型材断面
  6
CONTINUOUS
 10
20.223885
 20
23.75751
 11
22.723887
 21
21.257512
  0
LINE
  8
型材断面
  6
CONTINUOUS
 10
20.459588
 20
23.993212
 11
22.959588
 21
21.493217
  0
LINE
  8
型材断面
  6
CONTINUOUS
 10
22.72389
 20
54.370555
 11
22.959588
 21
54.134848
  0
LINE
  8
型材断面
  6
CONTINUOUS
 10
23.386253
 20
54.797213
 11
22.84174
 21
54.2527
  0
LINE
  8
型材断面
  6
CONTINUOUS
 10
20.459588
 20
51.634852
 11
22.959588
 21
54.134848
  0
LINE
  8
型材断面
  6
CONTINUOUS
 10
22.959588
 20
21.493217
 11
22.959588
 21
54.134848
  0
LINE
  8
型材断面
  6
CONTINUOUS
 10
20.223885
 20
51.870555
 11
22.723887
 21
54.370552
  0
LINE
  8
型材断面
  6
CONTINUOUS
 10
20.459588
 20
38.2307
 11
20.459588
 21
51.634852
  0
LINE
  8
型材断面
  6
CONTINUOUS
 10
20.459588
 20
51.634852
 11
20.223887
 21
51.870552
  0
LINE
  8
型材断面
  6
CONTINUOUS
 10
-80.580117
 20
54.797213
 11
-80.580117
 21
37.814033
  0
LINE
  8
型材断面
  6
CONTINUOUS
 10
-80.580117
 20
20.830853
 11
-80.580117
 21
37.814033
  0
LINE
  8
型材断面
  6
CONTINUOUS
 10
-80.153453
 20
37.397365
 11
-77.653453
 21
37.397365
  0
LINE
  8
型材断面
  6
CONTINUOUS
 10
-80.153453
 20
38.2307
 11
-77.653453
 21
38.2307
  0
LINE
  8
型材断面
  6
CONTINUOUS
 10
-79.917755
 20
21.25751
 11
-80.153453
 21
21.493217
  0
LINE
  8
型材断面
  6
CONTINUOUS
 10
-80.580117
 20
20.830853
 11
-80.035605
 21
21.375365
  0
LINE
  8
型材断面
  6
CONTINUOUS
 10
-77.653453
 20
37.397365
 11
-77.653453
 21
23.993212
  0
LINE
  8
型材断面
  6
CONTINUOUS
 10
-77.653453
 20
23.993212
 11
-77.417753
 21
23.757512
  0
LINE
  8
型材断面
  6
CONTINUOUS
 10
-77.41775
 20
23.75751
 11
-79.917753
 21
21.257512
  0
LINE
  8
型材断面
  6
CONTINUOUS
 10
-77.653453
 20
23.993212
 11
-80.153453
 21
21.493217
  0
LINE
  8
型材断面
  6
CONTINUOUS
 10
-79.917755
 20
54.370555
 11
-80.153453
 21
54.134848
  0
LINE
  8
型材断面
  6
CONTINUOUS
 10
-80.580117
 20
54.797213
 11
-80.035605
 21
54.2527
  0
LINE
  8
型材断面
  6
CONTINUOUS
 10
-77.653453
 20
51.634852
 11
-80.153453
 21
54.134848
  0
LINE
  8
型材断面
  6
CONTINUOUS
 10
-80.153453
 20
21.493217
 11
-80.153453
 21
54.134848
  0
LINE
  8
型材断面
  6
CONTINUOUS
 10
-77.41775
 20
51.870555
 11
-79.917753
 21
54.370552
  0
LINE
  8
型材断面
  6
CONTINUOUS
 10
-77.653453
 20
38.2307
 11
-77.653453
 21
51.634852
  0
LINE
  8
型材断面
  6
CONTINUOUS
 10
-77.653453
 20
51.634852
 11
-77.417753
 21
51.870552
  0
LINE
  8
型材断面
  6
CONTINUOUS
 10
5.194735
 20
23.757512
 11
20.223883
 21
23.757512
  0
LINE
  8
型材断面
  6
CONTINUOUS
 10
5.194735
 20
51.870552
 11
20.223883
 21
51.870552
  0
LINE
  8
型材断面
  6
CONTINUOUS
 10
-62.3886
 20
51.870552
 11
-77.417748
 21
51.870552
  0
LINE
  8
型材断面
  6
CONTINUOUS
 10
22.723887
 20
54.370552
 11
-79.917753
 21
54.370552
  0
LINE
  8
型材断面
  6
CONTINUOUS
 10
-62.3886
 20
23.757512
 11
-77.417748
 21
23.757512
  0
LINE
  8
型材断面
  6
CONTINUOUS
 10
22.723887
 20
21.257512
 11
-79.917753
 21
21.257512
  0
LINE
  8
型材断面
  6
CONTINUOUS
 10
-46.596933
 20
24.590845
 11
-44.096933
 21
24.590845
  0
LINE
  8
型材断面
  6
CONTINUOUS
 10
-46.596933
 20
51.03722
 11
-44.096933
 21
51.03722
  0
LINE
  8
型材断面
  6
CONTINUOUS
 10
-46.596933
 20
24.590845
 11
-46.596933
 21
51.03722
  0
LINE
  8
型材断面
  6
CONTINUOUS
 10
-44.096933
 20
24.590845
 11
-44.096933
 21
51.03722
  0
TEXT
  7
TextStyle03
  8
文字
  6
CONTINUOUS
 10
97.975
 20
-76.7
  1
網入り6.8t
 40
3.0
 72
     5
 11
114.6625
 21
-76.7
  0
TEXT
  7
TextStyle03
  8
文字
  6
CONTINUOUS
 10
104.65
 20
-81.375
  1
×３枚
 40
3.0
 72
     5
 11
114.4
 21
-81.375
  0
TEXT
  7
TextStyle03
  8
文字
  6
CONTINUOUS
 10
-36.8
 20
9.325
  1
可動装置側
 40
3.0
 72
     5
 11
-20.3
 21
9.325
  0
TEXT
  7
TextStyle03
  8
文字
  6
CONTINUOUS
 10
-36.8
 20
63.275
  1
可動装置側
 40
3.0
 72
     5
 11
-20.3
 21
63.275
  0
TEXT
  7
TextStyle03
  8
文字
  6
CONTINUOUS
 10
-129.675
 20
89.4
  1
はケーシング位置を示す
 40
3.0
 72
     5
 11
-92.925
 21
89.4
  0
TEXT
  7
TextStyle03
  8
文字
  6
CONTINUOUS
 10
-129.675
 20
86.025
  1
４ヶ所中1ヶ所に設定
 40
3.0
 72
     5
 11
-97.9875
 21
86.025
  0
TEXT
  7
TextStyle03
  8
文字
  6
CONTINUOUS
 10
-129.675
 20
94.925
  1
は排水穴位置を示す
 40
3.0
 72
     5
 11
-99.675
 21
94.925
  0
TEXT
  7
TextStyle03
  8
文字
  6
CONTINUOUS
 10
-99.575
 20
16.275
  1
アンカーピッチ
 40
3.0
 50
90.0
 72
     5
 11
-99.575
 21
39.525
  0
TEXT
  7
TextStyle03
  8
文字
  6
CONTINUOUS
 10
-68.65
 20
90.2
  1
アンカーピッチ
 40
3.0
 72
     5
 11
-45.4
 21
90.2
  0
TEXT
  7
TextStyle03
  8
文字
  6
CONTINUOUS
 10
-133.4
 20
80.05
  1
アンカー数量　１２ヶ所
 40
3.0
 72
     5
 11
-96.65
 21
80.05
  0
TEXT
  7
TextStyle03
  8
文字
  6
CONTINUOUS
 10
-133.45
 20
74.3
  1
アームユニット数　４ヶ所
 40
3.0
 72
     5
 11
-93.325
 21
74.3
  0
LINE
  8
文字
  6
CONTINUOUS
 10
109.372862
 20
66.643603
 11
109.372862
 21
56.09364
  0
LINE
  8
文字
  6
CONTINUOUS
 10
117.022912
 20
66.643603
 11
117.022912
 21
56.158722
  0
LINE
  8
文字
  6
CONTINUOUS
 10
34.638313
 20
-66.612375
 11
24.08835
 21
-66.612375
  0
LINE
  8
文字
  6
CONTINUOUS
 10
34.638313
 20
-74.262425
 11
24.15343
 21
-74.262425
  0
LINE
  8
文字
  6
CONTINUOUS
 10
34.638313
 20
-56.612375
 11
24.08835
 21
-56.612375
  0
LINE
  8
文字
  6
CONTINUOUS
 10
116.489623
 20
-44.57336
 11
116.489623
 21
-52.1159
  0
LINE
  8
文字
  6
CONTINUOUS
 10
84.15629
 20
-44.57336
 11
84.15629
 21
-52.1159
  0
TEXT
  7
TextStyle03
  8
文字
  6
CONTINUOUS
 10
60.3
 20
125.25
  1
シリーズ：ＴＦ２ＦＬ
 40
5.0
 72
     5
 11
115.925
 21
125.25
  0
TEXT
  7
TextStyle03
  8
文字
  6
CONTINUOUS
 10
60.3
 20
119.625
  1
　　　　　（上下可動）900×3000タイプ
 40
5.0
 72
     5
 11
163.7375
 21
119.625
  0
TEXT
  7
TextStyle03
  8
文字
  6
CONTINUOUS
 10
60.3
 20
114.0
  1
図面名　：外観姿図
 40
5.0
 72
     5
 11
110.3
 21
114.0
  0
TEXT
  7
TextStyle03
  8
文字
  6
CONTINUOUS
 10
60.3
 20
108.375
  1
　　　　　　
 40
5.0
 72
     5
 11
93.425
 21
108.375
  0
TEXT
  7
TextStyle03
  8
文字
  6
CONTINUOUS
 10
60.45
 20
104.525
  1
ＮＳコード：ＮＳＦＺＬ
 40
5.0
 72
     5
 11
121.7
 21
104.525
  0
INSERT
  2
*DIM_0002
  8
寸法
  6
CONTINUOUS
 10
0.0
 20
0.0
  0
INSERT
  2
*DIM_0003
  8
寸法
  6
CONTINUOUS
 10
0.0
 20
0.0
  0
INSERT
  2
*DIM_0004
  8
寸法
  6
CONTINUOUS
 10
0.0
 20
0.0
  0
INSERT
  2
*DIM_0005
  8
寸法
  6
CONTINUOUS
 10
0.0
 20
0.0
  0
INSERT
  2
*DIM_0006
  8
寸法
  6
CONTINUOUS
 10
0.0
 20
0.0
  0
INSERT
  2
*DIM_0007
  8
寸法
  6
CONTINUOUS
 10
0.0
 20
0.0
  0
INSERT
  2
*DIM_0008
  8
寸法
  6
CONTINUOUS
 10
0.0
 20
0.0
  0
INSERT
  2
*DIM_0009
  8
寸法
  6
CONTINUOUS
 10
0.0
 20
0.0
  0
INSERT
  2
*DIM_0010
  8
寸法
  6
CONTINUOUS
 10
0.0
 20
0.0
  0
INSERT
  2
*DIM_0011
  8
寸法
  6
CONTINUOUS
 10
0.0
 20
0.0
  0
INSERT
  2
*DIM_0012
  8
寸法
  6
CONTINUOUS
 10
0.0
 20
0.0
  0
INSERT
  2
*DIM_0013
  8
寸法
  6
CONTINUOUS
 10
0.0
 20
0.0
  0
INSERT
  2
*DIM_0014
  8
寸法
  6
CONTINUOUS
 10
0.0
 20
0.0
  0
INSERT
  2
*DIM_0015
  8
寸法
  6
CONTINUOUS
 10
0.0
 20
0.0
  0
INSERT
  2
*DIM_0016
  8
寸法
  6
CONTINUOUS
 10
0.0
 20
0.0
  0
INSERT
  2
*DIM_0021
  8
寸法
  6
CONTINUOUS
 10
0.0
 20
0.0
  0
INSERT
  2
*DIM_0022
  8
寸法
  6
CONTINUOUS
 10
0.0
 20
0.0
  0
INSERT
  2
*DIM_0023
  8
寸法
  6
CONTINUOUS
 10
0.0
 20
0.0
  0
LINE
  8
別途部材
  6
CONTINUOUS
 62
    47
 10
109.472862
 20
21.257512
 11
109.53953
 21
21.257512
  0
ARC
  8
別途部材
  6
CONTINUOUS
 62
    47
 10
109.472862
 20
21.357511
 40
0.1
 50
180.0
 51
270.0
  0
LINE
  8
別途部材
  6
CONTINUOUS
 62
    47
 10
109.372862
 20
21.357512
 11
109.372862
 21
23.724178
  0
LINE
  8
別途部材
  6
CONTINUOUS
 62
    47
 10
111.03953
 20
21.414033
 11
109.53953
 21
21.414033
  0
LINE
  8
別途部材
  6
CONTINUOUS
 62
    47
 10
109.472862
 20
54.370552
 11
109.53953
 21
54.370552
  0
ARC
  8
別途部材
  6
CONTINUOUS
 62
    47
 10
109.472862
 20
54.270553
 40
0.1
 50
90.0
 51
180.0
  0
LINE
  8
別途部材
  6
CONTINUOUS
 62
    47
 10
109.372862
 20
54.270552
 11
109.372862
 21
51.903885
  0
LINE
  8
別途部材
  6
CONTINUOUS
 62
    47
 10
111.03953
 20
54.21403
 11
109.53953
 21
54.21403
  0
LINE
  8
別途部材
  6
CONTINUOUS
 62
    47
 10
-80.153453
 20
-66.712375
 11
-80.153453
 21
-66.779043
  0
ARC
  8
別途部材
  6
CONTINUOUS
 62
    47
 10
-80.053454
 20
-66.712374
 40
0.1
 50
90.0
 51
180.0
  0
LINE
  8
別途部材
  6
CONTINUOUS
 62
    47
 10
-80.053453
 20
-66.612375
 11
-77.686785
 21
-66.612375
  0
LINE
  8
別途部材
  6
CONTINUOUS
 62
    47
 10
-79.99693
 20
-68.279043
 11
-79.99693
 21
-66.779043
  0
LINE
  8
別途部材
  6
CONTINUOUS
 62
    47
 10
22.959588
 20
-66.712375
 11
22.959588
 21
-66.779043
  0
ARC
  8
別途部材
  6
CONTINUOUS
 62
    47
 10
22.859588
 20
-66.712374
 40
0.1
 50
0.0
 51
90.0
  0
LINE
  8
別途部材
  6
CONTINUOUS
 62
    47
 10
22.859588
 20
-66.612375
 11
20.49292
 21
-66.612375
  0
LINE
  8
別途部材
  6
CONTINUOUS
 62
    47
 10
22.803065
 20
-68.279043
 11
22.803065
 21
-66.779043
  0
LINE
  8
別途部材
  6
DOT
 62
    47
 10
-80.153453
 20
-56.712375
 11
-80.153453
 21
-56.779043
  0
ARC
  8
別途部材
  6
DOT
 62
    47
 10
-80.053454
 20
-56.712374
 40
0.1
 50
90.0
 51
180.0
  0
LINE
  8
別途部材
  6
DOT
 62
    47
 10
-80.053453
 20
-56.612375
 11
-77.686785
 21
-56.612375
  0
LINE
  8
別途部材
  6
DOT
 62
    47
 10
-79.99693
 20
-58.279043
 11
-79.99693
 21
-56.779043
  0
LINE
  8
別途部材
  6
DOT
 62
    47
 10
22.959588
 20
-56.712375
 11
22.959588
 21
-56.779043
  0
ARC
  8
別途部材
  6
DOT
 62
    47
 10
22.859588
 20
-56.712374
 40
0.1
 50
0.0
 51
90.0
  0
LINE
  8
別途部材
  6
DOT
 62
    47
 10
22.859588
 20
-56.612375
 11
20.49292
 21
-56.612375
  0
LINE
  8
別途部材
  6
DOT
 62
    47
 10
22.803065
 20
-58.279043
 11
22.803065
 21
-56.779043
  0
LINE
  8
曲げ物
  6
CONTINUOUS
 10
116.489623
 20
-83.118728
 11
116.489623
 21
-53.785395
  0
LINE
  8
曲げ物
  6
CONTINUOUS
 10
7.174907
 20
39.693362
 11
3.479595
 21
35.99805
  0
LINE
  8
曲げ物
  6
CONTINUOUS
 10
6.471437
 20
38.157252
 11
5.015707
 21
36.701522
  0
LINE
  8
曲げ物
  6
CONTINUOUS
 10
5.638797
 20
38.989892
 11
4.183067
 21
37.534162
  0
LINE
  8
曲げ物
  6
CONTINUOUS
 10
-26.958828
 20
39.693362
 11
-30.65414
 21
35.99805
  0
LINE
  8
曲げ物
  6
CONTINUOUS
 10
-27.662298
 20
38.157252
 11
-29.118027
 21
36.701522
  0
LINE
  8
曲げ物
  6
CONTINUOUS
 10
-28.494938
 20
38.989892
 11
-29.950667
 21
37.534162
  0
LINE
  8
曲げ物
  6
CONTINUOUS
 10
-59.340672
 20
39.693362
 11
-63.035985
 21
35.99805
  0
LINE
  8
曲げ物
  6
CONTINUOUS
 10
-60.044143
 20
38.157252
 11
-61.499873
 21
36.701522
  0
LINE
  8
曲げ物
  6
CONTINUOUS
 10
-60.876782
 20
38.989892
 11
-62.332513
 21
37.534162
  0
LINE
  8
曲げ物
  6
CONTINUOUS
 10
116.489623
 20
-53.785395
 11
84.15629
 21
-53.785395
  0
LINE
  8
曲げ物
  6
CONTINUOUS
 10
116.489623
 20
-83.118728
 11
84.15629
 21
-83.118728
  0
LINE
  8
曲げ物
  6
CONTINUOUS
 10
84.15629
 20
-83.118728
 11
84.15629
 21
-53.785395
  0
ENDSEC
  0
EOF
