  0
SECTION
  2
HEADER
  9
$EXTMIN
 10
-210.0
 20
-148.5
  9
$EXTMAX
 10
210.0
 20
148.5
  9
$PDMODE
 70
    32
  9
$PDSIZE
 40
1.5
  9
$LTSCALE
 40
10.0
  0
ENDSEC
  0
SECTION
  2
TABLES
  0
TABLE
  2
LTYPE
 70
    15
  0
LTYPE
  2
CONTINUOUS
 70
    64
  3
実線
 72
    65
 73
     0
 40
0.0
  0
LTYPE
  2
DASHED
 70
    64
  3
破線A
 72
    65
 73
     2
 40
0.6
 49
0.4
 49
-0.2
  0
LTYPE
  2
DASHEDX2
 70
    64
  3
破線B
 72
    65
 73
     2
 40
1.3
 49
0.9
 49
-0.4
  0
LTYPE
  2
DASHDOT
 70
    64
  3
１点鎖線A
 72
    65
 73
     4
 40
0.5375
 49
0.375
 49
-0.05
 49
0.0625
 49
-0.05
  0
LTYPE
  2
DASHDOTX2
 70
    64
  3
１点鎖線B
 72
    65
 73
     4
 40
1.075
 49
0.75
 49
-0.1
 49
0.125
 49
-0.1
  0
LTYPE
  2
DIVIDE2
 70
    64
  3
２点鎖線A
 72
    65
 73
     6
 40
0.5125
 49
0.3
 49
-0.0375
 49
0.05
 49
-0.0375
 49
0.05
 49
-0.0375
  0
LTYPE
  2
DIVIDE
 70
    64
  3
２点鎖線B
 72
    65
 73
     6
 40
1.05
 49
0.55
 49
-0.1
 49
0.1
 49
-0.1
 49
0.1
 49
-0.1
  0
LTYPE
  2
DOT
 70
    64
  3
点線A
 72
    65
 73
     2
 40
0.1125
 49
0.0625
 49
-0.05
  0
LTYPE
  2
DOTX2
 70
    64
  3
点線B
 72
    65
 73
     2
 40
0.275
 49
0.15
 49
-0.125
  0
LTYPE
  2
CONTINUOUS
 70
    64
  3
実線
 72
    65
 73
     0
 40
0.0
  0
LTYPE
  2
CONTINUOUS
 70
    64
  3
実線
 72
    65
 73
     0
 40
0.0
  0
LTYPE
  2
CONTINUOUS
 70
    64
  3
実線
 72
    65
 73
     0
 40
0.0
  0
LTYPE
  2
CONTINUOUS
 70
    64
  3
実線
 72
    65
 73
     0
 40
0.0
  0
LTYPE
  2
CONTINUOUS
 70
    64
  3
実線
 72
    65
 73
     0
 40
0.0
  0
LTYPE
  2
CONTINUOUS
 70
    64
  3
実線
 72
    65
 73
     0
 40
0.0
  0
ENDTAB
  0
TABLE
  2
LAYER
 70
    34
  0
LAYER
  2
通り芯
 70
     0
 62
    15
  6
CONTINUOUS
  0
LAYER
  2
補助線
 70
     0
 62
    16
  6
DOT
  0
LAYER
  2
躯体
 70
     0
 62
    31
  6
CONTINUOUS
  0
LAYER
  2
型材
 70
     0
 62
    32
  6
CONTINUOUS
  0
LAYER
  2
型材断面
 70
     0
 62
    47
  6
CONTINUOUS
  0
LAYER
  2
ガラス
 70
     0
 62
    48
  6
CONTINUOUS
  0
LAYER
  2
ゴム等
 70
     0
 62
    63
  6
CONTINUOUS
  0
LAYER
  2
ボルト／ビス
 70
     0
 62
    64
  6
CONTINUOUS
  0
LAYER
  2
文字
 70
     0
 62
    79
  6
CONTINUOUS
  0
LAYER
  2
寸法
 70
     0
 62
    80
  6
CONTINUOUS
  0
LAYER
  2
ﾊｯﾁﾝｸﾞ
 70
     0
 62
    95
  6
CONTINUOUS
  0
LAYER
  2
別途部材
 70
     0
 62
    96
  6
CONTINUOUS
  0
LAYER
  2
曲げ物
 70
     0
 62
   111
  6
CONTINUOUS
  0
LAYER
  2
鉄骨等
 70
     0
 62
   112
  6
CONTINUOUS
  0
LAYER
  2
St
 70
     0
 62
   127
  6
CONTINUOUS
  0
LAYER
  2
その他部品等
 70
     0
 62
   128
  6
CONTINUOUS
  0
LAYER
  2
ｶﾞｽｹｯﾄ
 70
     0
 62
   143
  6
CONTINUOUS
  0
LAYER
  2
ｽｹｯﾁ
 70
     0
 62
    14
  6
CONTINUOUS
  0
LAYER
  2
0
 70
     0
 62
    17
  6
CONTINUOUS
  0
LAYER
  2
1
 70
     0
 62
    30
  6
CONTINUOUS
  0
LAYER
  2
4
 70
     0
 62
    33
  6
CONTINUOUS
  0
LAYER
  2
ﾚｲﾔ3
 70
     0
 62
    46
  6
CONTINUOUS
  0
LAYER
  2
外形線
 70
     0
 62
    49
  6
CONTINUOUS
  0
LAYER
  2
部品
 70
     0
 62
    14
  6
CONTINUOUS
  0
LAYER
  2
サッシ芯
 70
     0
 62
    17
  6
DASHDOTX2
  0
LAYER
  2
寸法線
 70
     0
 62
    62
  6
CONTINUOUS
  0
LAYER
  2
姿図外形線
 70
     0
 62
    65
  6
CONTINUOUS
  0
LAYER
  2
姿補助線
 70
     0
 62
    30
  6
CONTINUOUS
  0
LAYER
  2
透視線
 70
     0
 62
    78
  6
DOT
  0
LAYER
  2
用紙
 70
     0
 62
    81
  6
CONTINUOUS
  0
LAYER
  2
実線図枠
 70
     0
 62
    94
  6
CONTINUOUS
  0
LAYER
  2
補助図枠
 70
     0
 62
    97
  6
CONTINUOUS
  0
LAYER
  2
建具記号
 70
     0
 62
   110
  6
CONTINUOUS
  0
LAYER
  2
補助文字
 70
     0
 62
   113
  6
CONTINUOUS
  0
ENDTAB
  0
TABLE
  2
STYLE
 70
    10
  0
STYLE
  2
STANDARD
 70
     0
 40
1.0
 41
1.0
 42
1.0
 50
0.0
 71
     0
  3
TXT
  4
BIGFONT
  0
STYLE
  2
TATE
 70
     4
 40
1.0
 41
1.0
 42
1.0
 50
0.0
 71
     0
  3
TXT
  4
BIGFONT
  0
STYLE
  2
TextStyle03
 70
     0
 40
1.0
 41
1.0
 42
1.0
 50
0.0
 71
     0
  3
MONOTXT
  4
BIGFONT
  0
STYLE
  2
TextStyle04
 70
     0
 40
1.0
 41
1.0
 42
1.0
 50
0.0
 71
     0
  3
MONOTXT
  4
BIGFONT
  0
STYLE
  2
TextStyle05
 70
     0
 40
1.0
 41
1.0
 42
1.0
 50
0.0
 71
     0
  3
MONOTXT
  4
BIGFONT
  0
STYLE
  2
TextStyle06
 70
     0
 40
1.0
 41
1.0
 42
1.0
 50
0.0
 71
     0
  3
MONOTXT
  4
BIGFONT
  0
STYLE
  2
TextStyle07
 70
     0
 40
1.0
 41
1.0
 42
1.0
 50
0.0
 71
     0
  3
MONOTXT
  4
BIGFONT
  0
STYLE
  2
TextStyle08
 70
     0
 40
1.0
 41
1.0
 42
1.0
 50
0.0
 71
     0
  3
MONOTXT
  4
BIGFONT
  0
STYLE
  2
TextStyle09
 70
     0
 40
1.0
 41
1.0
 42
1.0
 50
0.0
 71
     0
  3
MONOTXT
  4
BIGFONT
  0
STYLE
  2
TextStyle10
 70
     0
 40
1.0
 41
1.0
 42
1.0
 50
0.0
 71
     0
  3
MONOTXT
  4
BIGFONT
  0
ENDTAB
  0
ENDSEC
  0
SECTION
  2
BLOCKS
  0
BLOCK
  2
*GRP_0001
 70
    65
 10
0.0
 20
0.0
  0
LINE
  8
型材断面
  6
CONTINUOUS
 10
195.0
 20
133.5
 11
195.0
 21
-133.5
  0
LINE
  8
型材断面
  6
CONTINUOUS
 10
195.0
 20
-133.5
 11
-185.0
 21
-133.5
  0
LINE
  8
型材断面
  6
CONTINUOUS
 10
-185.0
 20
-133.5
 11
-185.0
 21
133.5
  0
LINE
  8
型材断面
  6
CONTINUOUS
 10
195.0
 20
133.5
 11
-185.0
 21
133.5
  0
LINE
  8
型材断面
  6
CONTINUOUS
 10
145.0
 20
-133.5
 11
145.0
 21
-118.5
  0
LINE
  8
型材断面
  6
CONTINUOUS
 10
195.0
 20
-118.5
 11
145.0
 21
-118.5
  0
ENDBLK
  0
BLOCK
  2
*DIM_0002
 70
    65
 10
0.0
 20
0.0
  0
LINE
  8
寸法
  6
BYBLOCK
 62
     0
 10
55.422717
 20
22.814033
 11
55.422717
 21
52.814033
  0
POINT
  8
寸法
 62
     0
 10
55.422717
 20
22.814033
  0
POINT
  8
寸法
 62
     0
 10
55.422717
 20
52.814033
  0
TEXT
  7
TextStyle03
  8
寸法
  6
CONTINUOUS
 62
     0
 10
55.1
 20
26.9
  1
呼称寸法　900
 40
3.0
 50
90.0
 72
     5
 11
55.1
 21
48.65
  0
ENDBLK
  0
BLOCK
  2
*DIM_0003
 70
    65
 10
0.0
 20
0.0
  0
LINE
  8
寸法
  6
BYBLOCK
 62
     0
 10
117.489623
 20
-53.785395
 11
125.547912
 21
-53.785395
  0
LINE
  8
寸法
  6
BYBLOCK
 62
     0
 10
117.489623
 20
-83.118728
 11
125.547912
 21
-83.118728
  0
LINE
  8
寸法
  6
BYBLOCK
 62
     0
 10
125.547912
 20
-53.785395
 11
125.547912
 21
-83.118728
  0
POINT
  8
寸法
 62
     0
 10
125.547912
 20
-53.785395
  0
POINT
  8
寸法
 62
     0
 10
125.547912
 20
-83.118728
  0
TEXT
  7
TextStyle03
  8
寸法
  6
CONTINUOUS
 62
     0
 10
125.225
 20
-70.9125
  1
880
 40
3.0
 50
90.0
 72
     5
 11
125.225
 21
-66.0375
  0
ENDBLK
  0
BLOCK
  2
*DIM_0004
 70
    65
 10
0.0
 20
0.0
  0
LINE
  8
寸法
  6
BYBLOCK
 62
     0
 10
-45.2636
 20
-13.511205
 11
-45.2636
 21
-13.121378
  0
LINE
  8
寸法
  6
BYBLOCK
 62
     0
 10
21.403067
 20
-13.121378
 11
-45.2636
 21
-13.121378
  0
POINT
  8
寸法
 62
     0
 10
21.403067
 20
-13.121378
  0
POINT
  8
寸法
 62
     0
 10
-45.2636
 20
-13.121378
  0
TEXT
  7
TextStyle03
  8
寸法
  6
CONTINUOUS
 62
     0
 10
-23.66875
 20
-12.75
  1
呼称寸法　2000
 40
3.0
 72
     5
 11
-0.23125
 21
-12.75
  0
ENDBLK
  0
BLOCK
  2
*DIM_0005
 70
    65
 10
0.0
 20
0.0
  0
LINE
  8
寸法
  6
BYBLOCK
 62
     0
 10
-28.596933
 20
19.183902
 11
-28.596933
 21
13.85658
  0
LINE
  8
寸法
  6
BYBLOCK
 62
     0
 10
4.736403
 20
19.183902
 11
4.736403
 21
13.85658
  0
LINE
  8
寸法
  6
BYBLOCK
 62
     0
 10
-28.596933
 20
13.85658
 11
4.736403
 21
13.85658
  0
POINT
  8
寸法
 62
     0
 10
-28.596933
 20
13.85658
  0
POINT
  8
寸法
 62
     0
 10
4.736403
 20
13.85658
  0
TEXT
  7
TextStyle03
  8
寸法
  6
CONTINUOUS
 62
     0
 10
-15.23125
 20
14.225
  1
1000
 40
3.0
 72
     5
 11
-8.66875
 21
14.225
  0
ENDBLK
  0
BLOCK
  2
*DIM_0006
 70
    65
 10
0.0
 20
0.0
  0
LINE
  8
寸法
  6
BYBLOCK
 62
     0
 10
22.403067
 20
52.814035
 11
32.12735
 21
52.814035
  0
LINE
  8
寸法
  6
BYBLOCK
 62
     0
 10
25.033197
 20
49.114035
 11
32.12735
 21
49.114035
  0
LINE
  8
寸法
  6
BYBLOCK
 62
     0
 10
32.12735
 20
52.814035
 11
32.12735
 21
49.114035
  0
POINT
  8
寸法
 62
     0
 10
32.12735
 20
52.814035
  0
POINT
  8
寸法
 62
     0
 10
32.12735
 20
49.114035
  0
TEXT
  7
TextStyle03
  8
寸法
  6
CONTINUOUS
 62
     0
 10
31.8
 20
53.8125
  1
111
 40
3.0
 50
90.0
 72
     5
 11
31.8
 21
58.6875
  0
ENDBLK
  0
BLOCK
  2
*DIM_0007
 70
    65
 10
0.0
 20
0.0
  0
LINE
  8
寸法
  6
BYBLOCK
 62
     0
 10
22.403067
 20
22.81403
 11
32.12735
 21
22.814027
  0
LINE
  8
寸法
  6
BYBLOCK
 62
     0
 10
25.033197
 20
26.51403
 11
32.12735
 21
26.514027
  0
LINE
  8
寸法
  6
BYBLOCK
 62
     0
 10
32.12735
 20
22.814027
 11
32.12735
 21
26.514027
  0
POINT
  8
寸法
 62
     0
 10
32.12735
 20
22.814027
  0
POINT
  8
寸法
 62
     0
 10
32.12735
 20
26.514027
  0
TEXT
  7
TextStyle03
  8
寸法
  6
CONTINUOUS
 62
     0
 10
31.8
 20
16.9375
  1
111
 40
3.0
 50
90.0
 72
     5
 11
31.8
 21
21.8125
  0
ENDBLK
  0
BLOCK
  2
*DIM_0008
 70
    65
 10
0.0
 20
0.0
  0
LINE
  8
寸法
  6
BYBLOCK
 62
     0
 10
109.313112
 20
54.797365
 11
55.422717
 21
54.797365
  0
LINE
  8
寸法
  6
BYBLOCK
 62
     0
 10
55.422717
 20
52.814033
 11
55.422717
 21
54.797365
  0
POINT
  8
寸法
 62
     0
 10
55.422717
 20
52.814033
  0
POINT
  8
寸法
 62
     0
 10
55.422717
 20
54.797365
  0
TEXT
  7
TextStyle03
  8
寸法
  6
CONTINUOUS
 62
     0
 10
55.025
 20
57.26875
  1
59.5
 40
3.0
 50
90.0
 72
     5
 11
55.025
 21
63.83125
  0
ENDBLK
  0
BLOCK
  2
*DIM_0009
 70
    65
 10
0.0
 20
0.0
  0
LINE
  8
寸法
  6
BYBLOCK
 62
     0
 10
109.313112
 20
20.8307
 11
55.422717
 21
20.8307
  0
LINE
  8
寸法
  6
BYBLOCK
 62
     0
 10
55.422717
 20
22.814033
 11
55.422717
 21
20.8307
  0
POINT
  8
寸法
 62
     0
 10
55.422717
 20
22.814033
  0
POINT
  8
寸法
 62
     0
 10
55.422717
 20
20.8307
  0
TEXT
  7
TextStyle03
  8
寸法
  6
CONTINUOUS
 62
     0
 10
55.025
 20
11.76875
  1
59.5
 40
3.0
 50
90.0
 72
     5
 11
55.025
 21
18.33125
  0
ENDBLK
  0
BLOCK
  2
*DIM_0010
 70
    65
 10
0.0
 20
0.0
  0
LINE
  8
寸法
  6
BYBLOCK
 62
     0
 10
23.386403
 20
-58.586395
 11
23.386403
 21
-13.121378
  0
LINE
  8
寸法
  6
BYBLOCK
 62
     0
 10
21.403067
 20
-13.121378
 11
23.386403
 21
-13.121378
  0
POINT
  8
寸法
 62
     0
 10
21.403067
 20
-13.121378
  0
POINT
  8
寸法
 62
     0
 10
23.386403
 20
-13.121378
  0
TEXT
  7
TextStyle03
  8
寸法
  6
CONTINUOUS
 62
     0
 10
25.84375
 20
-12.75
  1
59.5
 40
3.0
 72
     5
 11
32.40625
 21
-12.75
  0
ENDBLK
  0
BLOCK
  2
*DIM_0011
 70
    65
 10
0.0
 20
0.0
  0
LINE
  8
寸法
  6
BYBLOCK
 62
     0
 10
-47.246933
 20
-58.586395
 11
-47.246933
 21
-13.121378
  0
LINE
  8
寸法
  6
BYBLOCK
 62
     0
 10
-45.2636
 20
-13.121378
 11
-47.246933
 21
-13.121378
  0
POINT
  8
寸法
 62
     0
 10
-45.2636
 20
-13.121378
  0
POINT
  8
寸法
 62
     0
 10
-47.246933
 20
-13.121378
  0
TEXT
  7
TextStyle03
  8
寸法
  6
CONTINUOUS
 62
     0
 10
-56.30625
 20
-12.75
  1
59.5
 40
3.0
 72
     5
 11
-49.74375
 21
-12.75
  0
ENDBLK
  0
BLOCK
  2
*DIM_0012
 70
    65
 10
0.0
 20
0.0
  0
LINE
  8
寸法
  6
BYBLOCK
 62
     0
 10
-48.2636
 20
47.814033
 11
-61.556437
 21
47.814033
  0
LINE
  8
寸法
  6
BYBLOCK
 62
     0
 10
-48.2636
 20
27.814033
 11
-61.556437
 21
27.814033
  0
LINE
  8
寸法
  6
BYBLOCK
 62
     0
 10
-61.556437
 20
47.814033
 11
-61.556437
 21
27.814033
  0
POINT
  8
寸法
 62
     0
 10
-61.556437
 20
47.814033
  0
POINT
  8
寸法
 62
     0
 10
-61.556437
 20
27.814033
  0
TEXT
  7
TextStyle03
  8
寸法
  6
CONTINUOUS
 62
     0
 10
-61.95
 20
35.3625
  1
600
 40
3.0
 50
90.0
 72
     5
 11
-61.95
 21
40.2375
  0
ENDBLK
  0
BLOCK
  2
*DIM_0013
 70
    65
 10
0.0
 20
0.0
  0
LINE
  8
寸法
  6
BYBLOCK
 62
     0
 10
-35.263598
 20
55.814033
 11
-35.263598
 21
84.741653
  0
LINE
  8
寸法
  6
BYBLOCK
 62
     0
 10
-11.930265
 20
55.814033
 11
-11.930265
 21
84.741653
  0
LINE
  8
寸法
  6
BYBLOCK
 62
     0
 10
-35.263598
 20
84.741653
 11
-11.930265
 21
84.741653
  0
POINT
  8
寸法
 62
     0
 10
-35.263598
 20
84.741653
  0
POINT
  8
寸法
 62
     0
 10
-11.930265
 20
84.741653
  0
TEXT
  7
TextStyle03
  8
寸法
  6
CONTINUOUS
 62
     0
 10
-26.0375
 20
85.125
  1
700
 40
3.0
 72
     5
 11
-21.1625
 21
85.125
  0
ENDBLK
  0
BLOCK
  2
*DIM_0014
 70
    65
 10
0.0
 20
0.0
  0
LINE
  8
寸法
  6
BYBLOCK
 62
     0
 10
11.403067
 20
55.814033
 11
11.403067
 21
84.741653
  0
LINE
  8
寸法
  6
BYBLOCK
 62
     0
 10
-11.930265
 20
84.741653
 11
11.403067
 21
84.741653
  0
POINT
  8
寸法
 62
     0
 10
11.403067
 20
84.741653
  0
TEXT
  7
TextStyle03
  8
寸法
  6
CONTINUOUS
 62
     0
 10
-2.7125
 20
85.125
  1
700
 40
3.0
 72
     5
 11
2.1625
 21
85.125
  0
ENDBLK
  0
BLOCK
  2
*DIM_0015
 70
    65
 10
0.0
 20
0.0
  0
LINE
  8
寸法
  6
CONTINUOUS
 10
109.162827
 20
66.643603
 11
116.812877
 21
66.643603
  0
POINT
  8
寸法
 10
109.162827
 20
66.643603
  0
POINT
  8
寸法
 10
116.812877
 20
66.643603
  0
TEXT
  7
TextStyle03
  8
寸法
  6
CONTINUOUS
 10
108.85
 20
67.0
  1
229.5
 40
3.0
 72
     5
 11
117.1
 21
67.0
  0
ENDBLK
  0
BLOCK
  2
*DIM_0016
 70
    65
 10
0.0
 20
0.0
  0
LINE
  8
寸法
  6
CONTINUOUS
 10
34.638313
 20
-67.62535
 11
34.638313
 21
-75.2754
  0
POINT
  8
寸法
 10
34.638313
 20
-67.62535
  0
POINT
  8
寸法
 10
34.638313
 20
-75.2754
  0
TEXT
  7
TextStyle03
  8
寸法
  6
CONTINUOUS
 10
38.7
 20
-75.525
  1
229.5
 40
3.0
 50
90.0
 72
     5
 11
38.7
 21
-67.275
  0
ENDBLK
  0
BLOCK
  2
*DIM_0017
 70
    65
 10
0.0
 20
0.0
  0
LINE
  8
寸法
  6
CONTINUOUS
 10
116.489623
 20
-45.37849
 11
84.072955
 21
-45.37849
  0
POINT
  8
寸法
 10
116.489623
 20
-45.37849
  0
POINT
  8
寸法
 10
84.072955
 20
-45.37849
  0
TEXT
  7
TextStyle03
  8
寸法
  6
CONTINUOUS
 10
96.15
 20
-45.025
  1
972.5
 40
3.0
 72
     5
 11
104.4
 21
-45.025
  0
ENDBLK
  0
BLOCK
  2
*DIM_0018
 70
    65
 10
0.0
 20
0.0
  0
LINE
  8
寸法
  6
BYBLOCK
 62
     0
 10
34.638313
 20
-67.62535
 11
34.638313
 21
-57.62535
  0
POINT
  8
寸法
 62
     0
 10
34.638313
 20
-67.62535
  0
POINT
  8
寸法
 62
     0
 10
34.638313
 20
-57.62535
  0
TEXT
  7
TextStyle03
  8
寸法
  6
CONTINUOUS
 62
     0
 10
34.4
 20
-54.76875
  1
上昇243以上
 40
3.0
 50
90.0
 72
     5
 11
34.4
 21
-36.58125
  0
ENDBLK
  0
ENDSEC
  0
SECTION
  2
ENTITIES
  0
POLYLINE
  8
通り芯
  6
CONTINUOUS
 66
     1
 70
     1
  0
VERTEX
  8
通り芯
 10
-210.0
 20
-148.5
  0
VERTEX
  8
通り芯
 10
210.0
 20
-148.5
  0
VERTEX
  8
通り芯
 10
210.0
 20
148.5
  0
VERTEX
  8
通り芯
 10
-210.0
 20
148.5
  0
SEQEND
  0
INSERT
  2
*GRP_0001
  8
型材断面
  6
CONTINUOUS
 10
0.0
 20
0.0
  0
LINE
  8
型材断面
  6
DASHDOT
 10
21.403067
 20
-77.836442
 11
21.403067
 21
52.814033
  0
LINE
  8
型材断面
  6
DASHDOT
 10
-11.930265
 20
-77.836442
 11
-11.930265
 21
52.814033
  0
LINE
  8
型材断面
  6
DASHDOT
 10
-45.2636
 20
-77.836442
 11
-45.2636
 21
52.814033
  0
LINE
  8
型材断面
  6
DASHDOT
 10
119.07983
 20
52.814033
 11
-45.2636
 21
52.814033
  0
LINE
  8
型材断面
  6
DASHDOT
 10
119.07983
 20
37.814033
 11
-45.2636
 21
37.814033
  0
LINE
  8
型材断面
  6
DASHDOT
 10
119.07983
 20
22.814033
 11
-45.2636
 21
22.814033
  0
LINE
  8
型材断面
  6
DASHDOT
 10
-11.930265
 20
22.814033
 11
-11.930265
 21
52.814033
  0
POLYLINE
  8
型材断面
  6
CONTINUOUS
 66
     1
 70
     1
  0
VERTEX
  8
型材断面
 10
-2.324078
 20
13.03811
  0
VERTEX
  8
型材断面
 10
-21.096007
 20
13.03811
  0
VERTEX
  8
型材断面
 10
-21.096007
 20
8.301267
  0
VERTEX
  8
型材断面
 10
-2.324078
 20
8.301267
  0
SEQEND
  0
POLYLINE
  8
型材断面
  6
CONTINUOUS
 66
     1
 70
     1
  0
VERTEX
  8
型材断面
 10
-2.324078
 20
62.589955
  0
VERTEX
  8
型材断面
 10
-21.096007
 20
62.589955
  0
VERTEX
  8
型材断面
 10
-21.096007
 20
67.326798
  0
VERTEX
  8
型材断面
 10
-2.324078
 20
67.326798
  0
SEQEND
  0
LINE
  8
型材断面
  6
CONTINUOUS
 10
-28.596933
 20
55.444162
 11
-30.092562
 21
58.03467
  0
LINE
  8
型材断面
  6
CONTINUOUS
 10
-28.596933
 20
55.444162
 11
-27.101303
 21
58.03467
  0
LINE
  8
型材断面
  6
CONTINUOUS
 10
-27.101303
 20
58.03467
 11
-30.092562
 21
58.03467
  0
LINE
  8
型材断面
  6
CONTINUOUS
 10
-47.89373
 20
37.814033
 11
-50.484238
 21
39.309663
  0
LINE
  8
型材断面
  6
CONTINUOUS
 10
-47.89373
 20
37.814033
 11
-50.484238
 21
36.318403
  0
LINE
  8
型材断面
  6
CONTINUOUS
 10
-50.484238
 20
36.318403
 11
-50.484238
 21
39.309663
  0
LINE
  8
型材断面
  6
CONTINUOUS
 10
-28.596933
 20
20.183902
 11
-30.092562
 21
17.593395
  0
LINE
  8
型材断面
  6
CONTINUOUS
 10
-28.596933
 20
20.183902
 11
-27.101303
 21
17.593395
  0
LINE
  8
型材断面
  6
CONTINUOUS
 10
-27.101303
 20
17.593395
 11
-30.092562
 21
17.593395
  0
LINE
  8
型材断面
  6
CONTINUOUS
 10
-99.142122
 20
90.791505
 11
-98.546068
 21
88.200998
  0
LINE
  8
型材断面
  6
CONTINUOUS
 10
-99.142122
 20
90.791505
 11
-99.73818
 21
88.200998
  0
LINE
  8
型材断面
  6
CONTINUOUS
 10
-99.73818
 20
88.200998
 11
-98.546068
 21
88.200998
  0
LINE
  8
型材断面
  6
CONTINUOUS
 10
-105.16471
 20
84.922105
 11
-58.922933
 21
84.922105
  0
LINE
  8
型材断面
  6
CONTINUOUS
 10
-99.142122
 20
97.32138
 11
-100.637752
 21
94.730873
  0
LINE
  8
型材断面
  6
CONTINUOUS
 10
-99.142122
 20
97.32138
 11
-97.646493
 21
94.730873
  0
LINE
  8
型材断面
  6
CONTINUOUS
 10
-97.646493
 20
94.730873
 11
-100.637752
 21
94.730873
  0
LINE
  8
型材断面
  6
CONTINUOUS
 10
-105.16471
 20
93.792277
 11
-58.922933
 21
93.792277
  0
LINE
  8
型材断面
  6
CONTINUOUS
 10
-105.16471
 20
79.134073
 11
-58.922933
 21
79.134073
  0
LINE
  8
型材断面
  6
CONTINUOUS
 10
4.736403
 20
55.444162
 11
6.232033
 21
58.03467
  0
LINE
  8
型材断面
  6
CONTINUOUS
 10
4.736403
 20
55.444162
 11
3.240772
 21
58.03467
  0
LINE
  8
型材断面
  6
CONTINUOUS
 10
3.240772
 20
58.03467
 11
6.232033
 21
58.03467
  0
LINE
  8
型材断面
  6
CONTINUOUS
 10
24.0332
 20
37.814033
 11
26.623707
 21
39.309663
  0
LINE
  8
型材断面
  6
CONTINUOUS
 10
24.0332
 20
37.814033
 11
26.623707
 21
36.318403
  0
LINE
  8
型材断面
  6
CONTINUOUS
 10
26.623707
 20
36.318403
 11
26.623707
 21
39.309663
  0
LINE
  8
型材断面
  6
CONTINUOUS
 10
4.736403
 20
20.183902
 11
6.232033
 21
17.593395
  0
LINE
  8
型材断面
  6
CONTINUOUS
 10
4.736403
 20
20.183902
 11
3.240772
 21
17.593395
  0
LINE
  8
型材断面
  6
CONTINUOUS
 10
3.240772
 20
17.593395
 11
6.232033
 21
17.593395
  0
LINE
  8
型材断面
  6
CONTINUOUS
 10
24.033197
 20
49.114035
 11
26.623707
 21
48.517982
  0
LINE
  8
型材断面
  6
CONTINUOUS
 10
24.033197
 20
49.114035
 11
26.623705
 21
49.710095
  0
LINE
  8
型材断面
  6
CONTINUOUS
 10
26.623705
 20
49.710095
 11
26.623707
 21
48.517982
  0
LINE
  8
型材断面
  6
CONTINUOUS
 10
24.033197
 20
26.51403
 11
26.623707
 21
27.110082
  0
LINE
  8
型材断面
  6
CONTINUOUS
 10
24.033197
 20
26.51403
 11
26.623705
 21
25.91797
  0
LINE
  8
型材断面
  6
CONTINUOUS
 10
26.623705
 20
25.91797
 11
26.623707
 21
27.110082
  0
LINE
  8
型材断面
  6
CONTINUOUS
 10
-47.893728
 20
49.114035
 11
-50.484238
 21
48.517982
  0
LINE
  8
型材断面
  6
CONTINUOUS
 10
-47.893728
 20
49.114035
 11
-50.484235
 21
49.710095
  0
LINE
  8
型材断面
  6
CONTINUOUS
 10
-50.484235
 20
49.710095
 11
-50.484238
 21
48.517982
  0
LINE
  8
型材断面
  6
CONTINUOUS
 10
-47.893728
 20
26.51403
 11
-50.484238
 21
27.110082
  0
LINE
  8
型材断面
  6
CONTINUOUS
 10
-47.893728
 20
26.51403
 11
-50.484235
 21
25.91797
  0
LINE
  8
型材断面
  6
CONTINUOUS
 10
-50.484235
 20
25.91797
 11
-50.484238
 21
27.110082
  0
LINE
  8
型材断面
  6
CONTINUOUS
 10
-11.93027
 20
20.830853
 11
-47.246785
 21
20.830853
  0
LINE
  8
型材断面
  6
CONTINUOUS
 10
-11.93026
 20
20.830853
 11
23.386255
 21
20.830853
  0
LINE
  8
型材断面
  6
CONTINUOUS
 10
-11.93026
 20
54.797213
 11
23.386255
 21
54.797213
  0
LINE
  8
型材断面
  6
CONTINUOUS
 10
-11.93027
 20
54.797213
 11
-47.246785
 21
54.797213
  0
LINE
  8
型材断面
  6
CONTINUOUS
 10
-105.16471
 20
73.34604
 11
-58.922933
 21
73.34604
  0
ARC
  8
型材断面
  6
CONTINUOUS
 62
    47
 10
113.279492
 20
20.830696
 40
0.016668
 50
179.999123
 51
270.0
  0
ARC
  8
型材断面
  6
CONTINUOUS
 62
    47
 10
113.319493
 20
20.82403
 40
0.010002
 50
270.0
 51
359.791626
  0
LINE
  8
型材断面
  6
CONTINUOUS
 62
    47
 10
113.496213
 20
20.864033
 11
113.496213
 21
21.71418
  0
LINE
  8
型材断面
  6
CONTINUOUS
 62
    47
 10
113.262823
 20
20.830695
 11
111.156163
 21
20.830695
  0
LINE
  8
型材断面
  6
CONTINUOUS
 62
    47
 10
113.496213
 20
20.8307
 11
116.812877
 21
20.8307
  0
LINE
  8
型材断面
  6
CONTINUOUS
 62
    47
 10
117.312877
 20
21.3307
 11
116.812877
 21
21.3307
  0
LINE
  8
型材断面
  6
CONTINUOUS
 62
    47
 10
111.156163
 20
21.714035
 11
110.829495
 21
21.714035
  0
LINE
  8
型材断面
  6
CONTINUOUS
 62
    47
 10
113.27949
 20
20.814033
 11
113.31915
 21
20.814033
  0
ARC
  8
型材断面
  6
CONTINUOUS
 62
    47
 10
113.279492
 20
54.797368
 40
0.016668
 50
90.0
 51
180.000877
  0
ARC
  8
型材断面
  6
CONTINUOUS
 62
    47
 10
113.319493
 20
54.804034
 40
0.010002
 50
0.208374
 51
90.0
  0
LINE
  8
型材断面
  6
CONTINUOUS
 62
    47
 10
113.496213
 20
54.76403
 11
113.496213
 21
53.913883
  0
LINE
  8
型材断面
  6
CONTINUOUS
 62
    47
 10
113.262823
 20
54.797367
 11
111.156163
 21
54.797367
  0
LINE
  8
型材断面
  6
CONTINUOUS
 62
    47
 10
113.496213
 20
54.797363
 11
116.812877
 21
54.797363
  0
LINE
  8
型材断面
  6
CONTINUOUS
 62
    47
 10
117.312877
 20
54.297363
 11
116.812877
 21
54.297363
  0
LINE
  8
型材断面
  6
CONTINUOUS
 62
    47
 10
111.156163
 20
53.914027
 11
110.829495
 21
53.914027
  0
LINE
  8
型材断面
  6
CONTINUOUS
 62
    47
 10
113.27949
 20
54.81403
 11
113.31915
 21
54.81403
  0
LINE
  8
型材断面
  6
CONTINUOUS
 10
109.162827
 20
54.21403
 11
109.162827
 21
37.814033
  0
LINE
  8
型材断面
  6
CONTINUOUS
 10
109.329495
 20
54.370552
 11
109.329495
 21
37.814033
  0
LINE
  8
型材断面
  6
CONTINUOUS
 10
110.829495
 20
54.21403
 11
110.829495
 21
37.814033
  0
LINE
  8
型材断面
  6
CONTINUOUS
 10
111.156163
 20
54.797367
 11
111.156163
 21
37.814033
  0
LINE
  8
型材断面
  6
CONTINUOUS
 10
113.329495
 20
54.804032
 11
113.329495
 21
37.814033
  0
LINE
  8
型材断面
  6
CONTINUOUS
 10
113.496213
 20
54.797363
 11
113.496213
 21
37.814033
  0
LINE
  8
型材断面
  6
CONTINUOUS
 10
116.812877
 20
54.797363
 11
116.812877
 21
37.814033
  0
LINE
  8
型材断面
  6
CONTINUOUS
 10
117.312877
 20
54.297363
 11
117.312877
 21
37.814033
  0
LINE
  8
型材断面
  6
CONTINUOUS
 10
117.312877
 20
21.3307
 11
117.312877
 21
37.814033
  0
LINE
  8
型材断面
  6
CONTINUOUS
 10
116.812877
 20
20.8307
 11
116.812877
 21
37.814033
  0
LINE
  8
型材断面
  6
CONTINUOUS
 10
113.329495
 20
20.82403
 11
113.329495
 21
37.814033
  0
LINE
  8
型材断面
  6
CONTINUOUS
 10
113.496213
 20
20.8307
 11
113.496213
 21
37.814033
  0
LINE
  8
型材断面
  6
CONTINUOUS
 10
111.156163
 20
20.830695
 11
111.156163
 21
37.814033
  0
LINE
  8
型材断面
  6
CONTINUOUS
 10
110.829495
 20
21.414033
 11
110.829495
 21
37.814033
  0
LINE
  8
型材断面
  6
CONTINUOUS
 10
109.329495
 20
21.257512
 11
109.329495
 21
37.814033
  0
LINE
  8
型材断面
  6
CONTINUOUS
 10
109.162827
 20
21.414033
 11
109.162827
 21
37.814033
  0
ARC
  8
型材断面
  6
CONTINUOUS
 62
    47
 10
-47.246935
 20
-71.742013
 40
0.016668
 50
89.999123
 51
180.0
  0
ARC
  8
型材断面
  6
CONTINUOUS
 62
    47
 10
-47.253601
 20
-71.782015
 40
0.010002
 50
180.0
 51
269.791626
  0
LINE
  8
型材断面
  6
CONTINUOUS
 62
    47
 10
-47.213598
 20
-71.958733
 11
-46.36345
 21
-71.958733
  0
LINE
  8
型材断面
  6
CONTINUOUS
 62
    47
 10
-47.246935
 20
-71.725345
 11
-47.246935
 21
-69.618685
  0
LINE
  8
型材断面
  6
CONTINUOUS
 62
    47
 10
-47.24693
 20
-71.958733
 11
-47.24693
 21
-75.2754
  0
LINE
  8
型材断面
  6
CONTINUOUS
 62
    47
 10
-46.74693
 20
-75.7754
 11
-46.74693
 21
-75.2754
  0
LINE
  8
型材断面
  6
CONTINUOUS
 62
    47
 10
-46.363595
 20
-69.618685
 11
-46.363595
 21
-69.292018
  0
LINE
  8
型材断面
  6
CONTINUOUS
 62
    47
 10
-47.263598
 20
-71.742012
 11
-47.263598
 21
-71.781672
  0
ARC
  8
型材断面
  6
CONTINUOUS
 62
    47
 10
23.386404
 20
-71.742013
 40
0.016668
 50
0.0
 51
90.000877
  0
ARC
  8
型材断面
  6
CONTINUOUS
 62
    47
 10
23.39307
 20
-71.782015
 40
0.010002
 50
270.208374
 51
360.0
  0
LINE
  8
型材断面
  6
CONTINUOUS
 62
    47
 10
23.353067
 20
-71.958733
 11
22.50292
 21
-71.958733
  0
LINE
  8
型材断面
  6
CONTINUOUS
 62
    47
 10
23.386405
 20
-71.725345
 11
23.386405
 21
-69.618685
  0
LINE
  8
型材断面
  6
CONTINUOUS
 62
    47
 10
23.3864
 20
-71.958733
 11
23.3864
 21
-75.2754
  0
LINE
  8
型材断面
  6
CONTINUOUS
 62
    47
 10
22.8864
 20
-75.7754
 11
22.8864
 21
-75.2754
  0
LINE
  8
型材断面
  6
CONTINUOUS
 62
    47
 10
22.503065
 20
-69.618685
 11
22.503065
 21
-69.292018
  0
LINE
  8
型材断面
  6
CONTINUOUS
 62
    47
 10
23.403067
 20
-71.742012
 11
23.403067
 21
-71.781672
  0
LINE
  8
型材断面
  6
CONTINUOUS
 10
22.803067
 20
-67.62535
 11
-11.930265
 21
-67.62535
  0
LINE
  8
型材断面
  6
CONTINUOUS
 10
22.959588
 20
-67.792018
 11
-11.930265
 21
-67.792018
  0
LINE
  8
型材断面
  6
CONTINUOUS
 10
23.386405
 20
-69.618685
 11
-11.930265
 21
-69.618685
  0
LINE
  8
型材断面
  6
CONTINUOUS
 10
22.803067
 20
-69.292018
 11
-11.930265
 21
-69.292018
  0
LINE
  8
型材断面
  6
CONTINUOUS
 10
23.39307
 20
-71.792018
 11
-11.930265
 21
-71.792018
  0
LINE
  8
型材断面
  6
CONTINUOUS
 10
23.3864
 20
-71.958733
 11
-11.930265
 21
-71.958733
  0
LINE
  8
型材断面
  6
CONTINUOUS
 10
23.3864
 20
-75.2754
 11
-11.930265
 21
-75.2754
  0
LINE
  8
型材断面
  6
CONTINUOUS
 10
22.8864
 20
-75.7754
 11
-11.930265
 21
-75.7754
  0
LINE
  8
型材断面
  6
CONTINUOUS
 10
-47.246935
 20
-69.618685
 11
-11.930265
 21
-69.618685
  0
LINE
  8
型材断面
  6
CONTINUOUS
 10
-47.24693
 20
-75.2754
 11
-11.930265
 21
-75.2754
  0
LINE
  8
型材断面
  6
CONTINUOUS
 10
-46.74693
 20
-75.7754
 11
-11.930265
 21
-75.7754
  0
LINE
  8
型材断面
  6
CONTINUOUS
 10
-47.2536
 20
-71.792018
 11
-11.930265
 21
-71.792018
  0
LINE
  8
型材断面
  6
CONTINUOUS
 10
-47.24693
 20
-71.958733
 11
-11.930265
 21
-71.958733
  0
LINE
  8
型材断面
  6
CONTINUOUS
 10
-46.663598
 20
-69.292018
 11
-11.930265
 21
-69.292018
  0
LINE
  8
型材断面
  6
CONTINUOUS
 10
-46.820118
 20
-67.792018
 11
-11.930265
 21
-67.792018
  0
LINE
  8
型材断面
  6
CONTINUOUS
 10
-46.663598
 20
-67.62535
 11
-11.930265
 21
-67.62535
  0
ARC
  8
型材断面
  6
DOT
 62
    47
 10
-47.246935
 20
-61.742013
 40
0.016668
 50
89.999123
 51
180.0
  0
ARC
  8
型材断面
  6
DOT
 62
    47
 10
-47.253601
 20
-61.782015
 40
0.010002
 50
180.0
 51
269.791626
  0
LINE
  8
型材断面
  6
DOT
 62
    47
 10
-47.246935
 20
-61.725345
 11
-47.246935
 21
-59.618685
  0
LINE
  8
型材断面
  6
DOT
 62
    47
 10
-46.363595
 20
-59.618685
 11
-46.363595
 21
-59.292018
  0
LINE
  8
型材断面
  6
DOT
 62
    47
 10
-47.263598
 20
-61.742012
 11
-47.263598
 21
-61.781672
  0
ARC
  8
型材断面
  6
DOT
 62
    47
 10
23.386404
 20
-61.742013
 40
0.016668
 50
0.0
 51
90.000877
  0
ARC
  8
型材断面
  6
DOT
 62
    47
 10
23.39307
 20
-61.782015
 40
0.010002
 50
270.208374
 51
360.0
  0
LINE
  8
型材断面
  6
DOT
 62
    47
 10
23.386405
 20
-61.725345
 11
23.386405
 21
-59.618685
  0
LINE
  8
型材断面
  6
DOT
 62
    47
 10
22.503065
 20
-59.618685
 11
22.503065
 21
-59.292018
  0
LINE
  8
型材断面
  6
DOT
 62
    47
 10
23.403067
 20
-61.742012
 11
23.403067
 21
-61.781672
  0
LINE
  8
型材断面
  6
DOT
 10
23.39307
 20
-61.792018
 11
-11.930265
 21
-61.792018
  0
LINE
  8
型材断面
  6
DOT
 10
23.386405
 20
-59.618685
 11
-11.930265
 21
-59.618685
  0
LINE
  8
型材断面
  6
DOT
 10
22.803067
 20
-59.292018
 11
-11.930265
 21
-59.292018
  0
LINE
  8
型材断面
  6
DOT
 10
22.803067
 20
-57.62535
 11
-11.930265
 21
-57.62535
  0
LINE
  8
型材断面
  6
DOT
 10
22.959588
 20
-57.792018
 11
-11.930265
 21
-57.792018
  0
LINE
  8
型材断面
  6
DOT
 10
-47.2536
 20
-61.792018
 11
-11.930265
 21
-61.792018
  0
LINE
  8
型材断面
  6
DOT
 10
-46.663598
 20
-59.292018
 11
-11.930265
 21
-59.292018
  0
LINE
  8
型材断面
  6
DOT
 10
-47.246935
 20
-59.618685
 11
-11.930265
 21
-59.618685
  0
LINE
  8
型材断面
  6
DOT
 10
-46.663598
 20
-57.62535
 11
-11.930265
 21
-57.62535
  0
LINE
  8
型材断面
  6
DOT
 10
-46.820118
 20
-57.792018
 11
-11.930265
 21
-57.792018
  0
LINE
  8
型材断面
  6
CONTINUOUS
 10
5.15307
 20
23.757512
 11
5.15307
 21
21.257512
  0
LINE
  8
型材断面
  6
CONTINUOUS
 10
4.319735
 20
23.757512
 11
4.319735
 21
21.257512
  0
LINE
  8
型材断面
  6
CONTINUOUS
 10
-29.0136
 20
23.757512
 11
-29.0136
 21
21.257512
  0
LINE
  8
型材断面
  6
CONTINUOUS
 10
-28.180265
 20
23.757512
 11
-28.180265
 21
21.257512
  0
LINE
  8
型材断面
  6
CONTINUOUS
 10
5.15307
 20
51.870552
 11
5.15307
 21
54.370552
  0
LINE
  8
型材断面
  6
CONTINUOUS
 10
4.319735
 20
51.870552
 11
4.319735
 21
54.370552
  0
LINE
  8
型材断面
  6
CONTINUOUS
 10
-29.0136
 20
51.870552
 11
-29.0136
 21
54.370552
  0
LINE
  8
型材断面
  6
CONTINUOUS
 10
-28.180265
 20
51.870552
 11
-28.180265
 21
54.370552
  0
LINE
  8
型材断面
  6
CONTINUOUS
 10
-28.180265
 20
51.870552
 11
4.319735
 21
51.870552
  0
LINE
  8
型材断面
  6
CONTINUOUS
 10
-28.180265
 20
23.757512
 11
4.319735
 21
23.757512
  0
LINE
  8
型材断面
  6
CONTINUOUS
 10
-10.680265
 20
24.590845
 11
-13.180265
 21
24.590845
  0
LINE
  8
型材断面
  6
CONTINUOUS
 10
-10.680265
 20
51.03722
 11
-13.180265
 21
51.03722
  0
LINE
  8
型材断面
  6
CONTINUOUS
 10
-13.180265
 20
24.590845
 11
-13.180265
 21
51.03722
  0
LINE
  8
型材断面
  6
CONTINUOUS
 10
-10.680265
 20
24.590845
 11
-10.680265
 21
51.03722
  0
LINE
  8
型材断面
  6
CONTINUOUS
 10
23.386253
 20
54.797213
 11
23.386253
 21
37.814033
  0
LINE
  8
型材断面
  6
CONTINUOUS
 10
23.386253
 20
20.830853
 11
23.386253
 21
37.814033
  0
LINE
  8
型材断面
  6
CONTINUOUS
 10
22.959588
 20
37.397365
 11
20.459588
 21
37.397365
  0
LINE
  8
型材断面
  6
CONTINUOUS
 10
22.959588
 20
38.2307
 11
20.459588
 21
38.2307
  0
LINE
  8
型材断面
  6
CONTINUOUS
 10
22.72389
 20
21.25751
 11
22.959588
 21
21.493217
  0
LINE
  8
型材断面
  6
CONTINUOUS
 10
23.386253
 20
20.830853
 11
22.84174
 21
21.375365
  0
LINE
  8
型材断面
  6
CONTINUOUS
 10
20.459588
 20
37.397365
 11
20.459588
 21
23.993212
  0
LINE
  8
型材断面
  6
CONTINUOUS
 10
20.459588
 20
23.993212
 11
20.223887
 21
23.757512
  0
LINE
  8
型材断面
  6
CONTINUOUS
 10
20.223885
 20
23.75751
 11
22.723887
 21
21.257512
  0
LINE
  8
型材断面
  6
CONTINUOUS
 10
20.459588
 20
23.993212
 11
22.959588
 21
21.493217
  0
LINE
  8
型材断面
  6
CONTINUOUS
 10
22.72389
 20
54.370555
 11
22.959588
 21
54.134848
  0
LINE
  8
型材断面
  6
CONTINUOUS
 10
23.386253
 20
54.797213
 11
22.84174
 21
54.2527
  0
LINE
  8
型材断面
  6
CONTINUOUS
 10
20.459588
 20
51.634852
 11
22.959588
 21
54.134848
  0
LINE
  8
型材断面
  6
CONTINUOUS
 10
22.959588
 20
21.493217
 11
22.959588
 21
54.134848
  0
LINE
  8
型材断面
  6
CONTINUOUS
 10
20.223885
 20
51.870555
 11
22.723887
 21
54.370552
  0
LINE
  8
型材断面
  6
CONTINUOUS
 10
20.459588
 20
38.2307
 11
20.459588
 21
51.634852
  0
LINE
  8
型材断面
  6
CONTINUOUS
 10
20.459588
 20
51.634852
 11
20.223887
 21
51.870552
  0
LINE
  8
型材断面
  6
CONTINUOUS
 10
5.15307
 20
51.870552
 11
20.223883
 21
51.870552
  0
LINE
  8
型材断面
  6
CONTINUOUS
 10
5.15307
 20
23.757512
 11
20.223883
 21
23.757512
  0
LINE
  8
型材断面
  6
CONTINUOUS
 10
-47.246782
 20
54.797213
 11
-47.246782
 21
37.814033
  0
LINE
  8
型材断面
  6
CONTINUOUS
 10
-47.246782
 20
20.830853
 11
-47.246782
 21
37.814033
  0
LINE
  8
型材断面
  6
CONTINUOUS
 10
-46.820118
 20
37.397365
 11
-44.320118
 21
37.397365
  0
LINE
  8
型材断面
  6
CONTINUOUS
 10
-46.820118
 20
38.2307
 11
-44.320118
 21
38.2307
  0
LINE
  8
型材断面
  6
CONTINUOUS
 10
-46.58442
 20
21.25751
 11
-46.820118
 21
21.493217
  0
LINE
  8
型材断面
  6
CONTINUOUS
 10
-47.246782
 20
20.830853
 11
-46.70227
 21
21.375365
  0
LINE
  8
型材断面
  6
CONTINUOUS
 10
-44.320118
 20
37.397365
 11
-44.320118
 21
23.993212
  0
LINE
  8
型材断面
  6
CONTINUOUS
 10
-44.320118
 20
23.993212
 11
-44.084418
 21
23.757512
  0
LINE
  8
型材断面
  6
CONTINUOUS
 10
-44.084415
 20
23.75751
 11
-46.584418
 21
21.257512
  0
LINE
  8
型材断面
  6
CONTINUOUS
 10
-44.320118
 20
23.993212
 11
-46.820118
 21
21.493217
  0
LINE
  8
型材断面
  6
CONTINUOUS
 10
-46.58442
 20
54.370555
 11
-46.820118
 21
54.134848
  0
LINE
  8
型材断面
  6
CONTINUOUS
 10
-47.246782
 20
54.797213
 11
-46.70227
 21
54.2527
  0
LINE
  8
型材断面
  6
CONTINUOUS
 10
-44.320118
 20
51.634852
 11
-46.820118
 21
54.134848
  0
LINE
  8
型材断面
  6
CONTINUOUS
 10
-46.820118
 20
21.493217
 11
-46.820118
 21
54.134848
  0
LINE
  8
型材断面
  6
CONTINUOUS
 10
-44.084415
 20
51.870555
 11
-46.584418
 21
54.370552
  0
LINE
  8
型材断面
  6
CONTINUOUS
 10
-44.320118
 20
38.2307
 11
-44.320118
 21
51.634852
  0
LINE
  8
型材断面
  6
CONTINUOUS
 10
-44.320118
 20
51.634852
 11
-44.084418
 21
51.870552
  0
LINE
  8
型材断面
  6
CONTINUOUS
 10
-29.0136
 20
23.757512
 11
-44.084412
 21
23.757512
  0
LINE
  8
型材断面
  6
CONTINUOUS
 10
22.723887
 20
21.257512
 11
-46.584418
 21
21.257512
  0
LINE
  8
型材断面
  6
CONTINUOUS
 10
-29.0136
 20
51.870552
 11
-44.084412
 21
51.870552
  0
LINE
  8
型材断面
  6
CONTINUOUS
 10
22.723887
 20
54.370552
 11
-46.584418
 21
54.370552
  0
TEXT
  7
TextStyle03
  8
文字
  6
CONTINUOUS
 10
97.975
 20
-76.7
  1
網入り6.8t
 40
3.0
 72
     5
 11
114.6625
 21
-76.7
  0
TEXT
  7
TextStyle03
  8
文字
  6
CONTINUOUS
 10
104.65
 20
-81.375
  1
×２枚
 40
3.0
 72
     5
 11
114.4
 21
-81.375
  0
TEXT
  7
TextStyle03
  8
文字
  6
CONTINUOUS
 10
-20.0
 20
9.325
  1
可動装置側
 40
3.0
 72
     5
 11
-3.5
 21
9.325
  0
TEXT
  7
TextStyle03
  8
文字
  6
CONTINUOUS
 10
-20.0
 20
63.275
  1
可動装置側
 40
3.0
 72
     5
 11
-3.5
 21
63.275
  0
TEXT
  7
TextStyle03
  8
文字
  6
CONTINUOUS
 10
-96.375
 20
89.4
  1
はケーシング位置を示す
 40
3.0
 72
     5
 11
-59.625
 21
89.4
  0
TEXT
  7
TextStyle03
  8
文字
  6
CONTINUOUS
 10
-96.375
 20
86.025
  1
４ヶ所中1ヶ所に設定
 40
3.0
 72
     5
 11
-64.6875
 21
86.025
  0
TEXT
  7
TextStyle03
  8
文字
  6
CONTINUOUS
 10
-96.375
 20
94.925
  1
は排水穴位置を示す
 40
3.0
 72
     5
 11
-66.375
 21
94.925
  0
TEXT
  7
TextStyle03
  8
文字
  6
CONTINUOUS
 10
-66.275
 20
16.275
  1
アンカーピッチ
 40
3.0
 50
90.0
 72
     5
 11
-66.275
 21
39.525
  0
TEXT
  7
TextStyle03
  8
文字
  6
CONTINUOUS
 10
-37.825
 20
89.675
  1
アンカーピッチ
 40
3.0
 72
     5
 11
-14.575
 21
89.675
  0
TEXT
  7
TextStyle03
  8
文字
  6
CONTINUOUS
 10
-100.1
 20
80.05
  1
アンカー数量　１０ヶ所
 40
3.0
 72
     5
 11
-63.35
 21
80.05
  0
TEXT
  7
TextStyle03
  8
文字
  6
CONTINUOUS
 10
-100.125
 20
74.3
  1
アームユニット数　２ヶ所
 40
3.0
 72
     5
 11
-60.0
 21
74.3
  0
LINE
  8
文字
  6
CONTINUOUS
 10
109.162827
 20
66.643603
 11
109.162827
 21
56.09364
  0
LINE
  8
文字
  6
CONTINUOUS
 10
116.812877
 20
66.643603
 11
116.812877
 21
56.158722
  0
LINE
  8
文字
  6
CONTINUOUS
 10
34.638313
 20
-67.62535
 11
24.08835
 21
-67.62535
  0
LINE
  8
文字
  6
CONTINUOUS
 10
34.638313
 20
-75.2754
 11
24.153433
 21
-75.2754
  0
LINE
  8
文字
  6
CONTINUOUS
 10
34.638313
 20
-57.62535
 11
24.08835
 21
-57.62535
  0
LINE
  8
文字
  6
CONTINUOUS
 10
116.489623
 20
-45.37849
 11
116.489623
 21
-52.492527
  0
LINE
  8
文字
  6
CONTINUOUS
 10
84.072955
 20
-45.37849
 11
84.072955
 21
-52.492527
  0
TEXT
  7
TextStyle03
  8
文字
  6
CONTINUOUS
 10
59.5
 20
125.25
  1
シリーズ：ＴＦ２ＦＬ
 40
5.0
 72
     5
 11
115.125
 21
125.25
  0
TEXT
  7
TextStyle03
  8
文字
  6
CONTINUOUS
 10
59.5
 20
119.625
  1
　　　　　（上下可動）900×2000タイプ
 40
5.0
 72
     5
 11
162.9375
 21
119.625
  0
TEXT
  7
TextStyle03
  8
文字
  6
CONTINUOUS
 10
59.5
 20
114.0
  1
図面名　：外観姿図
 40
5.0
 72
     5
 11
109.5
 21
114.0
  0
TEXT
  7
TextStyle03
  8
文字
  6
CONTINUOUS
 10
59.5
 20
108.375
  1
　　　　　　
 40
5.0
 72
     5
 11
92.625
 21
108.375
  0
TEXT
  7
TextStyle03
  8
文字
  6
CONTINUOUS
 10
59.65
 20
104.525
  1
ＮＳコード：ＮＳＦＺＬ
 40
5.0
 72
     5
 11
120.9
 21
104.525
  0
INSERT
  2
*DIM_0002
  8
寸法
  6
CONTINUOUS
 10
0.0
 20
0.0
  0
INSERT
  2
*DIM_0003
  8
寸法
  6
CONTINUOUS
 10
0.0
 20
0.0
  0
INSERT
  2
*DIM_0004
  8
寸法
  6
CONTINUOUS
 10
0.0
 20
0.0
  0
INSERT
  2
*DIM_0005
  8
寸法
  6
CONTINUOUS
 10
0.0
 20
0.0
  0
INSERT
  2
*DIM_0006
  8
寸法
  6
CONTINUOUS
 10
0.0
 20
0.0
  0
INSERT
  2
*DIM_0007
  8
寸法
  6
CONTINUOUS
 10
0.0
 20
0.0
  0
INSERT
  2
*DIM_0008
  8
寸法
  6
CONTINUOUS
 10
0.0
 20
0.0
  0
INSERT
  2
*DIM_0009
  8
寸法
  6
CONTINUOUS
 10
0.0
 20
0.0
  0
INSERT
  2
*DIM_0010
  8
寸法
  6
CONTINUOUS
 10
0.0
 20
0.0
  0
INSERT
  2
*DIM_0011
  8
寸法
  6
CONTINUOUS
 10
0.0
 20
0.0
  0
INSERT
  2
*DIM_0012
  8
寸法
  6
CONTINUOUS
 10
0.0
 20
0.0
  0
INSERT
  2
*DIM_0013
  8
寸法
  6
CONTINUOUS
 10
0.0
 20
0.0
  0
INSERT
  2
*DIM_0014
  8
寸法
  6
CONTINUOUS
 10
0.0
 20
0.0
  0
INSERT
  2
*DIM_0015
  8
寸法
  6
CONTINUOUS
 10
0.0
 20
0.0
  0
INSERT
  2
*DIM_0016
  8
寸法
  6
CONTINUOUS
 10
0.0
 20
0.0
  0
INSERT
  2
*DIM_0017
  8
寸法
  6
CONTINUOUS
 10
0.0
 20
0.0
  0
INSERT
  2
*DIM_0018
  8
寸法
  6
CONTINUOUS
 10
0.0
 20
0.0
  0
LINE
  8
別途部材
  6
CONTINUOUS
 62
    47
 10
109.262827
 20
21.257512
 11
109.329495
 21
21.257512
  0
ARC
  8
別途部材
  6
CONTINUOUS
 62
    47
 10
109.262829
 20
21.357511
 40
0.1
 50
180.0
 51
270.0
  0
LINE
  8
別途部材
  6
CONTINUOUS
 62
    47
 10
109.162827
 20
21.357512
 11
109.162827
 21
23.724178
  0
LINE
  8
別途部材
  6
CONTINUOUS
 62
    47
 10
110.829495
 20
21.414033
 11
109.329495
 21
21.414033
  0
LINE
  8
別途部材
  6
CONTINUOUS
 62
    47
 10
109.262827
 20
54.370552
 11
109.329495
 21
54.370552
  0
ARC
  8
別途部材
  6
CONTINUOUS
 62
    47
 10
109.262829
 20
54.270553
 40
0.1
 50
90.0
 51
180.0
  0
LINE
  8
別途部材
  6
CONTINUOUS
 62
    47
 10
109.162827
 20
54.270552
 11
109.162827
 21
51.903885
  0
LINE
  8
別途部材
  6
CONTINUOUS
 62
    47
 10
110.829495
 20
54.21403
 11
109.329495
 21
54.21403
  0
LINE
  8
別途部材
  6
CONTINUOUS
 62
    47
 10
-46.820118
 20
-67.72535
 11
-46.820118
 21
-67.792018
  0
ARC
  8
別途部材
  6
CONTINUOUS
 62
    47
 10
-46.72012
 20
-67.725351
 40
0.1
 50
90.0
 51
180.0
  0
LINE
  8
別途部材
  6
CONTINUOUS
 62
    47
 10
-46.720118
 20
-67.62535
 11
-44.353453
 21
-67.62535
  0
LINE
  8
別途部材
  6
CONTINUOUS
 62
    47
 10
-46.663598
 20
-69.292018
 11
-46.663598
 21
-67.792018
  0
LINE
  8
別途部材
  6
CONTINUOUS
 62
    47
 10
22.959588
 20
-67.72535
 11
22.959588
 21
-67.792018
  0
ARC
  8
別途部材
  6
CONTINUOUS
 62
    47
 10
22.859589
 20
-67.725351
 40
0.1
 50
0.0
 51
90.0
  0
LINE
  8
別途部材
  6
CONTINUOUS
 62
    47
 10
22.859588
 20
-67.62535
 11
20.492922
 21
-67.62535
  0
LINE
  8
別途部材
  6
CONTINUOUS
 62
    47
 10
22.803067
 20
-69.292018
 11
22.803067
 21
-67.792018
  0
LINE
  8
別途部材
  6
DOT
 62
    47
 10
-46.820118
 20
-57.72535
 11
-46.820118
 21
-57.792018
  0
ARC
  8
別途部材
  6
DOT
 62
    47
 10
-46.72012
 20
-57.725351
 40
0.1
 50
90.0
 51
180.0
  0
LINE
  8
別途部材
  6
DOT
 62
    47
 10
-46.720118
 20
-57.62535
 11
-44.353453
 21
-57.62535
  0
LINE
  8
別途部材
  6
DOT
 62
    47
 10
-46.663598
 20
-59.292018
 11
-46.663598
 21
-57.792018
  0
LINE
  8
別途部材
  6
DOT
 62
    47
 10
22.959588
 20
-57.72535
 11
22.959588
 21
-57.792018
  0
ARC
  8
別途部材
  6
DOT
 62
    47
 10
22.859589
 20
-57.725351
 40
0.1
 50
0.0
 51
90.0
  0
LINE
  8
別途部材
  6
DOT
 62
    47
 10
22.859588
 20
-57.62535
 11
20.492922
 21
-57.62535
  0
LINE
  8
別途部材
  6
DOT
 62
    47
 10
22.803067
 20
-59.292018
 11
22.803067
 21
-57.792018
  0
LINE
  8
曲げ物
  6
CONTINUOUS
 10
116.489623
 20
-83.118728
 11
116.489623
 21
-53.785395
  0
LINE
  8
曲げ物
  6
CONTINUOUS
 10
-26.327345
 20
39.596287
 11
-30.022657
 21
35.900975
  0
LINE
  8
曲げ物
  6
CONTINUOUS
 10
-27.030815
 20
38.060177
 11
-28.486545
 21
36.604448
  0
LINE
  8
曲げ物
  6
CONTINUOUS
 10
-27.863455
 20
38.892817
 11
-29.319185
 21
37.437088
  0
LINE
  8
曲げ物
  6
CONTINUOUS
 10
7.679505
 20
39.596287
 11
3.984193
 21
35.900975
  0
LINE
  8
曲げ物
  6
CONTINUOUS
 10
6.976035
 20
38.060177
 11
5.520305
 21
36.604448
  0
LINE
  8
曲げ物
  6
CONTINUOUS
 10
6.143395
 20
38.892817
 11
4.687665
 21
37.437088
  0
LINE
  8
曲げ物
  6
CONTINUOUS
 10
84.072955
 20
-83.118728
 11
84.072955
 21
-53.785395
  0
LINE
  8
曲げ物
  6
CONTINUOUS
 10
116.489623
 20
-53.785395
 11
84.072955
 21
-53.785395
  0
LINE
  8
曲げ物
  6
CONTINUOUS
 10
116.489623
 20
-83.118728
 11
84.072955
 21
-83.118728
  0
ENDSEC
  0
EOF
