  0
SECTION
  2
HEADER
  9
$EXTMIN
 10
-210.0
 20
-148.5
  9
$EXTMAX
 10
210.0
 20
148.5
  9
$PDMODE
 70
    32
  9
$PDSIZE
 40
1.5
  9
$LTSCALE
 40
10.0
  0
ENDSEC
  0
SECTION
  2
TABLES
  0
TABLE
  2
LTYPE
 70
    15
  0
LTYPE
  2
CONTINUOUS
 70
    64
  3
実線
 72
    65
 73
     0
 40
0.0
  0
LTYPE
  2
DASHED
 70
    64
  3
破線A
 72
    65
 73
     2
 40
0.6
 49
0.4
 49
-0.2
  0
LTYPE
  2
DASHEDX2
 70
    64
  3
破線B
 72
    65
 73
     2
 40
1.3
 49
0.9
 49
-0.4
  0
LTYPE
  2
DASHDOT
 70
    64
  3
１点鎖線A
 72
    65
 73
     4
 40
0.5375
 49
0.375
 49
-0.05
 49
0.0625
 49
-0.05
  0
LTYPE
  2
DASHDOTX2
 70
    64
  3
１点鎖線B
 72
    65
 73
     4
 40
1.075
 49
0.75
 49
-0.1
 49
0.125
 49
-0.1
  0
LTYPE
  2
DIVIDE2
 70
    64
  3
２点鎖線A
 72
    65
 73
     6
 40
0.5125
 49
0.3
 49
-0.0375
 49
0.05
 49
-0.0375
 49
0.05
 49
-0.0375
  0
LTYPE
  2
DIVIDE
 70
    64
  3
２点鎖線B
 72
    65
 73
     6
 40
1.05
 49
0.55
 49
-0.1
 49
0.1
 49
-0.1
 49
0.1
 49
-0.1
  0
LTYPE
  2
DOT
 70
    64
  3
点線A
 72
    65
 73
     2
 40
0.1125
 49
0.0625
 49
-0.05
  0
LTYPE
  2
DOTX2
 70
    64
  3
点線B
 72
    65
 73
     2
 40
0.275
 49
0.15
 49
-0.125
  0
LTYPE
  2
CONTINUOUS
 70
    64
  3
実線
 72
    65
 73
     0
 40
0.0
  0
LTYPE
  2
CONTINUOUS
 70
    64
  3
実線
 72
    65
 73
     0
 40
0.0
  0
LTYPE
  2
CONTINUOUS
 70
    64
  3
実線
 72
    65
 73
     0
 40
0.0
  0
LTYPE
  2
CONTINUOUS
 70
    64
  3
実線
 72
    65
 73
     0
 40
0.0
  0
LTYPE
  2
CONTINUOUS
 70
    64
  3
実線
 72
    65
 73
     0
 40
0.0
  0
LTYPE
  2
CONTINUOUS
 70
    64
  3
実線
 72
    65
 73
     0
 40
0.0
  0
ENDTAB
  0
TABLE
  2
LAYER
 70
    34
  0
LAYER
  2
通り芯
 70
     0
 62
    15
  6
CONTINUOUS
  0
LAYER
  2
補助線
 70
     0
 62
    16
  6
DOT
  0
LAYER
  2
躯体
 70
     0
 62
    31
  6
CONTINUOUS
  0
LAYER
  2
型材
 70
     0
 62
    32
  6
CONTINUOUS
  0
LAYER
  2
型材断面
 70
     0
 62
    47
  6
CONTINUOUS
  0
LAYER
  2
ガラス
 70
     0
 62
    48
  6
CONTINUOUS
  0
LAYER
  2
ゴム等
 70
     0
 62
    63
  6
CONTINUOUS
  0
LAYER
  2
ボルト／ビス
 70
     0
 62
    64
  6
CONTINUOUS
  0
LAYER
  2
文字
 70
     0
 62
    79
  6
CONTINUOUS
  0
LAYER
  2
寸法
 70
     0
 62
    80
  6
CONTINUOUS
  0
LAYER
  2
ﾊｯﾁﾝｸﾞ
 70
     0
 62
    95
  6
CONTINUOUS
  0
LAYER
  2
別途部材
 70
     0
 62
    96
  6
CONTINUOUS
  0
LAYER
  2
曲げ物
 70
     0
 62
   111
  6
CONTINUOUS
  0
LAYER
  2
鉄骨等
 70
     0
 62
   112
  6
CONTINUOUS
  0
LAYER
  2
St
 70
     0
 62
   127
  6
CONTINUOUS
  0
LAYER
  2
その他部品等
 70
     0
 62
   128
  6
CONTINUOUS
  0
LAYER
  2
ｶﾞｽｹｯﾄ
 70
     0
 62
   143
  6
CONTINUOUS
  0
LAYER
  2
ｽｹｯﾁ
 70
     0
 62
    14
  6
CONTINUOUS
  0
LAYER
  2
0
 70
     0
 62
    17
  6
CONTINUOUS
  0
LAYER
  2
1
 70
     0
 62
    30
  6
CONTINUOUS
  0
LAYER
  2
4
 70
     0
 62
    33
  6
CONTINUOUS
  0
LAYER
  2
ﾚｲﾔ3
 70
     0
 62
    46
  6
CONTINUOUS
  0
LAYER
  2
外形線
 70
     0
 62
    49
  6
CONTINUOUS
  0
LAYER
  2
部品
 70
     0
 62
    14
  6
CONTINUOUS
  0
LAYER
  2
サッシ芯
 70
     0
 62
    17
  6
DASHDOTX2
  0
LAYER
  2
寸法線
 70
     0
 62
    62
  6
CONTINUOUS
  0
LAYER
  2
姿図外形線
 70
     0
 62
    65
  6
CONTINUOUS
  0
LAYER
  2
姿補助線
 70
     0
 62
    30
  6
CONTINUOUS
  0
LAYER
  2
透視線
 70
     0
 62
    78
  6
DOT
  0
LAYER
  2
用紙
 70
     0
 62
    81
  6
CONTINUOUS
  0
LAYER
  2
実線図枠
 70
     0
 62
    94
  6
CONTINUOUS
  0
LAYER
  2
補助図枠
 70
     0
 62
    97
  6
CONTINUOUS
  0
LAYER
  2
建具記号
 70
     0
 62
   110
  6
CONTINUOUS
  0
LAYER
  2
補助文字
 70
     0
 62
   113
  6
CONTINUOUS
  0
ENDTAB
  0
TABLE
  2
STYLE
 70
    10
  0
STYLE
  2
STANDARD
 70
     0
 40
1.0
 41
1.0
 42
1.0
 50
0.0
 71
     0
  3
TXT
  4
BIGFONT
  0
STYLE
  2
TATE
 70
     4
 40
1.0
 41
1.0
 42
1.0
 50
0.0
 71
     0
  3
TXT
  4
BIGFONT
  0
STYLE
  2
TextStyle03
 70
     0
 40
1.0
 41
1.0
 42
1.0
 50
0.0
 71
     0
  3
MONOTXT
  4
BIGFONT
  0
STYLE
  2
TextStyle04
 70
     0
 40
1.0
 41
1.0
 42
1.0
 50
0.0
 71
     0
  3
MONOTXT
  4
BIGFONT
  0
STYLE
  2
TextStyle05
 70
     0
 40
1.0
 41
1.0
 42
1.0
 50
0.0
 71
     0
  3
MONOTXT
  4
BIGFONT
  0
STYLE
  2
TextStyle06
 70
     0
 40
1.0
 41
1.0
 42
1.0
 50
0.0
 71
     0
  3
MONOTXT
  4
BIGFONT
  0
STYLE
  2
TextStyle07
 70
     0
 40
1.0
 41
1.0
 42
1.0
 50
0.0
 71
     0
  3
MONOTXT
  4
BIGFONT
  0
STYLE
  2
TextStyle08
 70
     0
 40
1.0
 41
1.0
 42
1.0
 50
0.0
 71
     0
  3
MONOTXT
  4
BIGFONT
  0
STYLE
  2
TextStyle09
 70
     0
 40
1.0
 41
1.0
 42
1.0
 50
0.0
 71
     0
  3
MONOTXT
  4
BIGFONT
  0
STYLE
  2
TextStyle10
 70
     0
 40
1.0
 41
1.0
 42
1.0
 50
0.0
 71
     0
  3
MONOTXT
  4
BIGFONT
  0
ENDTAB
  0
ENDSEC
  0
SECTION
  2
BLOCKS
  0
BLOCK
  2
*GRP_0001
 70
    65
 10
0.0
 20
0.0
  0
LINE
  8
型材断面
  6
CONTINUOUS
 10
195.0
 20
133.5
 11
195.0
 21
-133.5
  0
LINE
  8
型材断面
  6
CONTINUOUS
 10
195.0
 20
-133.5
 11
-185.0
 21
-133.5
  0
LINE
  8
型材断面
  6
CONTINUOUS
 10
-185.0
 20
-133.5
 11
-185.0
 21
133.5
  0
LINE
  8
型材断面
  6
CONTINUOUS
 10
195.0
 20
133.5
 11
-185.0
 21
133.5
  0
LINE
  8
型材断面
  6
CONTINUOUS
 10
145.0
 20
-133.5
 11
145.0
 21
-118.5
  0
LINE
  8
型材断面
  6
CONTINUOUS
 10
195.0
 20
-118.5
 11
145.0
 21
-118.5
  0
ENDBLK
  0
BLOCK
  2
*DIM_0002
 70
    65
 10
0.0
 20
0.0
  0
LINE
  8
寸法
  6
BYBLOCK
 62
     0
 10
-122.51245
 20
-13.511205
 11
-122.51245
 21
-13.121378
  0
LINE
  8
寸法
  6
BYBLOCK
 62
     0
 10
77.48755
 20
-13.121378
 11
-122.51245
 21
-13.121378
  0
POINT
  8
寸法
 62
     0
 10
77.48755
 20
-13.121378
  0
POINT
  8
寸法
 62
     0
 10
-122.51245
 20
-13.121378
  0
TEXT
  7
TextStyle03
  8
寸法
  6
CONTINUOUS
 62
     0
 10
-34.26875
 20
-12.75
  1
呼称寸法　6000
 40
3.0
 72
     5
 11
-10.83125
 21
-12.75
  0
ENDBLK
  0
BLOCK
  2
*DIM_0003
 70
    65
 10
0.0
 20
0.0
  0
LINE
  8
寸法
  6
BYBLOCK
 62
     0
 10
111.5072
 20
22.814033
 11
111.5072
 21
42.814033
  0
POINT
  8
寸法
 62
     0
 10
111.5072
 20
22.814033
  0
POINT
  8
寸法
 62
     0
 10
111.5072
 20
42.814033
  0
TEXT
  7
TextStyle03
  8
寸法
  6
CONTINUOUS
 62
     0
 10
111.1
 20
21.925
  1
呼称寸法　600
 40
3.0
 50
90.0
 72
     5
 11
111.1
 21
43.675
  0
ENDBLK
  0
BLOCK
  2
*DIM_0004
 70
    65
 10
0.0
 20
0.0
  0
LINE
  8
寸法
  6
BYBLOCK
 62
     0
 10
173.574105
 20
-63.785395
 11
181.685635
 21
-63.785395
  0
LINE
  8
寸法
  6
BYBLOCK
 62
     0
 10
173.574105
 20
-83.118728
 11
181.685635
 21
-83.118728
  0
LINE
  8
寸法
  6
BYBLOCK
 62
     0
 10
181.685635
 20
-63.785395
 11
181.685635
 21
-83.118728
  0
POINT
  8
寸法
 62
     0
 10
181.685635
 20
-63.785395
  0
POINT
  8
寸法
 62
     0
 10
181.685635
 20
-83.118728
  0
TEXT
  7
TextStyle03
  8
寸法
  6
CONTINUOUS
 62
     0
 10
181.275
 20
-75.9125
  1
580
 40
3.0
 50
90.0
 72
     5
 11
181.275
 21
-71.0375
  0
ENDBLK
  0
BLOCK
  2
*DIM_0005
 70
    65
 10
0.0
 20
0.0
  0
LINE
  8
寸法
  6
BYBLOCK
 62
     0
 10
-105.845783
 20
19.183902
 11
-105.845783
 21
13.963537
  0
LINE
  8
寸法
  6
BYBLOCK
 62
     0
 10
-22.51245
 20
19.183905
 11
-22.51245
 21
13.963537
  0
LINE
  8
寸法
  6
BYBLOCK
 62
     0
 10
-105.845783
 20
13.963537
 11
-22.51245
 21
13.963537
  0
POINT
  8
寸法
 62
     0
 10
-105.845783
 20
13.963537
  0
POINT
  8
寸法
 62
     0
 10
-22.51245
 20
13.963537
  0
TEXT
  7
TextStyle03
  8
寸法
  6
CONTINUOUS
 62
     0
 10
-67.48125
 20
14.325
  1
2500
 40
3.0
 72
     5
 11
-60.91875
 21
14.325
  0
ENDBLK
  0
BLOCK
  2
*DIM_0006
 70
    65
 10
0.0
 20
0.0
  0
LINE
  8
寸法
  6
BYBLOCK
 62
     0
 10
60.820882
 20
19.183902
 11
60.820882
 21
13.963537
  0
LINE
  8
寸法
  6
BYBLOCK
 62
     0
 10
-22.51245
 20
13.963537
 11
60.820882
 21
13.963537
  0
POINT
  8
寸法
 62
     0
 10
60.820882
 20
13.963537
  0
TEXT
  7
TextStyle03
  8
寸法
  6
CONTINUOUS
 62
     0
 10
15.86875
 20
14.325
  1
2500
 40
3.0
 72
     5
 11
22.43125
 21
14.325
  0
ENDBLK
  0
BLOCK
  2
*DIM_0007
 70
    65
 10
0.0
 20
0.0
  0
LINE
  8
寸法
  6
BYBLOCK
 62
     0
 10
78.48755
 20
42.814035
 11
88.211832
 21
42.814035
  0
LINE
  8
寸法
  6
BYBLOCK
 62
     0
 10
81.11768
 20
39.114035
 11
88.211832
 21
39.114035
  0
LINE
  8
寸法
  6
BYBLOCK
 62
     0
 10
88.211832
 20
42.814035
 11
88.211832
 21
39.114035
  0
POINT
  8
寸法
 62
     0
 10
88.211832
 20
42.814035
  0
POINT
  8
寸法
 62
     0
 10
88.211832
 20
39.114035
  0
TEXT
  7
TextStyle03
  8
寸法
  6
CONTINUOUS
 62
     0
 10
87.875
 20
43.8125
  1
111
 40
3.0
 50
90.0
 72
     5
 11
87.875
 21
48.6875
  0
ENDBLK
  0
BLOCK
  2
*DIM_0008
 70
    65
 10
0.0
 20
0.0
  0
LINE
  8
寸法
  6
BYBLOCK
 62
     0
 10
78.48755
 20
22.81403
 11
88.211832
 21
22.814027
  0
LINE
  8
寸法
  6
BYBLOCK
 62
     0
 10
81.11768
 20
26.51403
 11
88.211832
 21
26.514027
  0
LINE
  8
寸法
  6
BYBLOCK
 62
     0
 10
88.211832
 20
22.814027
 11
88.211832
 21
26.514027
  0
POINT
  8
寸法
 62
     0
 10
88.211832
 20
22.814027
  0
POINT
  8
寸法
 62
     0
 10
88.211832
 20
26.514027
  0
TEXT
  7
TextStyle03
  8
寸法
  6
CONTINUOUS
 62
     0
 10
88.2
 20
16.5625
  1
111
 40
3.0
 50
90.0
 72
     5
 11
88.2
 21
21.4375
  0
ENDBLK
  0
BLOCK
  2
*DIM_0009
 70
    65
 10
0.0
 20
0.0
  0
LINE
  8
寸法
  6
BYBLOCK
 62
     0
 10
165.397595
 20
44.79737
 11
111.5072
 21
44.79737
  0
LINE
  8
寸法
  6
BYBLOCK
 62
     0
 10
111.5072
 20
42.814033
 11
111.5072
 21
44.79737
  0
POINT
  8
寸法
 62
     0
 10
111.5072
 20
42.814033
  0
POINT
  8
寸法
 62
     0
 10
111.5072
 20
44.79737
  0
TEXT
  7
TextStyle03
  8
寸法
  6
CONTINUOUS
 62
     0
 10
111.075
 20
47.26875
  1
59.5
 40
3.0
 50
90.0
 72
     5
 11
111.075
 21
53.83125
  0
ENDBLK
  0
BLOCK
  2
*DIM_0010
 70
    65
 10
0.0
 20
0.0
  0
LINE
  8
寸法
  6
BYBLOCK
 62
     0
 10
165.397595
 20
20.830703
 11
111.5072
 21
20.830703
  0
LINE
  8
寸法
  6
BYBLOCK
 62
     0
 10
111.5072
 20
22.814033
 11
111.5072
 21
20.830703
  0
POINT
  8
寸法
 62
     0
 10
111.5072
 20
22.814033
  0
POINT
  8
寸法
 62
     0
 10
111.5072
 20
20.830703
  0
TEXT
  7
TextStyle03
  8
寸法
  6
CONTINUOUS
 62
     0
 10
111.075
 20
11.76875
  1
59.5
 40
3.0
 50
90.0
 72
     5
 11
111.075
 21
18.33125
  0
ENDBLK
  0
BLOCK
  2
*DIM_0011
 70
    65
 10
0.0
 20
0.0
  0
LINE
  8
寸法
  6
BYBLOCK
 62
     0
 10
79.470882
 20
-61.253063
 11
79.470882
 21
-13.121378
  0
LINE
  8
寸法
  6
BYBLOCK
 62
     0
 10
77.48755
 20
-13.121378
 11
79.470882
 21
-13.121378
  0
POINT
  8
寸法
 62
     0
 10
77.48755
 20
-13.121378
  0
POINT
  8
寸法
 62
     0
 10
79.470882
 20
-13.121378
  0
TEXT
  7
TextStyle03
  8
寸法
  6
CONTINUOUS
 62
     0
 10
81.94375
 20
-12.75
  1
59.5
 40
3.0
 72
     5
 11
88.50625
 21
-12.75
  0
ENDBLK
  0
BLOCK
  2
*DIM_0012
 70
    65
 10
0.0
 20
0.0
  0
LINE
  8
寸法
  6
BYBLOCK
 62
     0
 10
-124.495783
 20
-61.253063
 11
-124.495783
 21
-13.121378
  0
LINE
  8
寸法
  6
BYBLOCK
 62
     0
 10
-122.51245
 20
-13.121378
 11
-124.495783
 21
-13.121378
  0
POINT
  8
寸法
 62
     0
 10
-122.51245
 20
-13.121378
  0
POINT
  8
寸法
 62
     0
 10
-124.495783
 20
-13.121378
  0
TEXT
  7
TextStyle03
  8
寸法
  6
CONTINUOUS
 62
     0
 10
-133.55625
 20
-12.75
  1
59.5
 40
3.0
 72
     5
 11
-126.99375
 21
-12.75
  0
ENDBLK
  0
BLOCK
  2
*DIM_0013
 70
    65
 10
0.0
 20
0.0
  0
LINE
  8
寸法
  6
BYBLOCK
 62
     0
 10
-125.51245
 20
39.4807
 11
-138.805288
 21
39.4807
  0
LINE
  8
寸法
  6
BYBLOCK
 62
     0
 10
-125.51245
 20
26.147365
 11
-138.805288
 21
26.147365
  0
LINE
  8
寸法
  6
BYBLOCK
 62
     0
 10
-138.805288
 20
39.4807
 11
-138.805288
 21
26.147365
  0
POINT
  8
寸法
 62
     0
 10
-138.805288
 20
39.4807
  0
POINT
  8
寸法
 62
     0
 10
-138.805288
 20
26.147365
  0
TEXT
  7
TextStyle03
  8
寸法
  6
CONTINUOUS
 62
     0
 10
-139.175
 20
30.3625
  1
400
 40
3.0
 50
90.0
 72
     5
 11
-139.175
 21
35.2375
  0
ENDBLK
  0
BLOCK
  2
*DIM_0014
 70
    65
 10
0.0
 20
0.0
  0
LINE
  8
寸法
  6
BYBLOCK
 62
     0
 10
-115.845783
 20
45.814033
 11
-115.845783
 21
74.922105
  0
LINE
  8
寸法
  6
BYBLOCK
 62
     0
 10
-92.51245
 20
45.814033
 11
-92.51245
 21
74.922105
  0
LINE
  8
寸法
  6
BYBLOCK
 62
     0
 10
-115.845783
 20
74.922105
 11
-92.51245
 21
74.922105
  0
POINT
  8
寸法
 62
     0
 10
-115.845783
 20
74.922105
  0
POINT
  8
寸法
 62
     0
 10
-92.51245
 20
74.922105
  0
TEXT
  7
TextStyle03
  8
寸法
  6
CONTINUOUS
 62
     0
 10
-106.6125
 20
75.275
  1
700
 40
3.0
 72
     5
 11
-101.7375
 21
75.275
  0
ENDBLK
  0
BLOCK
  2
*DIM_0015
 70
    65
 10
0.0
 20
0.0
  0
LINE
  8
寸法
  6
BYBLOCK
 62
     0
 10
-69.179118
 20
45.814033
 11
-69.179118
 21
74.922105
  0
LINE
  8
寸法
  6
BYBLOCK
 62
     0
 10
-92.51245
 20
74.922105
 11
-69.179118
 21
74.922105
  0
POINT
  8
寸法
 62
     0
 10
-69.179118
 20
74.922105
  0
TEXT
  7
TextStyle03
  8
寸法
  6
CONTINUOUS
 62
     0
 10
-83.2875
 20
75.275
  1
700
 40
3.0
 72
     5
 11
-78.4125
 21
75.275
  0
ENDBLK
  0
BLOCK
  2
*DIM_0016
 70
    65
 10
0.0
 20
0.0
  0
LINE
  8
寸法
  6
BYBLOCK
 62
     0
 10
-45.845783
 20
45.814033
 11
-45.845783
 21
74.922105
  0
LINE
  8
寸法
  6
BYBLOCK
 62
     0
 10
-69.179118
 20
74.922105
 11
-45.845783
 21
74.922105
  0
POINT
  8
寸法
 62
     0
 10
-45.845783
 20
74.922105
  0
TEXT
  7
TextStyle03
  8
寸法
  6
CONTINUOUS
 62
     0
 10
-59.9375
 20
75.275
  1
700
 40
3.0
 72
     5
 11
-55.0625
 21
75.275
  0
ENDBLK
  0
BLOCK
  2
*DIM_0017
 70
    65
 10
0.0
 20
0.0
  0
LINE
  8
寸法
  6
BYBLOCK
 62
     0
 10
-22.51245
 20
45.814033
 11
-22.51245
 21
74.922105
  0
LINE
  8
寸法
  6
BYBLOCK
 62
     0
 10
-45.845783
 20
74.922105
 11
-22.51245
 21
74.922105
  0
POINT
  8
寸法
 62
     0
 10
-22.51245
 20
74.922105
  0
TEXT
  7
TextStyle03
  8
寸法
  6
CONTINUOUS
 62
     0
 10
-36.6125
 20
75.275
  1
700
 40
3.0
 72
     5
 11
-31.7375
 21
75.275
  0
ENDBLK
  0
BLOCK
  2
*DIM_0018
 70
    65
 10
0.0
 20
0.0
  0
LINE
  8
寸法
  6
BYBLOCK
 62
     0
 10
0.820882
 20
45.814033
 11
0.820882
 21
74.922105
  0
LINE
  8
寸法
  6
BYBLOCK
 62
     0
 10
-22.51245
 20
74.922105
 11
0.820882
 21
74.922105
  0
POINT
  8
寸法
 62
     0
 10
0.820882
 20
74.922105
  0
TEXT
  7
TextStyle03
  8
寸法
  6
CONTINUOUS
 62
     0
 10
-13.2875
 20
75.275
  1
700
 40
3.0
 72
     5
 11
-8.4125
 21
75.275
  0
ENDBLK
  0
BLOCK
  2
*DIM_0019
 70
    65
 10
0.0
 20
0.0
  0
LINE
  8
寸法
  6
BYBLOCK
 62
     0
 10
24.154218
 20
45.814033
 11
24.154218
 21
74.922105
  0
LINE
  8
寸法
  6
BYBLOCK
 62
     0
 10
0.820882
 20
74.922105
 11
24.154218
 21
74.922105
  0
POINT
  8
寸法
 62
     0
 10
24.154218
 20
74.922105
  0
TEXT
  7
TextStyle03
  8
寸法
  6
CONTINUOUS
 62
     0
 10
10.0625
 20
75.275
  1
700
 40
3.0
 72
     5
 11
14.9375
 21
75.275
  0
ENDBLK
  0
BLOCK
  2
*DIM_0020
 70
    65
 10
0.0
 20
0.0
  0
LINE
  8
寸法
  6
BYBLOCK
 62
     0
 10
47.48755
 20
45.814033
 11
47.48755
 21
74.922105
  0
LINE
  8
寸法
  6
BYBLOCK
 62
     0
 10
24.154218
 20
74.922105
 11
47.48755
 21
74.922105
  0
POINT
  8
寸法
 62
     0
 10
47.48755
 20
74.922105
  0
TEXT
  7
TextStyle03
  8
寸法
  6
CONTINUOUS
 62
     0
 10
33.3875
 20
75.275
  1
700
 40
3.0
 72
     5
 11
38.2625
 21
75.275
  0
ENDBLK
  0
BLOCK
  2
*DIM_0021
 70
    65
 10
0.0
 20
0.0
  0
LINE
  8
寸法
  6
BYBLOCK
 62
     0
 10
70.820882
 20
45.814033
 11
70.820882
 21
74.922105
  0
LINE
  8
寸法
  6
BYBLOCK
 62
     0
 10
47.48755
 20
74.922105
 11
70.820882
 21
74.922105
  0
POINT
  8
寸法
 62
     0
 10
70.820882
 20
74.922105
  0
TEXT
  7
TextStyle03
  8
寸法
  6
CONTINUOUS
 62
     0
 10
56.7125
 20
75.275
  1
700
 40
3.0
 72
     5
 11
61.5875
 21
75.275
  0
ENDBLK
  0
BLOCK
  2
*GRP_0022
 70
    65
 10
0.0
 20
0.0
  0
LINE
  8
補助線
  6
BYBLOCK
 62
    64
 10
-119.10465
 20
-74.177632
 11
-119.253575
 21
-74.252458
  0
LINE
  8
補助線
  6
BYBLOCK
 62
    64
 10
-119.216525
 20
-74.14058
 11
-119.1417
 21
-74.289508
  0
LINE
  8
補助線
  6
BYBLOCK
 62
    64
 10
-109.18617
 20
-69.194275
 11
-109.335098
 21
-69.2691
  0
LINE
  8
補助線
  6
BYBLOCK
 62
    64
 10
-109.298048
 20
-69.157222
 11
-109.223222
 21
-69.30615
  0
LINE
  8
補助線
  6
BYBLOCK
 62
    64
 10
-99.41662
 20
-64.285743
 11
-99.267692
 21
-64.210917
  0
LINE
  8
補助線
  6
BYBLOCK
 62
    64
 10
-99.37957
 20
-64.173865
 11
-99.304745
 21
-64.322793
  0
LINE
  8
型材断面
  6
CONTINUOUS
 10
-119.85109
 20
-73.620068
 11
-120.073393
 21
-74.29132
  0
LINE
  8
型材断面
  6
CONTINUOUS
 10
-120.073393
 20
-74.29132
 11
-119.77409
 21
-74.887025
  0
LINE
  8
型材断面
  6
CONTINUOUS
 10
-119.77409
 20
-74.887025
 11
-119.102837
 21
-75.109328
  0
LINE
  8
型材断面
  6
CONTINUOUS
 10
-99.418433
 20
-63.35405
 11
-98.747177
 21
-63.576353
  0
LINE
  8
型材断面
  6
CONTINUOUS
 10
-98.747177
 20
-63.576353
 11
-98.447875
 21
-64.172058
  0
LINE
  8
型材断面
  6
CONTINUOUS
 10
-98.447875
 20
-64.172058
 11
-98.67018
 21
-64.84331
  0
LINE
  8
型材断面
  6
CONTINUOUS
 10
-119.85109
 20
-73.620068
 11
-99.418433
 21
-63.35405
  0
LINE
  8
型材断面
  6
CONTINUOUS
 10
-119.102837
 20
-75.109328
 11
-98.67018
 21
-64.84331
  0
CIRCLE
  8
ボルト／ビス
  6
CONTINUOUS
 10
-119.179112
 20
-74.215045
 40
0.250185
  0
CIRCLE
  8
ボルト／ビス
  6
CONTINUOUS
 10
-119.179112
 20
-74.215045
 40
0.301025
  0
LINE
  8
ボルト／ビス
  6
CONTINUOUS
 62
    64
 10
-119.428878
 20
-74.200543
 11
-119.291432
 21
-73.991493
  0
LINE
  8
ボルト／ビス
  6
CONTINUOUS
 62
    64
 10
-119.041668
 20
-74.005995
 11
-119.291432
 21
-73.991493
  0
LINE
  8
ボルト／ビス
  6
CONTINUOUS
 62
    64
 10
-119.316558
 20
-74.424095
 11
-119.066792
 21
-74.438598
  0
LINE
  8
ボルト／ビス
  6
CONTINUOUS
 62
    64
 10
-118.929348
 20
-74.229547
 11
-119.066792
 21
-74.438598
  0
LINE
  8
ボルト／ビス
  6
CONTINUOUS
 62
    64
 10
-119.428878
 20
-74.200543
 11
-119.316558
 21
-74.424095
  0
LINE
  8
ボルト／ビス
  6
CONTINUOUS
 62
    64
 10
-119.041668
 20
-74.005995
 11
-118.929348
 21
-74.229547
  0
CIRCLE
  8
ボルト／ビス
  6
CONTINUOUS
 62
    64
 10
-119.179112
 20
-74.215045
 40
0.216668
  0
CIRCLE
  8
ボルト／ビス
  6
CONTINUOUS
 10
-109.260635
 20
-69.231688
 40
0.250185
  0
CIRCLE
  8
ボルト／ビス
  6
CONTINUOUS
 10
-109.260635
 20
-69.231688
 40
0.301025
  0
LINE
  8
ボルト／ビス
  6
CONTINUOUS
 62
    64
 10
-109.5104
 20
-69.217183
 11
-109.372955
 21
-69.008133
  0
LINE
  8
ボルト／ビス
  6
CONTINUOUS
 62
    64
 10
-109.12319
 20
-69.022635
 11
-109.372955
 21
-69.008133
  0
LINE
  8
ボルト／ビス
  6
CONTINUOUS
 62
    64
 10
-109.39808
 20
-69.440737
 11
-109.148312
 21
-69.455242
  0
LINE
  8
ボルト／ビス
  6
CONTINUOUS
 62
    64
 10
-109.01087
 20
-69.246192
 11
-109.148312
 21
-69.455242
  0
LINE
  8
ボルト／ビス
  6
CONTINUOUS
 62
    64
 10
-109.5104
 20
-69.217183
 11
-109.39808
 21
-69.440737
  0
LINE
  8
ボルト／ビス
  6
CONTINUOUS
 62
    64
 10
-109.12319
 20
-69.022635
 11
-109.01087
 21
-69.246192
  0
CIRCLE
  8
ボルト／ビス
  6
CONTINUOUS
 62
    64
 10
-109.260635
 20
-69.231688
 40
0.216668
  0
CIRCLE
  8
ボルト／ビス
  6
CONTINUOUS
 10
-99.342158
 20
-64.24833
 40
0.250185
  0
CIRCLE
  8
ボルト／ビス
  6
CONTINUOUS
 10
-99.342158
 20
-64.24833
 40
0.301025
  0
LINE
  8
ボルト／ビス
  6
CONTINUOUS
 62
    64
 10
-99.204712
 20
-64.03928
 11
-99.454478
 21
-64.024777
  0
LINE
  8
ボルト／ビス
  6
CONTINUOUS
 62
    64
 10
-99.591922
 20
-64.233828
 11
-99.454478
 21
-64.024777
  0
LINE
  8
ボルト／ビス
  6
CONTINUOUS
 62
    64
 10
-99.092393
 20
-64.262835
 11
-99.229835
 21
-64.471882
  0
LINE
  8
ボルト／ビス
  6
CONTINUOUS
 62
    64
 10
-99.479602
 20
-64.45738
 11
-99.229835
 21
-64.471882
  0
LINE
  8
ボルト／ビス
  6
CONTINUOUS
 62
    64
 10
-99.204712
 20
-64.03928
 11
-99.092393
 21
-64.262835
  0
LINE
  8
ボルト／ビス
  6
CONTINUOUS
 62
    64
 10
-99.591922
 20
-64.233828
 11
-99.479602
 21
-64.45738
  0
CIRCLE
  8
ボルト／ビス
  6
CONTINUOUS
 62
    64
 10
-99.342158
 20
-64.24833
 40
0.216668
  0
ENDBLK
  0
BLOCK
  2
*GRP_0023
 70
    65
 10
0.0
 20
0.0
  0
LINE
  8
補助線
  6
BYBLOCK
 62
    64
 10
-99.41662
 20
-74.177632
 11
-99.267695
 21
-74.252458
  0
LINE
  8
補助線
  6
BYBLOCK
 62
    64
 10
-99.304745
 20
-74.14058
 11
-99.37957
 21
-74.289508
  0
LINE
  8
補助線
  6
BYBLOCK
 62
    64
 10
-109.3351
 20
-69.194275
 11
-109.186172
 21
-69.2691
  0
LINE
  8
補助線
  6
BYBLOCK
 62
    64
 10
-109.223222
 20
-69.157222
 11
-109.298048
 21
-69.30615
  0
LINE
  8
補助線
  6
BYBLOCK
 62
    64
 10
-119.10465
 20
-64.285743
 11
-119.253578
 21
-64.210917
  0
LINE
  8
補助線
  6
BYBLOCK
 62
    64
 10
-119.1417
 20
-64.173865
 11
-119.216525
 21
-64.322793
  0
LINE
  8
型材断面
  6
CONTINUOUS
 10
-98.67018
 20
-73.620068
 11
-98.447877
 21
-74.29132
  0
LINE
  8
型材断面
  6
CONTINUOUS
 10
-98.447877
 20
-74.29132
 11
-98.74718
 21
-74.887025
  0
LINE
  8
型材断面
  6
CONTINUOUS
 10
-98.74718
 20
-74.887025
 11
-99.418433
 21
-75.109328
  0
LINE
  8
型材断面
  6
CONTINUOUS
 10
-119.102837
 20
-63.35405
 11
-119.774093
 21
-63.576353
  0
LINE
  8
型材断面
  6
CONTINUOUS
 10
-119.774093
 20
-63.576353
 11
-120.073395
 21
-64.172058
  0
LINE
  8
型材断面
  6
CONTINUOUS
 10
-120.073395
 20
-64.172058
 11
-119.85109
 21
-64.84331
  0
LINE
  8
型材断面
  6
CONTINUOUS
 10
-98.67018
 20
-73.620068
 11
-119.102837
 21
-63.35405
  0
LINE
  8
型材断面
  6
CONTINUOUS
 10
-99.418433
 20
-75.109328
 11
-119.85109
 21
-64.84331
  0
CIRCLE
  8
ボルト／ビス
  6
CONTINUOUS
 10
-99.342158
 20
-74.215045
 40
0.250185
  0
CIRCLE
  8
ボルト／ビス
  6
CONTINUOUS
 10
-99.342158
 20
-74.215045
 40
0.301025
  0
LINE
  8
ボルト／ビス
  6
CONTINUOUS
 62
    64
 10
-99.092393
 20
-74.200543
 11
-99.229838
 21
-73.991493
  0
LINE
  8
ボルト／ビス
  6
CONTINUOUS
 62
    64
 10
-99.479602
 20
-74.005995
 11
-99.229838
 21
-73.991493
  0
LINE
  8
ボルト／ビス
  6
CONTINUOUS
 62
    64
 10
-99.204712
 20
-74.424095
 11
-99.454478
 21
-74.438598
  0
LINE
  8
ボルト／ビス
  6
CONTINUOUS
 62
    64
 10
-99.591922
 20
-74.229547
 11
-99.454478
 21
-74.438598
  0
LINE
  8
ボルト／ビス
  6
CONTINUOUS
 62
    64
 10
-99.092393
 20
-74.200543
 11
-99.204712
 21
-74.424095
  0
LINE
  8
ボルト／ビス
  6
CONTINUOUS
 62
    64
 10
-99.479602
 20
-74.005995
 11
-99.591922
 21
-74.229547
  0
CIRCLE
  8
ボルト／ビス
  6
CONTINUOUS
 62
    64
 10
-99.342158
 20
-74.215045
 40
0.216668
  0
CIRCLE
  8
ボルト／ビス
  6
CONTINUOUS
 10
-109.260635
 20
-69.231688
 40
0.250185
  0
CIRCLE
  8
ボルト／ビス
  6
CONTINUOUS
 10
-109.260635
 20
-69.231688
 40
0.301025
  0
LINE
  8
ボルト／ビス
  6
CONTINUOUS
 62
    64
 10
-109.01087
 20
-69.217183
 11
-109.148315
 21
-69.008133
  0
LINE
  8
ボルト／ビス
  6
CONTINUOUS
 62
    64
 10
-109.39808
 20
-69.022635
 11
-109.148315
 21
-69.008133
  0
LINE
  8
ボルト／ビス
  6
CONTINUOUS
 62
    64
 10
-109.12319
 20
-69.440737
 11
-109.372958
 21
-69.455242
  0
LINE
  8
ボルト／ビス
  6
CONTINUOUS
 62
    64
 10
-109.5104
 20
-69.246192
 11
-109.372958
 21
-69.455242
  0
LINE
  8
ボルト／ビス
  6
CONTINUOUS
 62
    64
 10
-109.01087
 20
-69.217183
 11
-109.12319
 21
-69.440737
  0
LINE
  8
ボルト／ビス
  6
CONTINUOUS
 62
    64
 10
-109.39808
 20
-69.022635
 11
-109.5104
 21
-69.246192
  0
CIRCLE
  8
ボルト／ビス
  6
CONTINUOUS
 62
    64
 10
-109.260635
 20
-69.231688
 40
0.216668
  0
CIRCLE
  8
ボルト／ビス
  6
CONTINUOUS
 10
-119.179112
 20
-64.24833
 40
0.250185
  0
CIRCLE
  8
ボルト／ビス
  6
CONTINUOUS
 10
-119.179112
 20
-64.24833
 40
0.301025
  0
LINE
  8
ボルト／ビス
  6
CONTINUOUS
 62
    64
 10
-119.316558
 20
-64.03928
 11
-119.066792
 21
-64.024777
  0
LINE
  8
ボルト／ビス
  6
CONTINUOUS
 62
    64
 10
-118.929348
 20
-64.233828
 11
-119.066792
 21
-64.024777
  0
LINE
  8
ボルト／ビス
  6
CONTINUOUS
 62
    64
 10
-119.428878
 20
-64.262835
 11
-119.291435
 21
-64.471882
  0
LINE
  8
ボルト／ビス
  6
CONTINUOUS
 62
    64
 10
-119.041668
 20
-64.45738
 11
-119.291435
 21
-64.471882
  0
LINE
  8
ボルト／ビス
  6
CONTINUOUS
 62
    64
 10
-119.316558
 20
-64.03928
 11
-119.428878
 21
-64.262835
  0
LINE
  8
ボルト／ビス
  6
CONTINUOUS
 62
    64
 10
-118.929348
 20
-64.233828
 11
-119.041668
 21
-64.45738
  0
CIRCLE
  8
ボルト／ビス
  6
CONTINUOUS
 62
    64
 10
-119.179112
 20
-64.24833
 40
0.216668
  0
ENDBLK
  0
BLOCK
  2
*GRP_0024
 70
    65
 10
0.0
 20
0.0
  0
LINE
  8
補助線
  6
BYBLOCK
 62
    64
 10
74.07976
 20
-74.177632
 11
74.228685
 21
-74.252458
  0
LINE
  8
補助線
  6
BYBLOCK
 62
    64
 10
74.191635
 20
-74.14058
 11
74.11681
 21
-74.289508
  0
LINE
  8
補助線
  6
BYBLOCK
 62
    64
 10
64.16128
 20
-69.194275
 11
64.310208
 21
-69.2691
  0
LINE
  8
補助線
  6
BYBLOCK
 62
    64
 10
64.273157
 20
-69.157222
 11
64.198332
 21
-69.30615
  0
LINE
  8
補助線
  6
BYBLOCK
 62
    64
 10
54.39173
 20
-64.285743
 11
54.242802
 21
-64.210917
  0
LINE
  8
補助線
  6
BYBLOCK
 62
    64
 10
54.35468
 20
-64.173865
 11
54.279855
 21
-64.322793
  0
LINE
  8
型材断面
  6
CONTINUOUS
 10
74.8262
 20
-73.620068
 11
75.048502
 21
-74.29132
  0
LINE
  8
型材断面
  6
CONTINUOUS
 10
75.048502
 20
-74.29132
 11
74.7492
 21
-74.887025
  0
LINE
  8
型材断面
  6
CONTINUOUS
 10
74.7492
 20
-74.887025
 11
74.077947
 21
-75.109328
  0
LINE
  8
型材断面
  6
CONTINUOUS
 10
54.393542
 20
-63.35405
 11
53.722287
 21
-63.576353
  0
LINE
  8
型材断面
  6
CONTINUOUS
 10
53.722287
 20
-63.576353
 11
53.422985
 21
-64.172058
  0
LINE
  8
型材断面
  6
CONTINUOUS
 10
53.422985
 20
-64.172058
 11
53.64529
 21
-64.84331
  0
LINE
  8
型材断面
  6
CONTINUOUS
 10
74.8262
 20
-73.620068
 11
54.393542
 21
-63.35405
  0
LINE
  8
型材断面
  6
CONTINUOUS
 10
74.077947
 20
-75.109328
 11
53.64529
 21
-64.84331
  0
CIRCLE
  8
ボルト／ビス
  6
CONTINUOUS
 10
74.154222
 20
-74.215045
 40
0.250185
  0
CIRCLE
  8
ボルト／ビス
  6
CONTINUOUS
 10
74.154222
 20
-74.215045
 40
0.301025
  0
LINE
  8
ボルト／ビス
  6
CONTINUOUS
 62
    64
 10
74.403988
 20
-74.200543
 11
74.266542
 21
-73.991493
  0
LINE
  8
ボルト／ビス
  6
CONTINUOUS
 62
    64
 10
74.016777
 20
-74.005995
 11
74.266542
 21
-73.991493
  0
LINE
  8
ボルト／ビス
  6
CONTINUOUS
 62
    64
 10
74.291668
 20
-74.424095
 11
74.041902
 21
-74.438598
  0
LINE
  8
ボルト／ビス
  6
CONTINUOUS
 62
    64
 10
73.904457
 20
-74.229547
 11
74.041902
 21
-74.438598
  0
LINE
  8
ボルト／ビス
  6
CONTINUOUS
 62
    64
 10
74.403988
 20
-74.200543
 11
74.291668
 21
-74.424095
  0
LINE
  8
ボルト／ビス
  6
CONTINUOUS
 62
    64
 10
74.016777
 20
-74.005995
 11
73.904457
 21
-74.229547
  0
CIRCLE
  8
ボルト／ビス
  6
CONTINUOUS
 62
    64
 10
74.154222
 20
-74.215045
 40
0.216668
  0
CIRCLE
  8
ボルト／ビス
  6
CONTINUOUS
 10
64.235745
 20
-69.231688
 40
0.250185
  0
CIRCLE
  8
ボルト／ビス
  6
CONTINUOUS
 10
64.235745
 20
-69.231688
 40
0.301025
  0
LINE
  8
ボルト／ビス
  6
CONTINUOUS
 62
    64
 10
64.48551
 20
-69.217183
 11
64.348065
 21
-69.008133
  0
LINE
  8
ボルト／ビス
  6
CONTINUOUS
 62
    64
 10
64.0983
 20
-69.022635
 11
64.348065
 21
-69.008133
  0
LINE
  8
ボルト／ビス
  6
CONTINUOUS
 62
    64
 10
64.37319
 20
-69.440737
 11
64.123423
 21
-69.455242
  0
LINE
  8
ボルト／ビス
  6
CONTINUOUS
 62
    64
 10
63.98598
 20
-69.246192
 11
64.123423
 21
-69.455242
  0
LINE
  8
ボルト／ビス
  6
CONTINUOUS
 62
    64
 10
64.48551
 20
-69.217183
 11
64.37319
 21
-69.440737
  0
LINE
  8
ボルト／ビス
  6
CONTINUOUS
 62
    64
 10
64.0983
 20
-69.022635
 11
63.98598
 21
-69.246192
  0
CIRCLE
  8
ボルト／ビス
  6
CONTINUOUS
 62
    64
 10
64.235745
 20
-69.231688
 40
0.216668
  0
CIRCLE
  8
ボルト／ビス
  6
CONTINUOUS
 10
54.317267
 20
-64.24833
 40
0.250185
  0
CIRCLE
  8
ボルト／ビス
  6
CONTINUOUS
 10
54.317267
 20
-64.24833
 40
0.301025
  0
LINE
  8
ボルト／ビス
  6
CONTINUOUS
 62
    64
 10
54.179823
 20
-64.03928
 11
54.429587
 21
-64.024777
  0
LINE
  8
ボルト／ビス
  6
CONTINUOUS
 62
    64
 10
54.567032
 20
-64.233828
 11
54.429587
 21
-64.024777
  0
LINE
  8
ボルト／ビス
  6
CONTINUOUS
 62
    64
 10
54.067503
 20
-64.262835
 11
54.204945
 21
-64.471882
  0
LINE
  8
ボルト／ビス
  6
CONTINUOUS
 62
    64
 10
54.454712
 20
-64.45738
 11
54.204945
 21
-64.471882
  0
LINE
  8
ボルト／ビス
  6
CONTINUOUS
 62
    64
 10
54.179823
 20
-64.03928
 11
54.067503
 21
-64.262835
  0
LINE
  8
ボルト／ビス
  6
CONTINUOUS
 62
    64
 10
54.567032
 20
-64.233828
 11
54.454712
 21
-64.45738
  0
CIRCLE
  8
ボルト／ビス
  6
CONTINUOUS
 62
    64
 10
54.317267
 20
-64.24833
 40
0.216668
  0
ENDBLK
  0
BLOCK
  2
*GRP_0025
 70
    65
 10
0.0
 20
0.0
  0
LINE
  8
補助線
  6
BYBLOCK
 62
    64
 10
54.39173
 20
-74.177632
 11
54.242805
 21
-74.252458
  0
LINE
  8
補助線
  6
BYBLOCK
 62
    64
 10
54.279855
 20
-74.14058
 11
54.35468
 21
-74.289508
  0
LINE
  8
補助線
  6
BYBLOCK
 62
    64
 10
64.31021
 20
-69.194275
 11
64.161283
 21
-69.2691
  0
LINE
  8
補助線
  6
BYBLOCK
 62
    64
 10
64.198332
 20
-69.157222
 11
64.273157
 21
-69.30615
  0
LINE
  8
補助線
  6
BYBLOCK
 62
    64
 10
74.07976
 20
-64.285743
 11
74.228687
 21
-64.210917
  0
LINE
  8
補助線
  6
BYBLOCK
 62
    64
 10
74.11681
 20
-64.173865
 11
74.191635
 21
-64.322793
  0
LINE
  8
型材断面
  6
CONTINUOUS
 10
53.64529
 20
-73.620068
 11
53.422988
 21
-74.29132
  0
LINE
  8
型材断面
  6
CONTINUOUS
 10
53.422988
 20
-74.29132
 11
53.72229
 21
-74.887025
  0
LINE
  8
型材断面
  6
CONTINUOUS
 10
53.72229
 20
-74.887025
 11
54.393542
 21
-75.109328
  0
LINE
  8
型材断面
  6
CONTINUOUS
 10
74.077947
 20
-63.35405
 11
74.749202
 21
-63.576353
  0
LINE
  8
型材断面
  6
CONTINUOUS
 10
74.749202
 20
-63.576353
 11
75.048505
 21
-64.172058
  0
LINE
  8
型材断面
  6
CONTINUOUS
 10
75.048505
 20
-64.172058
 11
74.8262
 21
-64.84331
  0
LINE
  8
型材断面
  6
CONTINUOUS
 10
53.64529
 20
-73.620068
 11
74.077947
 21
-63.35405
  0
LINE
  8
型材断面
  6
CONTINUOUS
 10
54.393542
 20
-75.109328
 11
74.8262
 21
-64.84331
  0
CIRCLE
  8
ボルト／ビス
  6
CONTINUOUS
 10
54.317267
 20
-74.215045
 40
0.250185
  0
CIRCLE
  8
ボルト／ビス
  6
CONTINUOUS
 10
54.317267
 20
-74.215045
 40
0.301025
  0
LINE
  8
ボルト／ビス
  6
CONTINUOUS
 62
    64
 10
54.067503
 20
-74.200543
 11
54.204947
 21
-73.991493
  0
LINE
  8
ボルト／ビス
  6
CONTINUOUS
 62
    64
 10
54.454712
 20
-74.005995
 11
54.204947
 21
-73.991493
  0
LINE
  8
ボルト／ビス
  6
CONTINUOUS
 62
    64
 10
54.179823
 20
-74.424095
 11
54.429587
 21
-74.438598
  0
LINE
  8
ボルト／ビス
  6
CONTINUOUS
 62
    64
 10
54.567032
 20
-74.229547
 11
54.429587
 21
-74.438598
  0
LINE
  8
ボルト／ビス
  6
CONTINUOUS
 62
    64
 10
54.067503
 20
-74.200543
 11
54.179823
 21
-74.424095
  0
LINE
  8
ボルト／ビス
  6
CONTINUOUS
 62
    64
 10
54.454712
 20
-74.005995
 11
54.567032
 21
-74.229547
  0
CIRCLE
  8
ボルト／ビス
  6
CONTINUOUS
 62
    64
 10
54.317267
 20
-74.215045
 40
0.216668
  0
CIRCLE
  8
ボルト／ビス
  6
CONTINUOUS
 10
64.235745
 20
-69.231688
 40
0.250185
  0
CIRCLE
  8
ボルト／ビス
  6
CONTINUOUS
 10
64.235745
 20
-69.231688
 40
0.301025
  0
LINE
  8
ボルト／ビス
  6
CONTINUOUS
 62
    64
 10
63.98598
 20
-69.217183
 11
64.123425
 21
-69.008133
  0
LINE
  8
ボルト／ビス
  6
CONTINUOUS
 62
    64
 10
64.37319
 20
-69.022635
 11
64.123425
 21
-69.008133
  0
LINE
  8
ボルト／ビス
  6
CONTINUOUS
 62
    64
 10
64.0983
 20
-69.440737
 11
64.348068
 21
-69.455242
  0
LINE
  8
ボルト／ビス
  6
CONTINUOUS
 62
    64
 10
64.48551
 20
-69.246192
 11
64.348068
 21
-69.455242
  0
LINE
  8
ボルト／ビス
  6
CONTINUOUS
 62
    64
 10
63.98598
 20
-69.217183
 11
64.0983
 21
-69.440737
  0
LINE
  8
ボルト／ビス
  6
CONTINUOUS
 62
    64
 10
64.37319
 20
-69.022635
 11
64.48551
 21
-69.246192
  0
CIRCLE
  8
ボルト／ビス
  6
CONTINUOUS
 62
    64
 10
64.235745
 20
-69.231688
 40
0.216668
  0
CIRCLE
  8
ボルト／ビス
  6
CONTINUOUS
 10
74.154222
 20
-64.24833
 40
0.250185
  0
CIRCLE
  8
ボルト／ビス
  6
CONTINUOUS
 10
74.154222
 20
-64.24833
 40
0.301025
  0
LINE
  8
ボルト／ビス
  6
CONTINUOUS
 62
    64
 10
74.291668
 20
-64.03928
 11
74.041902
 21
-64.024777
  0
LINE
  8
ボルト／ビス
  6
CONTINUOUS
 62
    64
 10
73.904457
 20
-64.233828
 11
74.041902
 21
-64.024777
  0
LINE
  8
ボルト／ビス
  6
CONTINUOUS
 62
    64
 10
74.403988
 20
-64.262835
 11
74.266545
 21
-64.471882
  0
LINE
  8
ボルト／ビス
  6
CONTINUOUS
 62
    64
 10
74.016777
 20
-64.45738
 11
74.266545
 21
-64.471882
  0
LINE
  8
ボルト／ビス
  6
CONTINUOUS
 62
    64
 10
74.291668
 20
-64.03928
 11
74.403988
 21
-64.262835
  0
LINE
  8
ボルト／ビス
  6
CONTINUOUS
 62
    64
 10
73.904457
 20
-64.233828
 11
74.016777
 21
-64.45738
  0
CIRCLE
  8
ボルト／ビス
  6
CONTINUOUS
 62
    64
 10
74.154222
 20
-64.24833
 40
0.216668
  0
ENDBLK
  0
BLOCK
  2
*GRP_0026
 70
    65
 10
0.0
 20
0.0
  0
LINE
  8
補助線
  6
BYBLOCK
 62
    64
 10
-12.66843
 20
-74.177632
 11
-12.519505
 21
-74.252458
  0
LINE
  8
補助線
  6
BYBLOCK
 62
    64
 10
-12.556555
 20
-74.14058
 11
-12.63138
 21
-74.289508
  0
LINE
  8
補助線
  6
BYBLOCK
 62
    64
 10
-22.58691
 20
-69.194275
 11
-22.437982
 21
-69.2691
  0
LINE
  8
補助線
  6
BYBLOCK
 62
    64
 10
-22.475032
 20
-69.157222
 11
-22.549857
 21
-69.30615
  0
LINE
  8
補助線
  6
BYBLOCK
 62
    64
 10
-32.35646
 20
-64.285743
 11
-32.505387
 21
-64.210917
  0
LINE
  8
補助線
  6
BYBLOCK
 62
    64
 10
-32.39351
 20
-64.173865
 11
-32.468335
 21
-64.322793
  0
LINE
  8
型材断面
  6
CONTINUOUS
 10
-11.92199
 20
-73.620068
 11
-11.699687
 21
-74.29132
  0
LINE
  8
型材断面
  6
CONTINUOUS
 10
-11.699687
 20
-74.29132
 11
-11.99899
 21
-74.887025
  0
LINE
  8
型材断面
  6
CONTINUOUS
 10
-11.99899
 20
-74.887025
 11
-12.670243
 21
-75.109328
  0
LINE
  8
型材断面
  6
CONTINUOUS
 10
-32.354648
 20
-63.35405
 11
-33.025903
 21
-63.576353
  0
LINE
  8
型材断面
  6
CONTINUOUS
 10
-33.025903
 20
-63.576353
 11
-33.325205
 21
-64.172058
  0
LINE
  8
型材断面
  6
CONTINUOUS
 10
-33.325205
 20
-64.172058
 11
-33.1029
 21
-64.84331
  0
LINE
  8
型材断面
  6
CONTINUOUS
 10
-11.92199
 20
-73.620068
 11
-32.354648
 21
-63.35405
  0
LINE
  8
型材断面
  6
CONTINUOUS
 10
-12.670243
 20
-75.109328
 11
-33.1029
 21
-64.84331
  0
CIRCLE
  8
ボルト／ビス
  6
CONTINUOUS
 10
-12.593967
 20
-74.215045
 40
0.250185
  0
CIRCLE
  8
ボルト／ビス
  6
CONTINUOUS
 10
-12.593967
 20
-74.215045
 40
0.301025
  0
LINE
  8
ボルト／ビス
  6
CONTINUOUS
 62
    64
 10
-12.344203
 20
-74.200543
 11
-12.481647
 21
-73.991493
  0
LINE
  8
ボルト／ビス
  6
CONTINUOUS
 62
    64
 10
-12.731412
 20
-74.005995
 11
-12.481647
 21
-73.991493
  0
LINE
  8
ボルト／ビス
  6
CONTINUOUS
 62
    64
 10
-12.456523
 20
-74.424095
 11
-12.706287
 21
-74.438598
  0
LINE
  8
ボルト／ビス
  6
CONTINUOUS
 62
    64
 10
-12.843732
 20
-74.229547
 11
-12.706287
 21
-74.438598
  0
LINE
  8
ボルト／ビス
  6
CONTINUOUS
 62
    64
 10
-12.344203
 20
-74.200543
 11
-12.456523
 21
-74.424095
  0
LINE
  8
ボルト／ビス
  6
CONTINUOUS
 62
    64
 10
-12.731412
 20
-74.005995
 11
-12.843732
 21
-74.229547
  0
CIRCLE
  8
ボルト／ビス
  6
CONTINUOUS
 62
    64
 10
-12.593967
 20
-74.215045
 40
0.216668
  0
CIRCLE
  8
ボルト／ビス
  6
CONTINUOUS
 10
-22.512445
 20
-69.231688
 40
0.250185
  0
CIRCLE
  8
ボルト／ビス
  6
CONTINUOUS
 10
-22.512445
 20
-69.231688
 40
0.301025
  0
LINE
  8
ボルト／ビス
  6
CONTINUOUS
 62
    64
 10
-22.26268
 20
-69.217183
 11
-22.400125
 21
-69.008133
  0
LINE
  8
ボルト／ビス
  6
CONTINUOUS
 62
    64
 10
-22.64989
 20
-69.022635
 11
-22.400125
 21
-69.008133
  0
LINE
  8
ボルト／ビス
  6
CONTINUOUS
 62
    64
 10
-22.375
 20
-69.440737
 11
-22.624767
 21
-69.455242
  0
LINE
  8
ボルト／ビス
  6
CONTINUOUS
 62
    64
 10
-22.76221
 20
-69.246192
 11
-22.624767
 21
-69.455242
  0
LINE
  8
ボルト／ビス
  6
CONTINUOUS
 62
    64
 10
-22.26268
 20
-69.217183
 11
-22.375
 21
-69.440737
  0
LINE
  8
ボルト／ビス
  6
CONTINUOUS
 62
    64
 10
-22.64989
 20
-69.022635
 11
-22.76221
 21
-69.246192
  0
CIRCLE
  8
ボルト／ビス
  6
CONTINUOUS
 62
    64
 10
-22.512445
 20
-69.231688
 40
0.216668
  0
CIRCLE
  8
ボルト／ビス
  6
CONTINUOUS
 10
-32.430922
 20
-64.24833
 40
0.250185
  0
CIRCLE
  8
ボルト／ビス
  6
CONTINUOUS
 10
-32.430922
 20
-64.24833
 40
0.301025
  0
LINE
  8
ボルト／ビス
  6
CONTINUOUS
 62
    64
 10
-32.568368
 20
-64.03928
 11
-32.318602
 21
-64.024777
  0
LINE
  8
ボルト／ビス
  6
CONTINUOUS
 62
    64
 10
-32.181157
 20
-64.233828
 11
-32.318602
 21
-64.024777
  0
LINE
  8
ボルト／ビス
  6
CONTINUOUS
 62
    64
 10
-32.680688
 20
-64.262835
 11
-32.543245
 21
-64.471882
  0
LINE
  8
ボルト／ビス
  6
CONTINUOUS
 62
    64
 10
-32.293477
 20
-64.45738
 11
-32.543245
 21
-64.471882
  0
LINE
  8
ボルト／ビス
  6
CONTINUOUS
 62
    64
 10
-32.568368
 20
-64.03928
 11
-32.680688
 21
-64.262835
  0
LINE
  8
ボルト／ビス
  6
CONTINUOUS
 62
    64
 10
-32.181157
 20
-64.233828
 11
-32.293477
 21
-64.45738
  0
CIRCLE
  8
ボルト／ビス
  6
CONTINUOUS
 62
    64
 10
-32.430922
 20
-64.24833
 40
0.216668
  0
ENDBLK
  0
BLOCK
  2
*GRP_0027
 70
    65
 10
0.0
 20
0.0
  0
LINE
  8
補助線
  6
BYBLOCK
 62
    64
 10
-32.35646
 20
-74.177632
 11
-32.505385
 21
-74.252458
  0
LINE
  8
補助線
  6
BYBLOCK
 62
    64
 10
-32.468335
 20
-74.14058
 11
-32.39351
 21
-74.289508
  0
LINE
  8
補助線
  6
BYBLOCK
 62
    64
 10
-22.43798
 20
-69.194275
 11
-22.586907
 21
-69.2691
  0
LINE
  8
補助線
  6
BYBLOCK
 62
    64
 10
-22.549857
 20
-69.157222
 11
-22.475032
 21
-69.30615
  0
LINE
  8
補助線
  6
BYBLOCK
 62
    64
 10
-12.66843
 20
-64.285743
 11
-12.519502
 21
-64.210917
  0
LINE
  8
補助線
  6
BYBLOCK
 62
    64
 10
-12.63138
 20
-64.173865
 11
-12.556555
 21
-64.322793
  0
LINE
  8
型材断面
  6
CONTINUOUS
 10
-33.1029
 20
-73.620068
 11
-33.325202
 21
-74.29132
  0
LINE
  8
型材断面
  6
CONTINUOUS
 10
-33.325202
 20
-74.29132
 11
-33.0259
 21
-74.887025
  0
LINE
  8
型材断面
  6
CONTINUOUS
 10
-33.0259
 20
-74.887025
 11
-32.354648
 21
-75.109328
  0
LINE
  8
型材断面
  6
CONTINUOUS
 10
-12.670243
 20
-63.35405
 11
-11.998988
 21
-63.576353
  0
LINE
  8
型材断面
  6
CONTINUOUS
 10
-11.998988
 20
-63.576353
 11
-11.699685
 21
-64.172058
  0
LINE
  8
型材断面
  6
CONTINUOUS
 10
-11.699685
 20
-64.172058
 11
-11.92199
 21
-64.84331
  0
LINE
  8
型材断面
  6
CONTINUOUS
 10
-33.1029
 20
-73.620068
 11
-12.670243
 21
-63.35405
  0
LINE
  8
型材断面
  6
CONTINUOUS
 10
-32.354648
 20
-75.109328
 11
-11.92199
 21
-64.84331
  0
CIRCLE
  8
ボルト／ビス
  6
CONTINUOUS
 10
-32.430922
 20
-74.215045
 40
0.250185
  0
CIRCLE
  8
ボルト／ビス
  6
CONTINUOUS
 10
-32.430922
 20
-74.215045
 40
0.301025
  0
LINE
  8
ボルト／ビス
  6
CONTINUOUS
 62
    64
 10
-32.680688
 20
-74.200543
 11
-32.543242
 21
-73.991493
  0
LINE
  8
ボルト／ビス
  6
CONTINUOUS
 62
    64
 10
-32.293477
 20
-74.005995
 11
-32.543242
 21
-73.991493
  0
LINE
  8
ボルト／ビス
  6
CONTINUOUS
 62
    64
 10
-32.568368
 20
-74.424095
 11
-32.318602
 21
-74.438598
  0
LINE
  8
ボルト／ビス
  6
CONTINUOUS
 62
    64
 10
-32.181157
 20
-74.229547
 11
-32.318602
 21
-74.438598
  0
LINE
  8
ボルト／ビス
  6
CONTINUOUS
 62
    64
 10
-32.680688
 20
-74.200543
 11
-32.568368
 21
-74.424095
  0
LINE
  8
ボルト／ビス
  6
CONTINUOUS
 62
    64
 10
-32.293477
 20
-74.005995
 11
-32.181157
 21
-74.229547
  0
CIRCLE
  8
ボルト／ビス
  6
CONTINUOUS
 62
    64
 10
-32.430922
 20
-74.215045
 40
0.216668
  0
CIRCLE
  8
ボルト／ビス
  6
CONTINUOUS
 10
-22.512445
 20
-69.231688
 40
0.250185
  0
CIRCLE
  8
ボルト／ビス
  6
CONTINUOUS
 10
-22.512445
 20
-69.231688
 40
0.301025
  0
LINE
  8
ボルト／ビス
  6
CONTINUOUS
 62
    64
 10
-22.76221
 20
-69.217183
 11
-22.624765
 21
-69.008133
  0
LINE
  8
ボルト／ビス
  6
CONTINUOUS
 62
    64
 10
-22.375
 20
-69.022635
 11
-22.624765
 21
-69.008133
  0
LINE
  8
ボルト／ビス
  6
CONTINUOUS
 62
    64
 10
-22.64989
 20
-69.440737
 11
-22.400122
 21
-69.455242
  0
LINE
  8
ボルト／ビス
  6
CONTINUOUS
 62
    64
 10
-22.26268
 20
-69.246192
 11
-22.400122
 21
-69.455242
  0
LINE
  8
ボルト／ビス
  6
CONTINUOUS
 62
    64
 10
-22.76221
 20
-69.217183
 11
-22.64989
 21
-69.440737
  0
LINE
  8
ボルト／ビス
  6
CONTINUOUS
 62
    64
 10
-22.375
 20
-69.022635
 11
-22.26268
 21
-69.246192
  0
CIRCLE
  8
ボルト／ビス
  6
CONTINUOUS
 62
    64
 10
-22.512445
 20
-69.231688
 40
0.216668
  0
CIRCLE
  8
ボルト／ビス
  6
CONTINUOUS
 10
-12.593967
 20
-64.24833
 40
0.250185
  0
CIRCLE
  8
ボルト／ビス
  6
CONTINUOUS
 10
-12.593967
 20
-64.24833
 40
0.301025
  0
LINE
  8
ボルト／ビス
  6
CONTINUOUS
 62
    64
 10
-12.456523
 20
-64.03928
 11
-12.706287
 21
-64.024777
  0
LINE
  8
ボルト／ビス
  6
CONTINUOUS
 62
    64
 10
-12.843732
 20
-64.233828
 11
-12.706287
 21
-64.024777
  0
LINE
  8
ボルト／ビス
  6
CONTINUOUS
 62
    64
 10
-12.344203
 20
-64.262835
 11
-12.481645
 21
-64.471882
  0
LINE
  8
ボルト／ビス
  6
CONTINUOUS
 62
    64
 10
-12.731412
 20
-64.45738
 11
-12.481645
 21
-64.471882
  0
LINE
  8
ボルト／ビス
  6
CONTINUOUS
 62
    64
 10
-12.456523
 20
-64.03928
 11
-12.344203
 21
-64.262835
  0
LINE
  8
ボルト／ビス
  6
CONTINUOUS
 62
    64
 10
-12.843732
 20
-64.233828
 11
-12.731412
 21
-64.45738
  0
CIRCLE
  8
ボルト／ビス
  6
CONTINUOUS
 62
    64
 10
-12.593967
 20
-64.24833
 40
0.216668
  0
ENDBLK
  0
BLOCK
  2
*DIM_0028
 70
    65
 10
0.0
 20
0.0
  0
LINE
  8
寸法
  6
CONTINUOUS
 10
90.722795
 20
-68.638328
 11
90.722795
 21
-76.288378
  0
POINT
  8
寸法
 10
90.722795
 20
-68.638328
  0
POINT
  8
寸法
 10
90.722795
 20
-76.288378
  0
TEXT
  7
TextStyle03
  8
寸法
  6
CONTINUOUS
 10
94.8
 20
-76.625
  1
229.5
 40
3.0
 50
90.0
 72
     5
 11
94.8
 21
-68.375
  0
ENDBLK
  0
BLOCK
  2
*DIM_0029
 70
    65
 10
0.0
 20
0.0
  0
LINE
  8
寸法
  6
CONTINUOUS
 10
172.574105
 20
-56.459903
 11
140.324105
 21
-56.459903
  0
POINT
  8
寸法
 10
172.574105
 20
-56.459903
  0
POINT
  8
寸法
 10
140.324105
 20
-56.459903
  0
TEXT
  7
TextStyle03
  8
寸法
  6
CONTINUOUS
 10
152.3
 20
-56.1
  1
967.5
 40
3.0
 72
     5
 11
160.55
 21
-56.1
  0
ENDBLK
  0
BLOCK
  2
*DIM_0030
 70
    65
 10
0.0
 20
0.0
  0
LINE
  8
寸法
  6
CONTINUOUS
 10
165.672107
 20
56.049278
 11
173.322157
 21
56.049278
  0
POINT
  8
寸法
 10
165.672107
 20
56.049278
  0
POINT
  8
寸法
 10
173.322157
 20
56.049278
  0
TEXT
  7
TextStyle03
  8
寸法
  6
CONTINUOUS
 10
165.4
 20
56.4
  1
229.5
 40
3.0
 72
     5
 11
173.65
 21
56.4
  0
ENDBLK
  0
BLOCK
  2
*DIM_0031
 70
    65
 10
0.0
 20
0.0
  0
LINE
  8
寸法
  6
BYBLOCK
 62
     0
 10
90.722795
 20
-68.638328
 11
90.722795
 21
-61.304995
  0
POINT
  8
寸法
 62
     0
 10
90.722795
 20
-68.638328
  0
POINT
  8
寸法
 62
     0
 10
90.722795
 20
-61.304995
  0
TEXT
  7
TextStyle03
  8
寸法
  6
CONTINUOUS
 62
     0
 10
90.275
 20
-59.49375
  1
上昇212以上
 40
3.0
 50
90.0
 72
     5
 11
90.275
 21
-41.30625
  0
ENDBLK
  0
ENDSEC
  0
SECTION
  2
ENTITIES
  0
POLYLINE
  8
通り芯
  6
CONTINUOUS
 66
     1
 70
     1
  0
VERTEX
  8
通り芯
 10
-210.0
 20
-148.5
  0
VERTEX
  8
通り芯
 10
210.0
 20
-148.5
  0
VERTEX
  8
通り芯
 10
210.0
 20
148.5
  0
VERTEX
  8
通り芯
 10
-210.0
 20
148.5
  0
SEQEND
  0
INSERT
  2
*GRP_0001
  8
型材断面
  6
CONTINUOUS
 10
0.0
 20
0.0
  0
LINE
  8
型材断面
  6
DASHDOT
 10
175.164313
 20
22.814033
 11
-122.51245
 21
22.814033
  0
POLYLINE
  8
型材断面
  6
CONTINUOUS
 66
     1
 70
     1
  0
VERTEX
  8
型材断面
 10
-12.741788
 20
13.03811
  0
VERTEX
  8
型材断面
 10
-31.513717
 20
13.03811
  0
VERTEX
  8
型材断面
 10
-31.513717
 20
8.301267
  0
VERTEX
  8
型材断面
 10
-12.741788
 20
8.301267
  0
SEQEND
  0
LINE
  8
型材断面
  6
DASHDOT
 10
175.164313
 20
32.814033
 11
-122.51245
 21
32.814033
  0
LINE
  8
型材断面
  6
DASHDOT
 10
175.164313
 20
42.814033
 11
-122.51245
 21
42.814033
  0
LINE
  8
型材断面
  6
DASHDOT
 10
-22.51245
 20
-77.836442
 11
-22.51245
 21
42.814033
  0
LINE
  8
型材断面
  6
DASHDOT
 10
-122.51245
 20
-77.836442
 11
-122.51245
 21
42.814033
  0
LINE
  8
型材断面
  6
DASHDOT
 10
77.48755
 20
-77.836442
 11
77.48755
 21
42.814033
  0
POLYLINE
  8
型材断面
  6
CONTINUOUS
 66
     1
 70
     1
  0
VERTEX
  8
型材断面
 10
-12.741788
 20
52.589955
  0
VERTEX
  8
型材断面
 10
-31.513717
 20
52.589955
  0
VERTEX
  8
型材断面
 10
-31.513717
 20
57.326798
  0
VERTEX
  8
型材断面
 10
-12.741788
 20
57.326798
  0
SEQEND
  0
LINE
  8
型材断面
  6
CONTINUOUS
 10
-105.845783
 20
45.444162
 11
-107.341413
 21
48.03467
  0
LINE
  8
型材断面
  6
CONTINUOUS
 10
-105.845783
 20
45.444162
 11
-104.350152
 21
48.03467
  0
LINE
  8
型材断面
  6
CONTINUOUS
 10
-104.350152
 20
48.03467
 11
-107.341413
 21
48.03467
  0
LINE
  8
型材断面
  6
CONTINUOUS
 10
-163.364657
 20
80.791505
 11
-162.768602
 21
78.200998
  0
LINE
  8
型材断面
  6
CONTINUOUS
 10
-163.364657
 20
80.791505
 11
-163.960715
 21
78.200998
  0
LINE
  8
型材断面
  6
CONTINUOUS
 10
-163.960715
 20
78.200998
 11
-162.768602
 21
78.200998
  0
LINE
  8
型材断面
  6
CONTINUOUS
 10
-169.387245
 20
74.922105
 11
-123.145468
 21
74.922105
  0
LINE
  8
型材断面
  6
CONTINUOUS
 10
-163.364657
 20
87.32138
 11
-164.860287
 21
84.730873
  0
LINE
  8
型材断面
  6
CONTINUOUS
 10
-163.364657
 20
87.32138
 11
-161.869027
 21
84.730873
  0
LINE
  8
型材断面
  6
CONTINUOUS
 10
-161.869027
 20
84.730873
 11
-164.860287
 21
84.730873
  0
LINE
  8
型材断面
  6
CONTINUOUS
 10
-169.387245
 20
83.792277
 11
-123.145468
 21
83.792277
  0
LINE
  8
型材断面
  6
CONTINUOUS
 10
-169.387245
 20
69.134073
 11
-123.145468
 21
69.134073
  0
LINE
  8
型材断面
  6
CONTINUOUS
 10
60.820882
 20
45.444162
 11
62.316512
 21
48.03467
  0
LINE
  8
型材断面
  6
CONTINUOUS
 10
60.820882
 20
45.444162
 11
59.325252
 21
48.03467
  0
LINE
  8
型材断面
  6
CONTINUOUS
 10
59.325252
 20
48.03467
 11
62.316512
 21
48.03467
  0
LINE
  8
型材断面
  6
CONTINUOUS
 10
-125.14258
 20
32.814033
 11
-127.733087
 21
34.309663
  0
LINE
  8
型材断面
  6
CONTINUOUS
 10
-125.14258
 20
32.814033
 11
-127.733087
 21
31.318403
  0
LINE
  8
型材断面
  6
CONTINUOUS
 10
-127.733087
 20
31.318403
 11
-127.733087
 21
34.309663
  0
LINE
  8
型材断面
  6
CONTINUOUS
 10
-22.51245
 20
45.44416
 11
-24.00808
 21
48.034668
  0
LINE
  8
型材断面
  6
CONTINUOUS
 10
-22.51245
 20
45.44416
 11
-21.01682
 21
48.034668
  0
LINE
  8
型材断面
  6
CONTINUOUS
 10
-21.01682
 20
48.034668
 11
-24.00808
 21
48.034668
  0
LINE
  8
型材断面
  6
CONTINUOUS
 10
-105.845783
 20
20.183902
 11
-107.341413
 21
17.593395
  0
LINE
  8
型材断面
  6
CONTINUOUS
 10
-105.845783
 20
20.183902
 11
-104.350152
 21
17.593395
  0
LINE
  8
型材断面
  6
CONTINUOUS
 10
-104.350152
 20
17.593395
 11
-107.341413
 21
17.593395
  0
LINE
  8
型材断面
  6
CONTINUOUS
 10
60.820882
 20
20.183902
 11
62.316512
 21
17.593395
  0
LINE
  8
型材断面
  6
CONTINUOUS
 10
60.820882
 20
20.183902
 11
59.325252
 21
17.593395
  0
LINE
  8
型材断面
  6
CONTINUOUS
 10
59.325252
 20
17.593395
 11
62.316512
 21
17.593395
  0
LINE
  8
型材断面
  6
CONTINUOUS
 10
-22.51245
 20
20.183905
 11
-24.00808
 21
17.593397
  0
LINE
  8
型材断面
  6
CONTINUOUS
 10
-22.51245
 20
20.183905
 11
-21.01682
 21
17.593397
  0
LINE
  8
型材断面
  6
CONTINUOUS
 10
-21.01682
 20
17.593397
 11
-24.00808
 21
17.593397
  0
LINE
  8
型材断面
  6
CONTINUOUS
 10
80.11768
 20
32.814033
 11
82.708187
 21
34.309663
  0
LINE
  8
型材断面
  6
CONTINUOUS
 10
80.11768
 20
32.814033
 11
82.708187
 21
31.318403
  0
LINE
  8
型材断面
  6
CONTINUOUS
 10
82.708187
 20
31.318403
 11
82.708187
 21
34.309663
  0
LINE
  8
型材断面
  6
CONTINUOUS
 10
80.11768
 20
39.114035
 11
82.70819
 21
38.517982
  0
LINE
  8
型材断面
  6
CONTINUOUS
 10
80.11768
 20
39.114035
 11
82.708187
 21
39.710095
  0
LINE
  8
型材断面
  6
CONTINUOUS
 10
82.708187
 20
39.710095
 11
82.70819
 21
38.517982
  0
LINE
  8
型材断面
  6
CONTINUOUS
 10
80.11768
 20
26.51403
 11
82.70819
 21
27.110082
  0
LINE
  8
型材断面
  6
CONTINUOUS
 10
80.11768
 20
26.51403
 11
82.708187
 21
25.91797
  0
LINE
  8
型材断面
  6
CONTINUOUS
 10
82.708187
 20
25.91797
 11
82.70819
 21
27.110082
  0
LINE
  8
型材断面
  6
CONTINUOUS
 10
-125.14258
 20
39.114035
 11
-127.73309
 21
38.517982
  0
LINE
  8
型材断面
  6
CONTINUOUS
 10
-125.14258
 20
39.114035
 11
-127.733087
 21
39.710095
  0
LINE
  8
型材断面
  6
CONTINUOUS
 10
-127.733087
 20
39.710095
 11
-127.73309
 21
38.517982
  0
LINE
  8
型材断面
  6
CONTINUOUS
 10
-125.14258
 20
26.51403
 11
-127.73309
 21
27.110082
  0
LINE
  8
型材断面
  6
CONTINUOUS
 10
-125.14258
 20
26.51403
 11
-127.733087
 21
25.91797
  0
LINE
  8
型材断面
  6
CONTINUOUS
 10
-127.733087
 20
25.91797
 11
-127.73309
 21
27.110082
  0
LINE
  8
型材断面
  6
CONTINUOUS
 10
-124.495635
 20
20.830853
 11
-22.51245
 21
20.830853
  0
LINE
  8
型材断面
  6
CONTINUOUS
 10
79.470735
 20
32.814033
 11
79.470735
 21
20.830853
  0
LINE
  8
型材断面
  6
CONTINUOUS
 10
79.470735
 20
20.830853
 11
-22.51245
 21
20.830853
  0
LINE
  8
型材断面
  6
CONTINUOUS
 10
79.470735
 20
32.814033
 11
79.470735
 21
44.797213
  0
LINE
  8
型材断面
  6
CONTINUOUS
 10
79.470735
 20
44.797213
 11
-22.51245
 21
44.797213
  0
LINE
  8
型材断面
  6
CONTINUOUS
 10
-124.495635
 20
44.797213
 11
-22.51245
 21
44.797213
  0
LINE
  8
型材断面
  6
CONTINUOUS
 10
-169.387245
 20
63.34604
 11
-123.145468
 21
63.34604
  0
ARC
  8
型材断面
  6
CONTINUOUS
 62
    47
 10
-124.495786
 20
-72.754988
 40
0.016668
 50
89.999123
 51
180.0
  0
ARC
  8
型材断面
  6
CONTINUOUS
 62
    47
 10
-124.502452
 20
-72.79499
 40
0.010002
 50
180.0
 51
269.791626
  0
LINE
  8
型材断面
  6
CONTINUOUS
 62
    47
 10
-124.462447
 20
-72.97171
 11
-123.6123
 21
-72.97171
  0
LINE
  8
型材断面
  6
CONTINUOUS
 62
    47
 10
-124.495785
 20
-72.738322
 11
-124.495785
 21
-70.631663
  0
LINE
  8
型材断面
  6
CONTINUOUS
 62
    47
 10
-124.49578
 20
-72.97171
 11
-124.49578
 21
-76.288378
  0
LINE
  8
型材断面
  6
CONTINUOUS
 62
    47
 10
-123.99578
 20
-76.788378
 11
-123.99578
 21
-76.288378
  0
LINE
  8
型材断面
  6
CONTINUOUS
 62
    47
 10
-123.612445
 20
-70.631663
 11
-123.612445
 21
-70.304993
  0
LINE
  8
型材断面
  6
CONTINUOUS
 62
    47
 10
-124.512447
 20
-72.754987
 11
-124.512447
 21
-72.794647
  0
ARC
  8
型材断面
  6
CONTINUOUS
 62
    47
 10
79.470887
 20
-72.754988
 40
0.016668
 50
0.0
 51
90.000877
  0
ARC
  8
型材断面
  6
CONTINUOUS
 62
    47
 10
79.477553
 20
-72.79499
 40
0.010002
 50
270.208374
 51
360.0
  0
LINE
  8
型材断面
  6
CONTINUOUS
 62
    47
 10
79.43755
 20
-72.97171
 11
78.587402
 21
-72.97171
  0
LINE
  8
型材断面
  6
CONTINUOUS
 62
    47
 10
79.470888
 20
-72.738322
 11
79.470888
 21
-70.631663
  0
LINE
  8
型材断面
  6
CONTINUOUS
 62
    47
 10
79.470882
 20
-72.97171
 11
79.470882
 21
-76.288378
  0
LINE
  8
型材断面
  6
CONTINUOUS
 62
    47
 10
78.970882
 20
-76.788378
 11
78.970882
 21
-76.288378
  0
LINE
  8
型材断面
  6
CONTINUOUS
 62
    47
 10
78.587548
 20
-70.631663
 11
78.587548
 21
-70.304993
  0
LINE
  8
型材断面
  6
CONTINUOUS
 62
    47
 10
79.48755
 20
-72.754987
 11
79.48755
 21
-72.794647
  0
LINE
  8
型材断面
  6
CONTINUOUS
 10
-123.912447
 20
-68.638328
 11
-22.51245
 21
-68.638328
  0
LINE
  8
型材断面
  6
CONTINUOUS
 10
-124.06897
 20
-68.804993
 11
-22.51245
 21
-68.804993
  0
LINE
  8
型材断面
  6
CONTINUOUS
 10
-123.912447
 20
-70.304993
 11
-22.51245
 21
-70.304993
  0
LINE
  8
型材断面
  6
CONTINUOUS
 10
-124.495785
 20
-70.631663
 11
-22.51245
 21
-70.631663
  0
LINE
  8
型材断面
  6
CONTINUOUS
 10
-124.50245
 20
-72.804993
 11
-22.51245
 21
-72.804993
  0
LINE
  8
型材断面
  6
CONTINUOUS
 10
-124.49578
 20
-72.97171
 11
-22.51245
 21
-72.97171
  0
LINE
  8
型材断面
  6
CONTINUOUS
 10
-123.99578
 20
-76.788378
 11
-22.51245
 21
-76.788378
  0
LINE
  8
型材断面
  6
CONTINUOUS
 10
-124.49578
 20
-76.288378
 11
-22.51245
 21
-76.288378
  0
LINE
  8
型材断面
  6
CONTINUOUS
 10
79.470882
 20
-76.288378
 11
-22.51245
 21
-76.288378
  0
LINE
  8
型材断面
  6
CONTINUOUS
 10
78.970882
 20
-76.788378
 11
-22.51245
 21
-76.788378
  0
LINE
  8
型材断面
  6
CONTINUOUS
 10
79.470882
 20
-72.97171
 11
-22.51245
 21
-72.97171
  0
LINE
  8
型材断面
  6
CONTINUOUS
 10
79.477552
 20
-72.804993
 11
-22.51245
 21
-72.804993
  0
LINE
  8
型材断面
  6
CONTINUOUS
 10
78.88755
 20
-68.638328
 11
-22.51245
 21
-68.638328
  0
LINE
  8
型材断面
  6
CONTINUOUS
 10
79.04407
 20
-68.804993
 11
-22.51245
 21
-68.804993
  0
LINE
  8
型材断面
  6
CONTINUOUS
 10
78.88755
 20
-70.304993
 11
-22.51245
 21
-70.304993
  0
LINE
  8
型材断面
  6
CONTINUOUS
 10
79.470888
 20
-70.631663
 11
-22.51245
 21
-70.631663
  0
ARC
  8
型材断面
  6
DOT
 62
    47
 10
-124.495786
 20
-65.421655
 40
0.016668
 50
89.999123
 51
180.0
  0
ARC
  8
型材断面
  6
DOT
 62
    47
 10
-124.502452
 20
-65.461657
 40
0.010002
 50
180.0
 51
269.791626
  0
LINE
  8
型材断面
  6
DOT
 62
    47
 10
-124.495785
 20
-65.40499
 11
-124.495785
 21
-63.29833
  0
LINE
  8
型材断面
  6
DOT
 62
    47
 10
-123.612445
 20
-63.29833
 11
-123.612445
 21
-62.97166
  0
LINE
  8
型材断面
  6
DOT
 62
    47
 10
-124.512447
 20
-65.421655
 11
-124.512447
 21
-65.461315
  0
ARC
  8
型材断面
  6
DOT
 62
    47
 10
79.470887
 20
-65.421655
 40
0.016668
 50
0.0
 51
90.000877
  0
ARC
  8
型材断面
  6
DOT
 62
    47
 10
79.477553
 20
-65.461657
 40
0.010002
 50
270.208374
 51
360.0
  0
LINE
  8
型材断面
  6
DOT
 62
    47
 10
79.470888
 20
-65.40499
 11
79.470888
 21
-63.29833
  0
LINE
  8
型材断面
  6
DOT
 62
    47
 10
78.587548
 20
-63.29833
 11
78.587548
 21
-62.97166
  0
LINE
  8
型材断面
  6
DOT
 62
    47
 10
79.48755
 20
-65.421655
 11
79.48755
 21
-65.461315
  0
LINE
  8
型材断面
  6
DOT
 10
-124.06897
 20
-61.47166
 11
-22.51245
 21
-61.47166
  0
LINE
  8
型材断面
  6
DOT
 10
-123.912447
 20
-61.304995
 11
-22.51245
 21
-61.304995
  0
LINE
  8
型材断面
  6
DOT
 10
-124.495785
 20
-63.29833
 11
-22.51245
 21
-63.29833
  0
LINE
  8
型材断面
  6
DOT
 10
-123.912447
 20
-62.97166
 11
-22.51245
 21
-62.97166
  0
LINE
  8
型材断面
  6
DOT
 10
-124.50245
 20
-65.47166
 11
-22.51245
 21
-65.47166
  0
LINE
  8
型材断面
  6
DOT
 10
79.477552
 20
-65.47166
 11
-22.51245
 21
-65.47166
  0
LINE
  8
型材断面
  6
DOT
 10
79.470888
 20
-63.29833
 11
-22.51245
 21
-63.29833
  0
LINE
  8
型材断面
  6
DOT
 10
78.88755
 20
-62.97166
 11
-22.51245
 21
-62.97166
  0
LINE
  8
型材断面
  6
DOT
 10
78.88755
 20
-61.304995
 11
-22.51245
 21
-61.304995
  0
LINE
  8
型材断面
  6
DOT
 10
79.04407
 20
-61.47166
 11
-22.51245
 21
-61.47166
  0
INSERT
  2
*GRP_0022
  8
型材断面
  6
CONTINUOUS
 10
0.0
 20
0.0
  0
INSERT
  2
*GRP_0023
  8
型材断面
  6
CONTINUOUS
 10
0.0
 20
0.0
  0
INSERT
  2
*GRP_0024
  8
型材断面
  6
CONTINUOUS
 10
0.0
 20
0.0
  0
INSERT
  2
*GRP_0025
  8
型材断面
  6
CONTINUOUS
 10
0.0
 20
0.0
  0
INSERT
  2
*GRP_0026
  8
型材断面
  6
CONTINUOUS
 10
0.0
 20
0.0
  0
INSERT
  2
*GRP_0027
  8
型材断面
  6
CONTINUOUS
 10
0.0
 20
0.0
  0
LINE
  8
型材断面
  6
CONTINUOUS
 10
165.838773
 20
44.370552
 11
165.838773
 21
32.814033
  0
LINE
  8
型材断面
  6
CONTINUOUS
 10
165.672107
 20
32.814033
 11
165.672107
 21
44.21403
  0
LINE
  8
型材断面
  6
CONTINUOUS
 10
167.338773
 20
32.814033
 11
167.338773
 21
44.21403
  0
ARC
  8
型材断面
  6
CONTINUOUS
 62
    47
 10
169.788767
 20
44.797369
 40
0.016668
 50
90.0
 51
180.000877
  0
ARC
  8
型材断面
  6
CONTINUOUS
 62
    47
 10
169.828769
 20
44.804035
 40
0.010002
 50
0.208374
 51
90.0
  0
LINE
  8
型材断面
  6
CONTINUOUS
 62
    47
 10
170.00549
 20
44.76403
 11
170.00549
 21
43.913885
  0
LINE
  8
型材断面
  6
CONTINUOUS
 10
170.00549
 20
32.814033
 11
170.00549
 21
44.797365
  0
LINE
  8
型材断面
  6
CONTINUOUS
 10
173.322157
 20
32.814033
 11
173.322157
 21
44.797365
  0
LINE
  8
型材断面
  6
CONTINUOUS
 10
173.822157
 20
32.814033
 11
173.822157
 21
44.297365
  0
LINE
  8
型材断面
  6
CONTINUOUS
 62
    47
 10
169.772103
 20
44.79737
 11
167.665443
 21
44.79737
  0
LINE
  8
型材断面
  6
CONTINUOUS
 10
167.665443
 20
32.814033
 11
167.665443
 21
44.79737
  0
LINE
  8
型材断面
  6
CONTINUOUS
 62
    47
 10
170.00549
 20
44.797365
 11
173.322157
 21
44.797365
  0
LINE
  8
型材断面
  6
CONTINUOUS
 62
    47
 10
173.822157
 20
44.297365
 11
173.322157
 21
44.297365
  0
LINE
  8
型材断面
  6
CONTINUOUS
 62
    47
 10
167.665443
 20
43.91403
 11
167.338773
 21
43.91403
  0
LINE
  8
型材断面
  6
CONTINUOUS
 10
165.838773
 20
21.257512
 11
165.838773
 21
32.814033
  0
LINE
  8
型材断面
  6
CONTINUOUS
 10
165.672107
 20
32.814033
 11
165.672107
 21
21.414035
  0
LINE
  8
型材断面
  6
CONTINUOUS
 10
167.338773
 20
32.814033
 11
167.338773
 21
21.414035
  0
ARC
  8
型材断面
  6
CONTINUOUS
 62
    47
 10
169.788767
 20
20.830697
 40
0.016668
 50
179.999123
 51
270.0
  0
ARC
  8
型材断面
  6
CONTINUOUS
 62
    47
 10
169.828769
 20
20.824031
 40
0.010002
 50
270.0
 51
359.791626
  0
LINE
  8
型材断面
  6
CONTINUOUS
 62
    47
 10
170.00549
 20
20.864035
 11
170.00549
 21
21.71418
  0
LINE
  8
型材断面
  6
CONTINUOUS
 10
170.00549
 20
32.814033
 11
170.00549
 21
20.8307
  0
LINE
  8
型材断面
  6
CONTINUOUS
 10
173.322157
 20
32.814033
 11
173.322157
 21
20.8307
  0
LINE
  8
型材断面
  6
CONTINUOUS
 10
173.822157
 20
32.814033
 11
173.822157
 21
21.3307
  0
LINE
  8
型材断面
  6
CONTINUOUS
 62
    47
 10
169.772103
 20
20.830695
 11
167.665443
 21
20.830695
  0
LINE
  8
型材断面
  6
CONTINUOUS
 10
167.665443
 20
32.814033
 11
167.665443
 21
20.830695
  0
LINE
  8
型材断面
  6
CONTINUOUS
 62
    47
 10
170.00549
 20
20.8307
 11
173.322157
 21
20.8307
  0
LINE
  8
型材断面
  6
CONTINUOUS
 62
    47
 10
173.822157
 20
21.3307
 11
173.322157
 21
21.3307
  0
LINE
  8
型材断面
  6
CONTINUOUS
 62
    47
 10
167.665443
 20
21.714035
 11
167.338773
 21
21.714035
  0
LINE
  8
型材断面
  6
CONTINUOUS
 10
169.838773
 20
32.814033
 11
169.838773
 21
44.804035
  0
LINE
  8
型材断面
  6
CONTINUOUS
 62
    47
 10
169.788768
 20
44.81403
 11
169.828428
 21
44.81403
  0
LINE
  8
型材断面
  6
CONTINUOUS
 62
    47
 10
169.788768
 20
20.814035
 11
169.828428
 21
20.814035
  0
LINE
  8
型材断面
  6
CONTINUOUS
 10
169.838773
 20
32.814033
 11
169.838773
 21
20.82403
  0
LINE
  8
型材断面
  6
DASHDOT
 10
-89.345783
 20
22.814033
 11
-89.345783
 21
42.814033
  0
LINE
  8
型材断面
  6
DASHDOT
 10
-55.929115
 20
22.814033
 11
-55.929115
 21
42.814033
  0
LINE
  8
型材断面
  6
DASHDOT
 10
44.320882
 20
22.814033
 11
44.320882
 21
42.814033
  0
LINE
  8
型材断面
  6
DASHDOT
 10
10.904215
 20
22.814033
 11
10.904215
 21
42.814033
  0
LINE
  8
型材断面
  6
CONTINUOUS
 10
60.48755
 20
21.257512
 11
60.48755
 21
23.757512
  0
LINE
  8
型材断面
  6
CONTINUOUS
 10
61.320885
 20
21.257512
 11
61.320885
 21
23.757512
  0
LINE
  8
型材断面
  6
CONTINUOUS
 10
27.195882
 20
21.257512
 11
27.195882
 21
23.757512
  0
LINE
  8
型材断面
  6
CONTINUOUS
 10
28.029218
 20
21.257512
 11
28.029218
 21
23.757512
  0
LINE
  8
型材断面
  6
CONTINUOUS
 10
-6.220785
 20
21.257512
 11
-6.220785
 21
23.757512
  0
LINE
  8
型材断面
  6
CONTINUOUS
 10
-5.38745
 20
21.257512
 11
-5.38745
 21
23.757512
  0
LINE
  8
型材断面
  6
CONTINUOUS
 10
-105.51245
 20
21.257512
 11
-105.51245
 21
23.757512
  0
LINE
  8
型材断面
  6
CONTINUOUS
 10
-106.345785
 20
21.257512
 11
-106.345785
 21
23.757512
  0
LINE
  8
型材断面
  6
CONTINUOUS
 10
-72.220783
 20
21.257512
 11
-72.220783
 21
23.757512
  0
LINE
  8
型材断面
  6
CONTINUOUS
 10
-73.054118
 20
21.257512
 11
-73.054118
 21
23.757512
  0
LINE
  8
型材断面
  6
CONTINUOUS
 10
-38.804115
 20
21.257512
 11
-38.804115
 21
23.757512
  0
LINE
  8
型材断面
  6
CONTINUOUS
 10
-39.63745
 20
21.257512
 11
-39.63745
 21
23.757512
  0
LINE
  8
型材断面
  6
CONTINUOUS
 10
60.48755
 20
44.370552
 11
60.48755
 21
41.870552
  0
LINE
  8
型材断面
  6
CONTINUOUS
 10
61.320885
 20
44.370552
 11
61.320885
 21
41.870552
  0
LINE
  8
型材断面
  6
CONTINUOUS
 10
27.195882
 20
44.370552
 11
27.195882
 21
41.870552
  0
LINE
  8
型材断面
  6
CONTINUOUS
 10
28.029218
 20
44.370552
 11
28.029218
 21
41.870552
  0
LINE
  8
型材断面
  6
CONTINUOUS
 10
-6.220785
 20
44.370552
 11
-6.220785
 21
41.870552
  0
LINE
  8
型材断面
  6
CONTINUOUS
 10
-5.38745
 20
44.370552
 11
-5.38745
 21
41.870552
  0
LINE
  8
型材断面
  6
CONTINUOUS
 10
-105.51245
 20
44.370552
 11
-105.51245
 21
41.870552
  0
LINE
  8
型材断面
  6
CONTINUOUS
 10
-106.345785
 20
44.370552
 11
-106.345785
 21
41.870552
  0
LINE
  8
型材断面
  6
CONTINUOUS
 10
-72.220783
 20
44.370552
 11
-72.220783
 21
41.870552
  0
LINE
  8
型材断面
  6
CONTINUOUS
 10
-73.054118
 20
44.370552
 11
-73.054118
 21
41.870552
  0
LINE
  8
型材断面
  6
CONTINUOUS
 10
-38.804115
 20
44.370552
 11
-38.804115
 21
41.870552
  0
LINE
  8
型材断面
  6
CONTINUOUS
 10
-39.63745
 20
44.370552
 11
-39.63745
 21
41.870552
  0
LINE
  8
型材断面
  6
CONTINUOUS
 10
76.54407
 20
32.397365
 11
79.04407
 21
32.397365
  0
LINE
  8
型材断面
  6
CONTINUOUS
 10
76.54407
 20
33.2307
 11
79.04407
 21
33.2307
  0
LINE
  8
型材断面
  6
CONTINUOUS
 10
-121.56897
 20
23.757512
 11
-106.345785
 21
23.757512
  0
LINE
  8
型材断面
  6
CONTINUOUS
 10
-121.56897
 20
41.870552
 11
-106.345785
 21
41.870552
  0
LINE
  8
型材断面
  6
CONTINUOUS
 10
28.029218
 20
41.870552
 11
60.48755
 21
41.870552
  0
LINE
  8
型材断面
  6
CONTINUOUS
 10
28.029218
 20
23.757512
 11
60.48755
 21
23.757512
  0
LINE
  8
型材断面
  6
CONTINUOUS
 10
-5.38745
 20
23.757512
 11
27.195882
 21
23.757512
  0
LINE
  8
型材断面
  6
CONTINUOUS
 10
-5.38745
 20
41.870552
 11
27.195882
 21
41.870552
  0
LINE
  8
型材断面
  6
CONTINUOUS
 10
-38.804115
 20
41.870552
 11
-6.220785
 21
41.870552
  0
LINE
  8
型材断面
  6
CONTINUOUS
 10
-38.804115
 20
23.757512
 11
-6.220785
 21
23.757512
  0
LINE
  8
型材断面
  6
CONTINUOUS
 10
-105.51245
 20
41.870552
 11
-73.054118
 21
41.870552
  0
LINE
  8
型材断面
  6
CONTINUOUS
 10
-72.220783
 20
41.870552
 11
-39.63745
 21
41.870552
  0
LINE
  8
型材断面
  6
CONTINUOUS
 10
-105.51245
 20
23.757512
 11
-73.054118
 21
23.757512
  0
LINE
  8
型材断面
  6
CONTINUOUS
 10
-72.220783
 20
23.757512
 11
-39.63745
 21
23.757512
  0
LINE
  8
型材断面
  6
CONTINUOUS
 10
78.808373
 20
21.25751
 11
79.04407
 21
21.493217
  0
LINE
  8
型材断面
  6
CONTINUOUS
 10
79.470735
 20
20.830853
 11
78.926223
 21
21.375365
  0
LINE
  8
型材断面
  6
CONTINUOUS
 10
45.570882
 20
24.590842
 11
43.070882
 21
24.590842
  0
LINE
  8
型材断面
  6
CONTINUOUS
 10
76.54407
 20
23.993212
 11
79.04407
 21
21.493217
  0
LINE
  8
型材断面
  6
CONTINUOUS
 10
76.308367
 20
23.75751
 11
78.80837
 21
21.257512
  0
LINE
  8
型材断面
  6
CONTINUOUS
 10
-124.06897
 20
21.257512
 11
78.80837
 21
21.257512
  0
LINE
  8
型材断面
  6
CONTINUOUS
 10
76.54407
 20
32.397365
 11
76.54407
 21
23.993212
  0
LINE
  8
型材断面
  6
CONTINUOUS
 10
76.54407
 20
32.397365
 11
76.54407
 21
23.993212
  0
LINE
  8
型材断面
  6
CONTINUOUS
 10
76.54407
 20
23.993212
 11
76.30837
 21
23.757512
  0
LINE
  8
型材断面
  6
CONTINUOUS
 10
61.320885
 20
23.757512
 11
76.30837
 21
23.757512
  0
LINE
  8
型材断面
  6
CONTINUOUS
 10
78.808373
 20
44.370555
 11
79.04407
 21
44.134848
  0
LINE
  8
型材断面
  6
CONTINUOUS
 10
79.470735
 20
44.797213
 11
78.926223
 21
44.2527
  0
LINE
  8
型材断面
  6
CONTINUOUS
 10
76.54407
 20
33.2307
 11
76.54407
 21
41.634852
  0
LINE
  8
型材断面
  6
CONTINUOUS
 10
61.320885
 20
41.870552
 11
76.30837
 21
41.870552
  0
LINE
  8
型材断面
  6
CONTINUOUS
 10
76.30837
 20
41.870552
 11
76.54407
 21
41.634852
  0
LINE
  8
型材断面
  6
CONTINUOUS
 10
76.54407
 20
33.2307
 11
76.54407
 21
41.634852
  0
LINE
  8
型材断面
  6
CONTINUOUS
 10
79.04407
 20
21.493217
 11
79.04407
 21
44.134848
  0
LINE
  8
型材断面
  6
CONTINUOUS
 10
76.54407
 20
41.634852
 11
79.04407
 21
44.134848
  0
LINE
  8
型材断面
  6
CONTINUOUS
 10
79.04407
 20
21.493217
 11
79.04407
 21
44.134848
  0
LINE
  8
型材断面
  6
CONTINUOUS
 10
76.308367
 20
41.870555
 11
78.80837
 21
44.370552
  0
LINE
  8
型材断面
  6
CONTINUOUS
 10
-124.06897
 20
44.370552
 11
78.80837
 21
44.370552
  0
LINE
  8
型材断面
  6
CONTINUOUS
 10
45.570882
 20
41.037222
 11
43.070882
 21
41.037222
  0
LINE
  8
型材断面
  6
CONTINUOUS
 10
45.570882
 20
24.590842
 11
45.570882
 21
41.037222
  0
LINE
  8
型材断面
  6
CONTINUOUS
 10
43.070882
 20
24.590842
 11
43.070882
 21
41.037222
  0
LINE
  8
型材断面
  6
CONTINUOUS
 10
12.154215
 20
24.590842
 11
9.654215
 21
24.590842
  0
LINE
  8
型材断面
  6
CONTINUOUS
 10
12.154215
 20
41.037222
 11
9.654215
 21
41.037222
  0
LINE
  8
型材断面
  6
CONTINUOUS
 10
12.154215
 20
24.590842
 11
12.154215
 21
41.037222
  0
LINE
  8
型材断面
  6
CONTINUOUS
 10
9.654215
 20
24.590842
 11
9.654215
 21
41.037222
  0
LINE
  8
型材断面
  6
CONTINUOUS
 10
-21.26245
 20
24.590842
 11
-23.76245
 21
24.590842
  0
LINE
  8
型材断面
  6
CONTINUOUS
 10
-21.26245
 20
41.037222
 11
-23.76245
 21
41.037222
  0
LINE
  8
型材断面
  6
CONTINUOUS
 10
-21.26245
 20
24.590842
 11
-21.26245
 21
41.037222
  0
LINE
  8
型材断面
  6
CONTINUOUS
 10
-23.76245
 20
24.590842
 11
-23.76245
 21
41.037222
  0
LINE
  8
型材断面
  6
CONTINUOUS
 10
-54.679115
 20
24.590842
 11
-57.179115
 21
24.590842
  0
LINE
  8
型材断面
  6
CONTINUOUS
 10
-54.679115
 20
41.037222
 11
-57.179115
 21
41.037222
  0
LINE
  8
型材断面
  6
CONTINUOUS
 10
-54.679115
 20
24.590842
 11
-54.679115
 21
41.037222
  0
LINE
  8
型材断面
  6
CONTINUOUS
 10
-57.179115
 20
24.590842
 11
-57.179115
 21
41.037222
  0
LINE
  8
型材断面
  6
CONTINUOUS
 10
-88.095783
 20
24.590842
 11
-90.595783
 21
24.590842
  0
LINE
  8
型材断面
  6
CONTINUOUS
 10
-88.095783
 20
41.037222
 11
-90.595783
 21
41.037222
  0
LINE
  8
型材断面
  6
CONTINUOUS
 10
-88.095783
 20
24.590842
 11
-88.095783
 21
41.037222
  0
LINE
  8
型材断面
  6
CONTINUOUS
 10
-90.595783
 20
24.590842
 11
-90.595783
 21
41.037222
  0
LINE
  8
型材断面
  6
CONTINUOUS
 10
-124.495635
 20
32.814033
 11
-124.495635
 21
20.830853
  0
LINE
  8
型材断面
  6
CONTINUOUS
 10
-124.495635
 20
32.814033
 11
-124.495635
 21
44.797213
  0
LINE
  8
型材断面
  6
CONTINUOUS
 10
-121.56897
 20
32.397365
 11
-124.06897
 21
32.397365
  0
LINE
  8
型材断面
  6
CONTINUOUS
 10
-121.56897
 20
33.2307
 11
-124.06897
 21
33.2307
  0
LINE
  8
型材断面
  6
CONTINUOUS
 10
-123.833273
 20
21.25751
 11
-124.06897
 21
21.493217
  0
LINE
  8
型材断面
  6
CONTINUOUS
 10
-124.495635
 20
20.830853
 11
-123.951123
 21
21.375365
  0
LINE
  8
型材断面
  6
CONTINUOUS
 10
-121.56897
 20
23.993212
 11
-124.06897
 21
21.493217
  0
LINE
  8
型材断面
  6
CONTINUOUS
 10
-121.333267
 20
23.75751
 11
-123.83327
 21
21.257512
  0
LINE
  8
型材断面
  6
CONTINUOUS
 10
-121.56897
 20
32.397365
 11
-121.56897
 21
23.993212
  0
LINE
  8
型材断面
  6
CONTINUOUS
 10
-121.56897
 20
32.397365
 11
-121.56897
 21
23.993212
  0
LINE
  8
型材断面
  6
CONTINUOUS
 10
-121.56897
 20
23.993212
 11
-121.33327
 21
23.757512
  0
LINE
  8
型材断面
  6
CONTINUOUS
 10
-123.833273
 20
44.370555
 11
-124.06897
 21
44.134848
  0
LINE
  8
型材断面
  6
CONTINUOUS
 10
-124.495635
 20
44.797213
 11
-123.951123
 21
44.2527
  0
LINE
  8
型材断面
  6
CONTINUOUS
 10
-121.56897
 20
33.2307
 11
-121.56897
 21
41.634852
  0
LINE
  8
型材断面
  6
CONTINUOUS
 10
-121.33327
 20
41.870552
 11
-121.56897
 21
41.634852
  0
LINE
  8
型材断面
  6
CONTINUOUS
 10
-121.56897
 20
33.2307
 11
-121.56897
 21
41.634852
  0
LINE
  8
型材断面
  6
CONTINUOUS
 10
-124.06897
 20
21.493217
 11
-124.06897
 21
44.134848
  0
LINE
  8
型材断面
  6
CONTINUOUS
 10
-121.56897
 20
41.634852
 11
-124.06897
 21
44.134848
  0
LINE
  8
型材断面
  6
CONTINUOUS
 10
-124.06897
 20
21.493217
 11
-124.06897
 21
44.134848
  0
LINE
  8
型材断面
  6
CONTINUOUS
 10
-121.333267
 20
41.870555
 11
-123.83327
 21
44.370552
  0
TEXT
  7
TextStyle03
  8
文字
  6
CONTINUOUS
 10
154.025
 20
-76.7
  1
網入り6.8t
 40
3.0
 72
     5
 11
170.7125
 21
-76.7
  0
TEXT
  7
TextStyle03
  8
文字
  6
CONTINUOUS
 10
-30.45
 20
9.325
  1
可動装置側
 40
3.0
 72
     5
 11
-13.95
 21
9.325
  0
TEXT
  7
TextStyle03
  8
文字
  6
CONTINUOUS
 10
160.7
 20
-81.375
  1
×６枚
 40
3.0
 72
     5
 11
170.45
 21
-81.375
  0
TEXT
  7
TextStyle03
  8
文字
  6
CONTINUOUS
 10
-30.45
 20
53.3
  1
可動装置側
 40
3.0
 72
     5
 11
-13.95
 21
53.3
  0
TEXT
  7
TextStyle03
  8
文字
  6
CONTINUOUS
 10
-160.55
 20
79.425
  1
はケーシング位置を示す
 40
3.0
 72
     5
 11
-123.8
 21
79.425
  0
TEXT
  7
TextStyle03
  8
文字
  6
CONTINUOUS
 10
-160.55
 20
76.05
  1
４ヶ所中1ヶ所に設定
 40
3.0
 72
     5
 11
-128.8625
 21
76.05
  0
TEXT
  7
TextStyle03
  8
文字
  6
CONTINUOUS
 10
-160.55
 20
84.95
  1
は排水穴位置を示す
 40
3.0
 72
     5
 11
-130.55
 21
84.95
  0
TEXT
  7
TextStyle03
  8
文字
  6
CONTINUOUS
 10
-143.525
 20
11.275
  1
アンカーピッチ
 40
3.0
 50
90.0
 72
     5
 11
-143.525
 21
34.525
  0
TEXT
  7
TextStyle03
  8
文字
  6
CONTINUOUS
 10
-109.05
 20
79.95
  1
アンカーピッチ
 40
3.0
 72
     5
 11
-85.8
 21
79.95
  0
TEXT
  7
TextStyle03
  8
文字
  6
CONTINUOUS
 10
-164.275
 20
70.075
  1
アンカー数量　２２ヶ所
 40
3.0
 72
     5
 11
-127.525
 21
70.075
  0
TEXT
  7
TextStyle03
  8
文字
  6
CONTINUOUS
 10
-164.325
 20
64.3
  1
アームユニット数　４～６ヶ所
 40
3.0
 72
     5
 11
-117.45
 21
64.3
  0
TEXT
  7
TextStyle03
  8
文字
  6
CONTINUOUS
 10
-169.25
 20
59.35
  1
※重量に依るのでご相談ください
 40
3.0
 72
     5
 11
-119.0
 21
59.35
  0
LINE
  8
文字
  6
CONTINUOUS
 10
90.722795
 20
-68.638328
 11
80.172832
 21
-68.638328
  0
LINE
  8
文字
  6
CONTINUOUS
 10
90.722795
 20
-76.288378
 11
80.237915
 21
-76.288378
  0
LINE
  8
文字
  6
CONTINUOUS
 10
90.722795
 20
-61.304995
 11
80.172832
 21
-61.304995
  0
LINE
  8
文字
  6
CONTINUOUS
 10
172.574105
 20
-56.459903
 11
172.574105
 21
-62.341702
  0
LINE
  8
文字
  6
CONTINUOUS
 10
140.324105
 20
-56.459903
 11
140.324105
 21
-62.341702
  0
LINE
  8
文字
  6
CONTINUOUS
 10
165.672107
 20
56.049278
 11
165.672107
 21
45.499315
  0
LINE
  8
文字
  6
CONTINUOUS
 10
173.322157
 20
56.049278
 11
173.322157
 21
45.564395
  0
TEXT
  7
TextStyle03
  8
文字
  6
CONTINUOUS
 10
59.5
 20
125.25
  1
シリーズ：シリーズ：ＴＦ２ＦＬ
 40
5.0
 72
     5
 11
143.25
 21
125.25
  0
TEXT
  7
TextStyle03
  8
文字
  6
CONTINUOUS
 10
59.5
 20
119.625
  1
　　　　　（上下可動）600×6000タイプ
 40
5.0
 72
     5
 11
162.9375
 21
119.625
  0
TEXT
  7
TextStyle03
  8
文字
  6
CONTINUOUS
 10
59.5
 20
114.0
  1
図面名　：外観姿図
 40
5.0
 72
     5
 11
109.5
 21
114.0
  0
TEXT
  7
TextStyle03
  8
文字
  6
CONTINUOUS
 10
59.5
 20
108.375
  1
　　　　　　
 40
5.0
 72
     5
 11
92.625
 21
108.375
  0
TEXT
  7
TextStyle03
  8
文字
  6
CONTINUOUS
 10
59.65
 20
104.525
  1
ＮＳコード：ＮＳＦＺＬ
 40
5.0
 72
     5
 11
120.9
 21
104.525
  0
INSERT
  2
*DIM_0002
  8
寸法
  6
CONTINUOUS
 10
0.0
 20
0.0
  0
INSERT
  2
*DIM_0003
  8
寸法
  6
CONTINUOUS
 10
0.0
 20
0.0
  0
INSERT
  2
*DIM_0004
  8
寸法
  6
CONTINUOUS
 10
0.0
 20
0.0
  0
INSERT
  2
*DIM_0005
  8
寸法
  6
CONTINUOUS
 10
0.0
 20
0.0
  0
INSERT
  2
*DIM_0006
  8
寸法
  6
CONTINUOUS
 10
0.0
 20
0.0
  0
INSERT
  2
*DIM_0007
  8
寸法
  6
CONTINUOUS
 10
0.0
 20
0.0
  0
INSERT
  2
*DIM_0008
  8
寸法
  6
CONTINUOUS
 10
0.0
 20
0.0
  0
INSERT
  2
*DIM_0009
  8
寸法
  6
CONTINUOUS
 10
0.0
 20
0.0
  0
INSERT
  2
*DIM_0010
  8
寸法
  6
CONTINUOUS
 10
0.0
 20
0.0
  0
INSERT
  2
*DIM_0011
  8
寸法
  6
CONTINUOUS
 10
0.0
 20
0.0
  0
INSERT
  2
*DIM_0012
  8
寸法
  6
CONTINUOUS
 10
0.0
 20
0.0
  0
INSERT
  2
*DIM_0013
  8
寸法
  6
CONTINUOUS
 10
0.0
 20
0.0
  0
INSERT
  2
*DIM_0014
  8
寸法
  6
CONTINUOUS
 10
0.0
 20
0.0
  0
INSERT
  2
*DIM_0015
  8
寸法
  6
CONTINUOUS
 10
0.0
 20
0.0
  0
INSERT
  2
*DIM_0016
  8
寸法
  6
CONTINUOUS
 10
0.0
 20
0.0
  0
INSERT
  2
*DIM_0017
  8
寸法
  6
CONTINUOUS
 10
0.0
 20
0.0
  0
INSERT
  2
*DIM_0018
  8
寸法
  6
CONTINUOUS
 10
0.0
 20
0.0
  0
INSERT
  2
*DIM_0019
  8
寸法
  6
CONTINUOUS
 10
0.0
 20
0.0
  0
INSERT
  2
*DIM_0020
  8
寸法
  6
CONTINUOUS
 10
0.0
 20
0.0
  0
INSERT
  2
*DIM_0021
  8
寸法
  6
CONTINUOUS
 10
0.0
 20
0.0
  0
INSERT
  2
*DIM_0028
  8
寸法
  6
CONTINUOUS
 10
0.0
 20
0.0
  0
INSERT
  2
*DIM_0029
  8
寸法
  6
CONTINUOUS
 10
0.0
 20
0.0
  0
INSERT
  2
*DIM_0030
  8
寸法
  6
CONTINUOUS
 10
0.0
 20
0.0
  0
INSERT
  2
*DIM_0031
  8
寸法
  6
CONTINUOUS
 10
0.0
 20
0.0
  0
LINE
  8
別途部材
  6
CONTINUOUS
 62
    47
 10
-124.06897
 20
-68.738328
 11
-124.06897
 21
-68.804993
  0
ARC
  8
別途部材
  6
CONTINUOUS
 62
    47
 10
-123.96897
 20
-68.738326
 40
0.1
 50
90.0
 51
180.0
  0
LINE
  8
別途部材
  6
CONTINUOUS
 62
    47
 10
-123.96897
 20
-68.638328
 11
-121.602303
 21
-68.638328
  0
LINE
  8
別途部材
  6
CONTINUOUS
 62
    47
 10
-123.912447
 20
-70.304993
 11
-123.912447
 21
-68.804993
  0
LINE
  8
別途部材
  6
CONTINUOUS
 62
    47
 10
79.04407
 20
-68.738328
 11
79.04407
 21
-68.804993
  0
ARC
  8
別途部材
  6
CONTINUOUS
 62
    47
 10
78.944071
 20
-68.738326
 40
0.1
 50
0.0
 51
90.0
  0
LINE
  8
別途部材
  6
CONTINUOUS
 62
    47
 10
78.94407
 20
-68.638328
 11
76.577405
 21
-68.638328
  0
LINE
  8
別途部材
  6
CONTINUOUS
 62
    47
 10
78.88755
 20
-70.304993
 11
78.88755
 21
-68.804993
  0
LINE
  8
別途部材
  6
DOT
 62
    47
 10
-124.06897
 20
-61.404995
 11
-124.06897
 21
-61.47166
  0
ARC
  8
別途部材
  6
DOT
 62
    47
 10
-123.96897
 20
-61.404993
 40
0.1
 50
90.0
 51
180.0
  0
LINE
  8
別途部材
  6
DOT
 62
    47
 10
-123.96897
 20
-61.304995
 11
-121.602303
 21
-61.304995
  0
LINE
  8
別途部材
  6
DOT
 62
    47
 10
-123.912447
 20
-62.97166
 11
-123.912447
 21
-61.47166
  0
LINE
  8
別途部材
  6
DOT
 62
    47
 10
79.04407
 20
-61.404995
 11
79.04407
 21
-61.47166
  0
ARC
  8
別途部材
  6
DOT
 62
    47
 10
78.944071
 20
-61.404993
 40
0.1
 50
0.0
 51
90.0
  0
LINE
  8
別途部材
  6
DOT
 62
    47
 10
78.94407
 20
-61.304995
 11
76.577405
 21
-61.304995
  0
LINE
  8
別途部材
  6
DOT
 62
    47
 10
78.88755
 20
-62.97166
 11
78.88755
 21
-61.47166
  0
LINE
  8
別途部材
  6
CONTINUOUS
 62
    47
 10
165.772107
 20
44.370552
 11
165.838773
 21
44.370552
  0
ARC
  8
別途部材
  6
CONTINUOUS
 62
    47
 10
165.772105
 20
44.270554
 40
0.1
 50
90.0
 51
180.0
  0
LINE
  8
別途部材
  6
CONTINUOUS
 62
    47
 10
165.672107
 20
44.270552
 11
165.672107
 21
41.903885
  0
LINE
  8
別途部材
  6
CONTINUOUS
 62
    47
 10
167.338773
 20
44.21403
 11
165.838773
 21
44.21403
  0
LINE
  8
別途部材
  6
CONTINUOUS
 62
    47
 10
165.772107
 20
21.257512
 11
165.838773
 21
21.257512
  0
ARC
  8
別途部材
  6
CONTINUOUS
 62
    47
 10
165.772105
 20
21.357512
 40
0.1
 50
180.0
 51
270.0
  0
LINE
  8
別途部材
  6
CONTINUOUS
 62
    47
 10
165.672107
 20
21.357512
 11
165.672107
 21
23.72418
  0
LINE
  8
別途部材
  6
CONTINUOUS
 62
    47
 10
167.338773
 20
21.414035
 11
165.838773
 21
21.414035
  0
LINE
  8
曲げ物
  6
CONTINUOUS
 10
172.574105
 20
-83.118728
 11
172.574105
 21
-63.785395
  0
LINE
  8
曲げ物
  6
CONTINUOUS
 10
-103.719793
 20
34.739582
 11
-107.415105
 21
31.04427
  0
LINE
  8
曲げ物
  6
CONTINUOUS
 10
-104.423262
 20
33.203472
 11
-105.878993
 21
31.747742
  0
LINE
  8
曲げ物
  6
CONTINUOUS
 10
-105.255902
 20
34.036112
 11
-106.711632
 21
32.580383
  0
LINE
  8
曲げ物
  6
CONTINUOUS
 10
-70.883593
 20
34.739582
 11
-74.578905
 21
31.04427
  0
LINE
  8
曲げ物
  6
CONTINUOUS
 10
-71.587062
 20
33.203472
 11
-73.042792
 21
31.747742
  0
LINE
  8
曲げ物
  6
CONTINUOUS
 10
-72.419703
 20
34.036112
 11
-73.875432
 21
32.580383
  0
LINE
  8
曲げ物
  6
CONTINUOUS
 10
-36.56901
 20
34.739582
 11
-40.264322
 21
31.04427
  0
LINE
  8
曲げ物
  6
CONTINUOUS
 10
-37.27248
 20
33.203472
 11
-38.72821
 21
31.747742
  0
LINE
  8
曲げ物
  6
CONTINUOUS
 10
-38.10512
 20
34.036112
 11
-39.56085
 21
32.580383
  0
LINE
  8
曲げ物
  6
CONTINUOUS
 10
-4.926303
 20
34.739582
 11
-8.621615
 21
31.04427
  0
LINE
  8
曲げ物
  6
CONTINUOUS
 10
-5.629773
 20
33.203472
 11
-7.085502
 21
31.747742
  0
LINE
  8
曲げ物
  6
CONTINUOUS
 10
-6.462413
 20
34.036112
 11
-7.918142
 21
32.580383
  0
LINE
  8
曲げ物
  6
CONTINUOUS
 10
29.900783
 20
34.739582
 11
26.20547
 21
31.04427
  0
LINE
  8
曲げ物
  6
CONTINUOUS
 10
29.197313
 20
33.203472
 11
27.741583
 21
31.747742
  0
LINE
  8
曲げ物
  6
CONTINUOUS
 10
28.364673
 20
34.036112
 11
26.908943
 21
32.580383
  0
LINE
  8
曲げ物
  6
CONTINUOUS
 10
62.21328
 20
34.739582
 11
58.517967
 21
31.04427
  0
LINE
  8
曲げ物
  6
CONTINUOUS
 10
61.50981
 20
33.203472
 11
60.05408
 21
31.747742
  0
LINE
  8
曲げ物
  6
CONTINUOUS
 10
60.67717
 20
34.036112
 11
59.22144
 21
32.580383
  0
LINE
  8
曲げ物
  6
CONTINUOUS
 10
140.324105
 20
-83.118728
 11
140.324105
 21
-63.785395
  0
LINE
  8
曲げ物
  6
CONTINUOUS
 10
172.574105
 20
-63.785395
 11
140.324105
 21
-63.785395
  0
LINE
  8
曲げ物
  6
CONTINUOUS
 10
172.574105
 20
-83.118728
 11
140.324105
 21
-83.118728
  0
ENDSEC
  0
EOF
