  0
SECTION
  2
HEADER
  9
$EXTMIN
 10
-210.0
 20
-148.5
  9
$EXTMAX
 10
210.0
 20
148.5
  9
$PDMODE
 70
    32
  9
$PDSIZE
 40
1.5
  9
$LTSCALE
 40
10.0
  0
ENDSEC
  0
SECTION
  2
TABLES
  0
TABLE
  2
LTYPE
 70
    15
  0
LTYPE
  2
CONTINUOUS
 70
    64
  3
実線
 72
    65
 73
     0
 40
0.0
  0
LTYPE
  2
DASHED
 70
    64
  3
破線A
 72
    65
 73
     2
 40
0.6
 49
0.4
 49
-0.2
  0
LTYPE
  2
DASHEDX2
 70
    64
  3
破線B
 72
    65
 73
     2
 40
1.3
 49
0.9
 49
-0.4
  0
LTYPE
  2
DASHDOT
 70
    64
  3
１点鎖線A
 72
    65
 73
     4
 40
0.5375
 49
0.375
 49
-0.05
 49
0.0625
 49
-0.05
  0
LTYPE
  2
DASHDOTX2
 70
    64
  3
１点鎖線B
 72
    65
 73
     4
 40
1.075
 49
0.75
 49
-0.1
 49
0.125
 49
-0.1
  0
LTYPE
  2
DIVIDE2
 70
    64
  3
２点鎖線A
 72
    65
 73
     6
 40
0.5125
 49
0.3
 49
-0.0375
 49
0.05
 49
-0.0375
 49
0.05
 49
-0.0375
  0
LTYPE
  2
DIVIDE
 70
    64
  3
２点鎖線B
 72
    65
 73
     6
 40
1.05
 49
0.55
 49
-0.1
 49
0.1
 49
-0.1
 49
0.1
 49
-0.1
  0
LTYPE
  2
DOT
 70
    64
  3
点線A
 72
    65
 73
     2
 40
0.1125
 49
0.0625
 49
-0.05
  0
LTYPE
  2
DOTX2
 70
    64
  3
点線B
 72
    65
 73
     2
 40
0.275
 49
0.15
 49
-0.125
  0
LTYPE
  2
CONTINUOUS
 70
    64
  3
実線
 72
    65
 73
     0
 40
0.0
  0
LTYPE
  2
CONTINUOUS
 70
    64
  3
実線
 72
    65
 73
     0
 40
0.0
  0
LTYPE
  2
CONTINUOUS
 70
    64
  3
実線
 72
    65
 73
     0
 40
0.0
  0
LTYPE
  2
CONTINUOUS
 70
    64
  3
実線
 72
    65
 73
     0
 40
0.0
  0
LTYPE
  2
CONTINUOUS
 70
    64
  3
実線
 72
    65
 73
     0
 40
0.0
  0
LTYPE
  2
CONTINUOUS
 70
    64
  3
実線
 72
    65
 73
     0
 40
0.0
  0
ENDTAB
  0
TABLE
  2
LAYER
 70
    34
  0
LAYER
  2
通り芯
 70
     0
 62
    15
  6
CONTINUOUS
  0
LAYER
  2
補助線
 70
     0
 62
    16
  6
DOT
  0
LAYER
  2
躯体
 70
     0
 62
    31
  6
CONTINUOUS
  0
LAYER
  2
型材
 70
     0
 62
    32
  6
CONTINUOUS
  0
LAYER
  2
型材断面
 70
     0
 62
    47
  6
CONTINUOUS
  0
LAYER
  2
ガラス
 70
     0
 62
    48
  6
CONTINUOUS
  0
LAYER
  2
ゴム等
 70
     0
 62
    63
  6
CONTINUOUS
  0
LAYER
  2
ボルト／ビス
 70
     0
 62
    64
  6
CONTINUOUS
  0
LAYER
  2
文字
 70
     0
 62
    79
  6
CONTINUOUS
  0
LAYER
  2
寸法
 70
     0
 62
    80
  6
CONTINUOUS
  0
LAYER
  2
ﾊｯﾁﾝｸﾞ
 70
     0
 62
    95
  6
CONTINUOUS
  0
LAYER
  2
別途部材
 70
     0
 62
    96
  6
CONTINUOUS
  0
LAYER
  2
曲げ物
 70
     0
 62
   111
  6
CONTINUOUS
  0
LAYER
  2
鉄骨等
 70
     0
 62
   112
  6
CONTINUOUS
  0
LAYER
  2
St
 70
     0
 62
   127
  6
CONTINUOUS
  0
LAYER
  2
その他部品等
 70
     0
 62
   128
  6
CONTINUOUS
  0
LAYER
  2
ｶﾞｽｹｯﾄ
 70
     0
 62
   143
  6
CONTINUOUS
  0
LAYER
  2
ｽｹｯﾁ
 70
     0
 62
    14
  6
CONTINUOUS
  0
LAYER
  2
0
 70
     0
 62
    17
  6
CONTINUOUS
  0
LAYER
  2
1
 70
     0
 62
    30
  6
CONTINUOUS
  0
LAYER
  2
4
 70
     0
 62
    33
  6
CONTINUOUS
  0
LAYER
  2
ﾚｲﾔ3
 70
     0
 62
    46
  6
CONTINUOUS
  0
LAYER
  2
外形線
 70
     0
 62
    49
  6
CONTINUOUS
  0
LAYER
  2
部品
 70
     0
 62
    14
  6
CONTINUOUS
  0
LAYER
  2
サッシ芯
 70
     0
 62
    17
  6
DASHDOTX2
  0
LAYER
  2
寸法線
 70
     0
 62
    62
  6
CONTINUOUS
  0
LAYER
  2
姿図外形線
 70
     0
 62
    65
  6
CONTINUOUS
  0
LAYER
  2
姿補助線
 70
     0
 62
    30
  6
CONTINUOUS
  0
LAYER
  2
透視線
 70
     0
 62
    78
  6
DOT
  0
LAYER
  2
用紙
 70
     0
 62
    81
  6
CONTINUOUS
  0
LAYER
  2
実線図枠
 70
     0
 62
    94
  6
CONTINUOUS
  0
LAYER
  2
補助図枠
 70
     0
 62
    97
  6
CONTINUOUS
  0
LAYER
  2
建具記号
 70
     0
 62
   110
  6
CONTINUOUS
  0
LAYER
  2
補助文字
 70
     0
 62
   113
  6
CONTINUOUS
  0
ENDTAB
  0
TABLE
  2
STYLE
 70
    10
  0
STYLE
  2
STANDARD
 70
     0
 40
1.0
 41
1.0
 42
1.0
 50
0.0
 71
     0
  3
TXT
  4
BIGFONT
  0
STYLE
  2
TATE
 70
     4
 40
1.0
 41
1.0
 42
1.0
 50
0.0
 71
     0
  3
TXT
  4
BIGFONT
  0
STYLE
  2
TextStyle03
 70
     0
 40
1.0
 41
1.0
 42
1.0
 50
0.0
 71
     0
  3
MONOTXT
  4
BIGFONT
  0
STYLE
  2
TextStyle04
 70
     0
 40
1.0
 41
1.0
 42
1.0
 50
0.0
 71
     0
  3
MONOTXT
  4
BIGFONT
  0
STYLE
  2
TextStyle05
 70
     0
 40
1.0
 41
1.0
 42
1.0
 50
0.0
 71
     0
  3
MONOTXT
  4
BIGFONT
  0
STYLE
  2
TextStyle06
 70
     0
 40
1.0
 41
1.0
 42
1.0
 50
0.0
 71
     0
  3
MONOTXT
  4
BIGFONT
  0
STYLE
  2
TextStyle07
 70
     0
 40
1.0
 41
1.0
 42
1.0
 50
0.0
 71
     0
  3
MONOTXT
  4
BIGFONT
  0
STYLE
  2
TextStyle08
 70
     0
 40
1.0
 41
1.0
 42
1.0
 50
0.0
 71
     0
  3
MONOTXT
  4
BIGFONT
  0
STYLE
  2
TextStyle09
 70
     0
 40
1.0
 41
1.0
 42
1.0
 50
0.0
 71
     0
  3
MONOTXT
  4
BIGFONT
  0
STYLE
  2
TextStyle10
 70
     0
 40
1.0
 41
1.0
 42
1.0
 50
0.0
 71
     0
  3
MONOTXT
  4
BIGFONT
  0
ENDTAB
  0
ENDSEC
  0
SECTION
  2
BLOCKS
  0
BLOCK
  2
*GRP_0001
 70
    65
 10
0.0
 20
0.0
  0
LINE
  8
型材断面
  6
CONTINUOUS
 10
195.0
 20
133.5
 11
195.0
 21
-133.5
  0
LINE
  8
型材断面
  6
CONTINUOUS
 10
195.0
 20
-133.5
 11
-185.0
 21
-133.5
  0
LINE
  8
型材断面
  6
CONTINUOUS
 10
-185.0
 20
-133.5
 11
-185.0
 21
133.5
  0
LINE
  8
型材断面
  6
CONTINUOUS
 10
195.0
 20
133.5
 11
-185.0
 21
133.5
  0
LINE
  8
型材断面
  6
CONTINUOUS
 10
145.0
 20
-133.5
 11
145.0
 21
-118.5
  0
LINE
  8
型材断面
  6
CONTINUOUS
 10
195.0
 20
-118.5
 11
145.0
 21
-118.5
  0
ENDBLK
  0
BLOCK
  2
*DIM_0002
 70
    65
 10
0.0
 20
0.0
  0
LINE
  8
寸法
  6
BYBLOCK
 62
     0
 10
162.17608
 20
-63.785395
 11
170.28761
 21
-63.785395
  0
LINE
  8
寸法
  6
BYBLOCK
 62
     0
 10
162.17608
 20
-83.118728
 11
170.28761
 21
-83.118728
  0
LINE
  8
寸法
  6
BYBLOCK
 62
     0
 10
170.28761
 20
-63.785395
 11
170.28761
 21
-83.118728
  0
POINT
  8
寸法
 62
     0
 10
170.28761
 20
-63.785395
  0
POINT
  8
寸法
 62
     0
 10
170.28761
 20
-83.118728
  0
TEXT
  7
TextStyle03
  8
寸法
  6
CONTINUOUS
 62
     0
 10
169.875
 20
-75.9125
  1
580
 40
3.0
 50
90.0
 72
     5
 11
169.875
 21
-71.0375
  0
ENDBLK
  0
BLOCK
  2
*DIM_0003
 70
    65
 10
0.0
 20
0.0
  0
LINE
  8
寸法
  6
BYBLOCK
 62
     0
 10
-117.243808
 20
-16.511205
 11
-117.243808
 21
-13.121378
  0
LINE
  8
寸法
  6
BYBLOCK
 62
     0
 10
66.089525
 20
-13.121378
 11
-117.243808
 21
-13.121378
  0
POINT
  8
寸法
 62
     0
 10
66.089525
 20
-13.121378
  0
POINT
  8
寸法
 62
     0
 10
-117.243808
 20
-13.121378
  0
TEXT
  7
TextStyle03
  8
寸法
  6
CONTINUOUS
 62
     0
 10
-37.31875
 20
-12.75
  1
呼称寸法　5500
 40
3.0
 72
     5
 11
-13.88125
 21
-12.75
  0
ENDBLK
  0
BLOCK
  2
*DIM_0004
 70
    65
 10
0.0
 20
0.0
  0
LINE
  8
寸法
  6
BYBLOCK
 62
     0
 10
-100.57714
 20
19.183902
 11
-100.57714
 21
13.885527
  0
LINE
  8
寸法
  6
BYBLOCK
 62
     0
 10
-25.577142
 20
19.183905
 11
-25.577142
 21
13.885527
  0
LINE
  8
寸法
  6
BYBLOCK
 62
     0
 10
-100.57714
 20
13.885527
 11
-25.577142
 21
13.885527
  0
POINT
  8
寸法
 62
     0
 10
-100.57714
 20
13.885527
  0
POINT
  8
寸法
 62
     0
 10
-25.577142
 20
13.885527
  0
TEXT
  7
TextStyle03
  8
寸法
  6
CONTINUOUS
 62
     0
 10
-66.38125
 20
14.25
  1
2250
 40
3.0
 72
     5
 11
-59.81875
 21
14.25
  0
ENDBLK
  0
BLOCK
  2
*DIM_0005
 70
    65
 10
0.0
 20
0.0
  0
LINE
  8
寸法
  6
BYBLOCK
 62
     0
 10
49.422855
 20
19.183902
 11
49.422855
 21
13.885527
  0
LINE
  8
寸法
  6
BYBLOCK
 62
     0
 10
-25.577142
 20
13.885527
 11
49.422855
 21
13.885527
  0
POINT
  8
寸法
 62
     0
 10
49.422855
 20
13.885527
  0
TEXT
  7
TextStyle03
  8
寸法
  6
CONTINUOUS
 62
     0
 10
8.61875
 20
14.25
  1
2250
 40
3.0
 72
     5
 11
15.18125
 21
14.25
  0
ENDBLK
  0
BLOCK
  2
*DIM_0006
 70
    65
 10
0.0
 20
0.0
  0
LINE
  8
寸法
  6
BYBLOCK
 62
     0
 10
67.089525
 20
42.814035
 11
76.813808
 21
42.814035
  0
LINE
  8
寸法
  6
BYBLOCK
 62
     0
 10
69.719655
 20
39.114035
 11
76.813808
 21
39.114035
  0
LINE
  8
寸法
  6
BYBLOCK
 62
     0
 10
76.813808
 20
42.814035
 11
76.813808
 21
39.114035
  0
POINT
  8
寸法
 62
     0
 10
76.813808
 20
42.814035
  0
POINT
  8
寸法
 62
     0
 10
76.813808
 20
39.114035
  0
TEXT
  7
TextStyle03
  8
寸法
  6
CONTINUOUS
 62
     0
 10
76.5
 20
43.8125
  1
111
 40
3.0
 50
90.0
 72
     5
 11
76.5
 21
48.6875
  0
ENDBLK
  0
BLOCK
  2
*DIM_0007
 70
    65
 10
0.0
 20
0.0
  0
LINE
  8
寸法
  6
BYBLOCK
 62
     0
 10
67.089525
 20
22.81403
 11
76.813808
 21
22.814027
  0
LINE
  8
寸法
  6
BYBLOCK
 62
     0
 10
69.719655
 20
26.51403
 11
76.813808
 21
26.514027
  0
LINE
  8
寸法
  6
BYBLOCK
 62
     0
 10
76.813808
 20
22.814027
 11
76.813808
 21
26.514027
  0
POINT
  8
寸法
 62
     0
 10
76.813808
 20
22.814027
  0
POINT
  8
寸法
 62
     0
 10
76.813808
 20
26.514027
  0
TEXT
  7
TextStyle03
  8
寸法
  6
CONTINUOUS
 62
     0
 10
76.825
 20
16.5625
  1
111
 40
3.0
 50
90.0
 72
     5
 11
76.825
 21
21.4375
  0
ENDBLK
  0
BLOCK
  2
*DIM_0008
 70
    65
 10
0.0
 20
0.0
  0
LINE
  8
寸法
  6
BYBLOCK
 62
     0
 10
100.109175
 20
22.814033
 11
100.109175
 21
42.814033
  0
POINT
  8
寸法
 62
     0
 10
100.109175
 20
22.814033
  0
POINT
  8
寸法
 62
     0
 10
100.109175
 20
42.814033
  0
TEXT
  7
TextStyle03
  8
寸法
  6
CONTINUOUS
 62
     0
 10
99.725
 20
21.925
  1
呼称寸法　600
 40
3.0
 50
90.0
 72
     5
 11
99.725
 21
43.675
  0
ENDBLK
  0
BLOCK
  2
*DIM_0009
 70
    65
 10
0.0
 20
0.0
  0
LINE
  8
寸法
  6
BYBLOCK
 62
     0
 10
153.99957
 20
44.79737
 11
100.109175
 21
44.79737
  0
LINE
  8
寸法
  6
BYBLOCK
 62
     0
 10
100.109175
 20
42.814033
 11
100.109175
 21
44.79737
  0
POINT
  8
寸法
 62
     0
 10
100.109175
 20
42.814033
  0
POINT
  8
寸法
 62
     0
 10
100.109175
 20
44.79737
  0
TEXT
  7
TextStyle03
  8
寸法
  6
CONTINUOUS
 62
     0
 10
99.7
 20
47.26875
  1
59.5
 40
3.0
 50
90.0
 72
     5
 11
99.7
 21
53.83125
  0
ENDBLK
  0
BLOCK
  2
*DIM_0010
 70
    65
 10
0.0
 20
0.0
  0
LINE
  8
寸法
  6
BYBLOCK
 62
     0
 10
153.99957
 20
20.830703
 11
100.109175
 21
20.830703
  0
LINE
  8
寸法
  6
BYBLOCK
 62
     0
 10
100.109175
 20
22.814033
 11
100.109175
 21
20.830703
  0
POINT
  8
寸法
 62
     0
 10
100.109175
 20
22.814033
  0
POINT
  8
寸法
 62
     0
 10
100.109175
 20
20.830703
  0
TEXT
  7
TextStyle03
  8
寸法
  6
CONTINUOUS
 62
     0
 10
99.7
 20
11.76875
  1
59.5
 40
3.0
 50
90.0
 72
     5
 11
99.7
 21
18.33125
  0
ENDBLK
  0
BLOCK
  2
*DIM_0011
 70
    65
 10
0.0
 20
0.0
  0
LINE
  8
寸法
  6
BYBLOCK
 62
     0
 10
68.072855
 20
-61.253063
 11
68.072855
 21
-13.121378
  0
LINE
  8
寸法
  6
BYBLOCK
 62
     0
 10
66.089525
 20
-13.121378
 11
68.072855
 21
-13.121378
  0
POINT
  8
寸法
 62
     0
 10
66.089525
 20
-13.121378
  0
POINT
  8
寸法
 62
     0
 10
68.072855
 20
-13.121378
  0
TEXT
  7
TextStyle03
  8
寸法
  6
CONTINUOUS
 62
     0
 10
70.54375
 20
-12.75
  1
59.5
 40
3.0
 72
     5
 11
77.10625
 21
-12.75
  0
ENDBLK
  0
BLOCK
  2
*DIM_0012
 70
    65
 10
0.0
 20
0.0
  0
LINE
  8
寸法
  6
BYBLOCK
 62
     0
 10
-119.22714
 20
-61.253063
 11
-119.22714
 21
-13.121378
  0
LINE
  8
寸法
  6
BYBLOCK
 62
     0
 10
-117.243808
 20
-13.121378
 11
-119.22714
 21
-13.121378
  0
POINT
  8
寸法
 62
     0
 10
-117.243808
 20
-13.121378
  0
POINT
  8
寸法
 62
     0
 10
-119.22714
 20
-13.121378
  0
TEXT
  7
TextStyle03
  8
寸法
  6
CONTINUOUS
 62
     0
 10
-128.28125
 20
-12.75
  1
59.5
 40
3.0
 72
     5
 11
-121.71875
 21
-12.75
  0
ENDBLK
  0
BLOCK
  2
*DIM_0013
 70
    65
 10
0.0
 20
0.0
  0
LINE
  8
寸法
  6
BYBLOCK
 62
     0
 10
-120.243808
 20
39.4807
 11
-133.536645
 21
39.4807
  0
LINE
  8
寸法
  6
BYBLOCK
 62
     0
 10
-120.243808
 20
26.147365
 11
-133.536645
 21
26.147365
  0
LINE
  8
寸法
  6
BYBLOCK
 62
     0
 10
-133.536645
 20
39.4807
 11
-133.536645
 21
26.147365
  0
POINT
  8
寸法
 62
     0
 10
-133.536645
 20
39.4807
  0
POINT
  8
寸法
 62
     0
 10
-133.536645
 20
26.147365
  0
TEXT
  7
TextStyle03
  8
寸法
  6
CONTINUOUS
 62
     0
 10
-133.925
 20
30.3625
  1
400
 40
3.0
 50
90.0
 72
     5
 11
-133.925
 21
35.2375
  0
ENDBLK
  0
BLOCK
  2
*DIM_0014
 70
    65
 10
0.0
 20
0.0
  0
LINE
  8
寸法
  6
BYBLOCK
 62
     0
 10
-105.577142
 20
45.814033
 11
-105.577142
 21
74.922105
  0
LINE
  8
寸法
  6
BYBLOCK
 62
     0
 10
-78.910475
 20
45.814033
 11
-78.910475
 21
74.922105
  0
LINE
  8
寸法
  6
BYBLOCK
 62
     0
 10
-105.577142
 20
74.922105
 11
-78.910475
 21
74.922105
  0
POINT
  8
寸法
 62
     0
 10
-105.577142
 20
74.922105
  0
POINT
  8
寸法
 62
     0
 10
-78.910475
 20
74.922105
  0
TEXT
  7
TextStyle03
  8
寸法
  6
CONTINUOUS
 62
     0
 10
-94.7125
 20
75.3
  1
800
 40
3.0
 72
     5
 11
-89.8375
 21
75.3
  0
ENDBLK
  0
BLOCK
  2
*DIM_0015
 70
    65
 10
0.0
 20
0.0
  0
LINE
  8
寸法
  6
BYBLOCK
 62
     0
 10
-52.24381
 20
45.814033
 11
-52.24381
 21
74.922105
  0
LINE
  8
寸法
  6
BYBLOCK
 62
     0
 10
-78.910475
 20
74.922105
 11
-52.24381
 21
74.922105
  0
POINT
  8
寸法
 62
     0
 10
-52.24381
 20
74.922105
  0
TEXT
  7
TextStyle03
  8
寸法
  6
CONTINUOUS
 62
     0
 10
-68.0375
 20
75.3
  1
800
 40
3.0
 72
     5
 11
-63.1625
 21
75.3
  0
ENDBLK
  0
BLOCK
  2
*DIM_0016
 70
    65
 10
0.0
 20
0.0
  0
LINE
  8
寸法
  6
BYBLOCK
 62
     0
 10
-25.577142
 20
45.814033
 11
-25.577142
 21
74.922105
  0
LINE
  8
寸法
  6
BYBLOCK
 62
     0
 10
-52.24381
 20
74.922105
 11
-25.577142
 21
74.922105
  0
POINT
  8
寸法
 62
     0
 10
-25.577142
 20
74.922105
  0
TEXT
  7
TextStyle03
  8
寸法
  6
CONTINUOUS
 62
     0
 10
-41.3625
 20
75.3
  1
800
 40
3.0
 72
     5
 11
-36.4875
 21
75.3
  0
ENDBLK
  0
BLOCK
  2
*DIM_0017
 70
    65
 10
0.0
 20
0.0
  0
LINE
  8
寸法
  6
BYBLOCK
 62
     0
 10
1.089525
 20
45.814033
 11
1.089525
 21
74.922105
  0
LINE
  8
寸法
  6
BYBLOCK
 62
     0
 10
-25.577142
 20
74.922105
 11
1.089525
 21
74.922105
  0
POINT
  8
寸法
 62
     0
 10
1.089525
 20
74.922105
  0
TEXT
  7
TextStyle03
  8
寸法
  6
CONTINUOUS
 62
     0
 10
-14.7125
 20
75.3
  1
800
 40
3.0
 72
     5
 11
-9.8375
 21
75.3
  0
ENDBLK
  0
BLOCK
  2
*DIM_0018
 70
    65
 10
0.0
 20
0.0
  0
LINE
  8
寸法
  6
BYBLOCK
 62
     0
 10
27.75619
 20
45.814033
 11
27.75619
 21
74.922105
  0
LINE
  8
寸法
  6
BYBLOCK
 62
     0
 10
1.089525
 20
74.922105
 11
27.75619
 21
74.922105
  0
POINT
  8
寸法
 62
     0
 10
27.75619
 20
74.922105
  0
TEXT
  7
TextStyle03
  8
寸法
  6
CONTINUOUS
 62
     0
 10
11.9625
 20
75.3
  1
800
 40
3.0
 72
     5
 11
16.8375
 21
75.3
  0
ENDBLK
  0
BLOCK
  2
*DIM_0019
 70
    65
 10
0.0
 20
0.0
  0
LINE
  8
寸法
  6
BYBLOCK
 62
     0
 10
54.422857
 20
45.814033
 11
54.422857
 21
74.922105
  0
LINE
  8
寸法
  6
BYBLOCK
 62
     0
 10
27.75619
 20
74.922105
 11
54.422857
 21
74.922105
  0
POINT
  8
寸法
 62
     0
 10
54.422857
 20
74.922105
  0
TEXT
  7
TextStyle03
  8
寸法
  6
CONTINUOUS
 62
     0
 10
38.6375
 20
75.3
  1
800
 40
3.0
 72
     5
 11
43.5125
 21
75.3
  0
ENDBLK
  0
BLOCK
  2
*DIM_0020
 70
    65
 10
0.0
 20
0.0
  0
LINE
  8
寸法
  6
CONTINUOUS
 10
154.392195
 20
56.049278
 11
162.042245
 21
56.049278
  0
POINT
  8
寸法
 10
154.392195
 20
56.049278
  0
POINT
  8
寸法
 10
162.042245
 20
56.049278
  0
TEXT
  7
TextStyle03
  8
寸法
  6
CONTINUOUS
 10
154.075
 20
56.4
  1
229.5
 40
3.0
 72
     5
 11
162.325
 21
56.4
  0
ENDBLK
  0
BLOCK
  2
*GRP_0021
 70
    65
 10
0.0
 20
0.0
  0
LINE
  8
補助線
  6
BYBLOCK
 62
    64
 10
-113.836007
 20
-73.077517
 11
-113.984933
 21
-73.152343
  0
LINE
  8
補助線
  6
BYBLOCK
 62
    64
 10
-113.947883
 20
-73.040465
 11
-113.873057
 21
-73.189393
  0
LINE
  8
補助線
  6
BYBLOCK
 62
    64
 10
-103.917527
 20
-68.09416
 11
-104.066455
 21
-68.168985
  0
LINE
  8
補助線
  6
BYBLOCK
 62
    64
 10
-104.029405
 20
-68.057107
 11
-103.95458
 21
-68.206035
  0
LINE
  8
補助線
  6
BYBLOCK
 62
    64
 10
-94.147977
 20
-63.185628
 11
-93.99905
 21
-63.110803
  0
LINE
  8
補助線
  6
BYBLOCK
 62
    64
 10
-94.110927
 20
-63.07375
 11
-94.036103
 21
-63.222678
  0
LINE
  8
型材断面
  6
CONTINUOUS
 10
-114.582448
 20
-72.519953
 11
-114.80475
 21
-73.191205
  0
LINE
  8
型材断面
  6
CONTINUOUS
 10
-114.80475
 20
-73.191205
 11
-114.505447
 21
-73.78691
  0
LINE
  8
型材断面
  6
CONTINUOUS
 10
-114.505447
 20
-73.78691
 11
-113.834195
 21
-74.009213
  0
LINE
  8
型材断面
  6
CONTINUOUS
 10
-94.14979
 20
-62.253935
 11
-93.478535
 21
-62.476238
  0
LINE
  8
型材断面
  6
CONTINUOUS
 10
-93.478535
 20
-62.476238
 11
-93.179233
 21
-63.071943
  0
LINE
  8
型材断面
  6
CONTINUOUS
 10
-93.179233
 20
-63.071943
 11
-93.401537
 21
-63.743195
  0
LINE
  8
型材断面
  6
CONTINUOUS
 10
-114.582448
 20
-72.519953
 11
-94.14979
 21
-62.253935
  0
LINE
  8
型材断面
  6
CONTINUOUS
 10
-113.834195
 20
-74.009213
 11
-93.401537
 21
-63.743195
  0
CIRCLE
  8
ボルト／ビス
  6
CONTINUOUS
 10
-113.91047
 20
-73.11493
 40
0.250185
  0
CIRCLE
  8
ボルト／ビス
  6
CONTINUOUS
 10
-113.91047
 20
-73.11493
 40
0.301025
  0
LINE
  8
ボルト／ビス
  6
CONTINUOUS
 62
    64
 10
-114.160235
 20
-73.100428
 11
-114.02279
 21
-72.891378
  0
LINE
  8
ボルト／ビス
  6
CONTINUOUS
 62
    64
 10
-113.773025
 20
-72.90588
 11
-114.02279
 21
-72.891378
  0
LINE
  8
ボルト／ビス
  6
CONTINUOUS
 62
    64
 10
-114.047915
 20
-73.32398
 11
-113.79815
 21
-73.338483
  0
LINE
  8
ボルト／ビス
  6
CONTINUOUS
 62
    64
 10
-113.660705
 20
-73.129432
 11
-113.79815
 21
-73.338483
  0
LINE
  8
ボルト／ビス
  6
CONTINUOUS
 62
    64
 10
-114.160235
 20
-73.100428
 11
-114.047915
 21
-73.32398
  0
LINE
  8
ボルト／ビス
  6
CONTINUOUS
 62
    64
 10
-113.773025
 20
-72.90588
 11
-113.660705
 21
-73.129432
  0
CIRCLE
  8
ボルト／ビス
  6
CONTINUOUS
 62
    64
 10
-113.91047
 20
-73.11493
 40
0.216668
  0
CIRCLE
  8
ボルト／ビス
  6
CONTINUOUS
 10
-103.991993
 20
-68.131573
 40
0.250185
  0
CIRCLE
  8
ボルト／ビス
  6
CONTINUOUS
 10
-103.991993
 20
-68.131573
 40
0.301025
  0
LINE
  8
ボルト／ビス
  6
CONTINUOUS
 62
    64
 10
-104.241758
 20
-68.117068
 11
-104.104313
 21
-67.908018
  0
LINE
  8
ボルト／ビス
  6
CONTINUOUS
 62
    64
 10
-103.854548
 20
-67.92252
 11
-104.104313
 21
-67.908018
  0
LINE
  8
ボルト／ビス
  6
CONTINUOUS
 62
    64
 10
-104.129438
 20
-68.340622
 11
-103.87967
 21
-68.355127
  0
LINE
  8
ボルト／ビス
  6
CONTINUOUS
 62
    64
 10
-103.742227
 20
-68.146077
 11
-103.87967
 21
-68.355127
  0
LINE
  8
ボルト／ビス
  6
CONTINUOUS
 62
    64
 10
-104.241758
 20
-68.117068
 11
-104.129438
 21
-68.340622
  0
LINE
  8
ボルト／ビス
  6
CONTINUOUS
 62
    64
 10
-103.854548
 20
-67.92252
 11
-103.742227
 21
-68.146077
  0
CIRCLE
  8
ボルト／ビス
  6
CONTINUOUS
 62
    64
 10
-103.991993
 20
-68.131573
 40
0.216668
  0
CIRCLE
  8
ボルト／ビス
  6
CONTINUOUS
 10
-94.073515
 20
-63.148215
 40
0.250185
  0
CIRCLE
  8
ボルト／ビス
  6
CONTINUOUS
 10
-94.073515
 20
-63.148215
 40
0.301025
  0
LINE
  8
ボルト／ビス
  6
CONTINUOUS
 62
    64
 10
-93.93607
 20
-62.939165
 11
-94.185835
 21
-62.924662
  0
LINE
  8
ボルト／ビス
  6
CONTINUOUS
 62
    64
 10
-94.32328
 20
-63.133713
 11
-94.185835
 21
-62.924662
  0
LINE
  8
ボルト／ビス
  6
CONTINUOUS
 62
    64
 10
-93.82375
 20
-63.16272
 11
-93.961193
 21
-63.371767
  0
LINE
  8
ボルト／ビス
  6
CONTINUOUS
 62
    64
 10
-94.21096
 20
-63.357265
 11
-93.961193
 21
-63.371767
  0
LINE
  8
ボルト／ビス
  6
CONTINUOUS
 62
    64
 10
-93.93607
 20
-62.939165
 11
-93.82375
 21
-63.16272
  0
LINE
  8
ボルト／ビス
  6
CONTINUOUS
 62
    64
 10
-94.32328
 20
-63.133713
 11
-94.21096
 21
-63.357265
  0
CIRCLE
  8
ボルト／ビス
  6
CONTINUOUS
 62
    64
 10
-94.073515
 20
-63.148215
 40
0.216668
  0
ENDBLK
  0
BLOCK
  2
*GRP_0022
 70
    65
 10
0.0
 20
0.0
  0
LINE
  8
補助線
  6
BYBLOCK
 62
    64
 10
-94.147977
 20
-73.077517
 11
-93.999053
 21
-73.152343
  0
LINE
  8
補助線
  6
BYBLOCK
 62
    64
 10
-94.036103
 20
-73.040465
 11
-94.110927
 21
-73.189393
  0
LINE
  8
補助線
  6
BYBLOCK
 62
    64
 10
-104.066457
 20
-68.09416
 11
-103.91753
 21
-68.168985
  0
LINE
  8
補助線
  6
BYBLOCK
 62
    64
 10
-103.95458
 20
-68.057107
 11
-104.029405
 21
-68.206035
  0
LINE
  8
補助線
  6
BYBLOCK
 62
    64
 10
-113.836007
 20
-63.185628
 11
-113.984935
 21
-63.110803
  0
LINE
  8
補助線
  6
BYBLOCK
 62
    64
 10
-113.873057
 20
-63.07375
 11
-113.947883
 21
-63.222678
  0
LINE
  8
型材断面
  6
CONTINUOUS
 10
-93.401537
 20
-72.519953
 11
-93.179235
 21
-73.191205
  0
LINE
  8
型材断面
  6
CONTINUOUS
 10
-93.179235
 20
-73.191205
 11
-93.478538
 21
-73.78691
  0
LINE
  8
型材断面
  6
CONTINUOUS
 10
-93.478538
 20
-73.78691
 11
-94.14979
 21
-74.009213
  0
LINE
  8
型材断面
  6
CONTINUOUS
 10
-113.834195
 20
-62.253935
 11
-114.50545
 21
-62.476238
  0
LINE
  8
型材断面
  6
CONTINUOUS
 10
-114.50545
 20
-62.476238
 11
-114.804752
 21
-63.071943
  0
LINE
  8
型材断面
  6
CONTINUOUS
 10
-114.804752
 20
-63.071943
 11
-114.582448
 21
-63.743195
  0
LINE
  8
型材断面
  6
CONTINUOUS
 10
-93.401537
 20
-72.519953
 11
-113.834195
 21
-62.253935
  0
LINE
  8
型材断面
  6
CONTINUOUS
 10
-94.14979
 20
-74.009213
 11
-114.582448
 21
-63.743195
  0
CIRCLE
  8
ボルト／ビス
  6
CONTINUOUS
 10
-94.073515
 20
-73.11493
 40
0.250185
  0
CIRCLE
  8
ボルト／ビス
  6
CONTINUOUS
 10
-94.073515
 20
-73.11493
 40
0.301025
  0
LINE
  8
ボルト／ビス
  6
CONTINUOUS
 62
    64
 10
-93.82375
 20
-73.100428
 11
-93.961195
 21
-72.891378
  0
LINE
  8
ボルト／ビス
  6
CONTINUOUS
 62
    64
 10
-94.21096
 20
-72.90588
 11
-93.961195
 21
-72.891378
  0
LINE
  8
ボルト／ビス
  6
CONTINUOUS
 62
    64
 10
-93.93607
 20
-73.32398
 11
-94.185835
 21
-73.338483
  0
LINE
  8
ボルト／ビス
  6
CONTINUOUS
 62
    64
 10
-94.32328
 20
-73.129432
 11
-94.185835
 21
-73.338483
  0
LINE
  8
ボルト／ビス
  6
CONTINUOUS
 62
    64
 10
-93.82375
 20
-73.100428
 11
-93.93607
 21
-73.32398
  0
LINE
  8
ボルト／ビス
  6
CONTINUOUS
 62
    64
 10
-94.21096
 20
-72.90588
 11
-94.32328
 21
-73.129432
  0
CIRCLE
  8
ボルト／ビス
  6
CONTINUOUS
 62
    64
 10
-94.073515
 20
-73.11493
 40
0.216668
  0
CIRCLE
  8
ボルト／ビス
  6
CONTINUOUS
 10
-103.991993
 20
-68.131573
 40
0.250185
  0
CIRCLE
  8
ボルト／ビス
  6
CONTINUOUS
 10
-103.991993
 20
-68.131573
 40
0.301025
  0
LINE
  8
ボルト／ビス
  6
CONTINUOUS
 62
    64
 10
-103.742227
 20
-68.117068
 11
-103.879673
 21
-67.908018
  0
LINE
  8
ボルト／ビス
  6
CONTINUOUS
 62
    64
 10
-104.129438
 20
-67.92252
 11
-103.879673
 21
-67.908018
  0
LINE
  8
ボルト／ビス
  6
CONTINUOUS
 62
    64
 10
-103.854548
 20
-68.340622
 11
-104.104315
 21
-68.355127
  0
LINE
  8
ボルト／ビス
  6
CONTINUOUS
 62
    64
 10
-104.241758
 20
-68.146077
 11
-104.104315
 21
-68.355127
  0
LINE
  8
ボルト／ビス
  6
CONTINUOUS
 62
    64
 10
-103.742227
 20
-68.117068
 11
-103.854548
 21
-68.340622
  0
LINE
  8
ボルト／ビス
  6
CONTINUOUS
 62
    64
 10
-104.129438
 20
-67.92252
 11
-104.241758
 21
-68.146077
  0
CIRCLE
  8
ボルト／ビス
  6
CONTINUOUS
 62
    64
 10
-103.991993
 20
-68.131573
 40
0.216668
  0
CIRCLE
  8
ボルト／ビス
  6
CONTINUOUS
 10
-113.91047
 20
-63.148215
 40
0.250185
  0
CIRCLE
  8
ボルト／ビス
  6
CONTINUOUS
 10
-113.91047
 20
-63.148215
 40
0.301025
  0
LINE
  8
ボルト／ビス
  6
CONTINUOUS
 62
    64
 10
-114.047915
 20
-62.939165
 11
-113.79815
 21
-62.924662
  0
LINE
  8
ボルト／ビス
  6
CONTINUOUS
 62
    64
 10
-113.660705
 20
-63.133713
 11
-113.79815
 21
-62.924662
  0
LINE
  8
ボルト／ビス
  6
CONTINUOUS
 62
    64
 10
-114.160235
 20
-63.16272
 11
-114.022793
 21
-63.371767
  0
LINE
  8
ボルト／ビス
  6
CONTINUOUS
 62
    64
 10
-113.773025
 20
-63.357265
 11
-114.022793
 21
-63.371767
  0
LINE
  8
ボルト／ビス
  6
CONTINUOUS
 62
    64
 10
-114.047915
 20
-62.939165
 11
-114.160235
 21
-63.16272
  0
LINE
  8
ボルト／ビス
  6
CONTINUOUS
 62
    64
 10
-113.660705
 20
-63.133713
 11
-113.773025
 21
-63.357265
  0
CIRCLE
  8
ボルト／ビス
  6
CONTINUOUS
 62
    64
 10
-113.91047
 20
-63.148215
 40
0.216668
  0
ENDBLK
  0
BLOCK
  2
*GRP_0023
 70
    65
 10
0.0
 20
0.0
  0
LINE
  8
補助線
  6
BYBLOCK
 62
    64
 10
62.681738
 20
-73.077517
 11
62.830662
 21
-73.152343
  0
LINE
  8
補助線
  6
BYBLOCK
 62
    64
 10
62.793613
 20
-73.040465
 11
62.718787
 21
-73.189393
  0
LINE
  8
補助線
  6
BYBLOCK
 62
    64
 10
52.763257
 20
-68.09416
 11
52.912185
 21
-68.168985
  0
LINE
  8
補助線
  6
BYBLOCK
 62
    64
 10
52.875135
 20
-68.057107
 11
52.80031
 21
-68.206035
  0
LINE
  8
補助線
  6
BYBLOCK
 62
    64
 10
42.993707
 20
-63.185628
 11
42.84478
 21
-63.110803
  0
LINE
  8
補助線
  6
BYBLOCK
 62
    64
 10
42.956658
 20
-63.07375
 11
42.881833
 21
-63.222678
  0
LINE
  8
型材断面
  6
CONTINUOUS
 10
63.428177
 20
-72.519953
 11
63.65048
 21
-73.191205
  0
LINE
  8
型材断面
  6
CONTINUOUS
 10
63.65048
 20
-73.191205
 11
63.351178
 21
-73.78691
  0
LINE
  8
型材断面
  6
CONTINUOUS
 10
63.351178
 20
-73.78691
 11
62.679925
 21
-74.009213
  0
LINE
  8
型材断面
  6
CONTINUOUS
 10
42.99552
 20
-62.253935
 11
42.324265
 21
-62.476238
  0
LINE
  8
型材断面
  6
CONTINUOUS
 10
42.324265
 20
-62.476238
 11
42.024963
 21
-63.071943
  0
LINE
  8
型材断面
  6
CONTINUOUS
 10
42.024963
 20
-63.071943
 11
42.247268
 21
-63.743195
  0
LINE
  8
型材断面
  6
CONTINUOUS
 10
63.428177
 20
-72.519953
 11
42.99552
 21
-62.253935
  0
LINE
  8
型材断面
  6
CONTINUOUS
 10
62.679925
 20
-74.009213
 11
42.247268
 21
-63.743195
  0
CIRCLE
  8
ボルト／ビス
  6
CONTINUOUS
 10
62.7562
 20
-73.11493
 40
0.250185
  0
CIRCLE
  8
ボルト／ビス
  6
CONTINUOUS
 10
62.7562
 20
-73.11493
 40
0.301025
  0
LINE
  8
ボルト／ビス
  6
CONTINUOUS
 62
    64
 10
63.005965
 20
-73.100428
 11
62.86852
 21
-72.891378
  0
LINE
  8
ボルト／ビス
  6
CONTINUOUS
 62
    64
 10
62.618755
 20
-72.90588
 11
62.86852
 21
-72.891378
  0
LINE
  8
ボルト／ビス
  6
CONTINUOUS
 62
    64
 10
62.893645
 20
-73.32398
 11
62.64388
 21
-73.338483
  0
LINE
  8
ボルト／ビス
  6
CONTINUOUS
 62
    64
 10
62.506435
 20
-73.129432
 11
62.64388
 21
-73.338483
  0
LINE
  8
ボルト／ビス
  6
CONTINUOUS
 62
    64
 10
63.005965
 20
-73.100428
 11
62.893645
 21
-73.32398
  0
LINE
  8
ボルト／ビス
  6
CONTINUOUS
 62
    64
 10
62.618755
 20
-72.90588
 11
62.506435
 21
-73.129432
  0
CIRCLE
  8
ボルト／ビス
  6
CONTINUOUS
 62
    64
 10
62.7562
 20
-73.11493
 40
0.216668
  0
CIRCLE
  8
ボルト／ビス
  6
CONTINUOUS
 10
52.837723
 20
-68.131573
 40
0.250185
  0
CIRCLE
  8
ボルト／ビス
  6
CONTINUOUS
 10
52.837723
 20
-68.131573
 40
0.301025
  0
LINE
  8
ボルト／ビス
  6
CONTINUOUS
 62
    64
 10
53.087487
 20
-68.117068
 11
52.950043
 21
-67.908018
  0
LINE
  8
ボルト／ビス
  6
CONTINUOUS
 62
    64
 10
52.700278
 20
-67.92252
 11
52.950043
 21
-67.908018
  0
LINE
  8
ボルト／ビス
  6
CONTINUOUS
 62
    64
 10
52.975167
 20
-68.340622
 11
52.7254
 21
-68.355127
  0
LINE
  8
ボルト／ビス
  6
CONTINUOUS
 62
    64
 10
52.587958
 20
-68.146077
 11
52.7254
 21
-68.355127
  0
LINE
  8
ボルト／ビス
  6
CONTINUOUS
 62
    64
 10
53.087487
 20
-68.117068
 11
52.975167
 21
-68.340622
  0
LINE
  8
ボルト／ビス
  6
CONTINUOUS
 62
    64
 10
52.700278
 20
-67.92252
 11
52.587958
 21
-68.146077
  0
CIRCLE
  8
ボルト／ビス
  6
CONTINUOUS
 62
    64
 10
52.837723
 20
-68.131573
 40
0.216668
  0
CIRCLE
  8
ボルト／ビス
  6
CONTINUOUS
 10
42.919245
 20
-63.148215
 40
0.250185
  0
CIRCLE
  8
ボルト／ビス
  6
CONTINUOUS
 10
42.919245
 20
-63.148215
 40
0.301025
  0
LINE
  8
ボルト／ビス
  6
CONTINUOUS
 62
    64
 10
42.7818
 20
-62.939165
 11
43.031565
 21
-62.924662
  0
LINE
  8
ボルト／ビス
  6
CONTINUOUS
 62
    64
 10
43.16901
 20
-63.133713
 11
43.031565
 21
-62.924662
  0
LINE
  8
ボルト／ビス
  6
CONTINUOUS
 62
    64
 10
42.66948
 20
-63.16272
 11
42.806922
 21
-63.371767
  0
LINE
  8
ボルト／ビス
  6
CONTINUOUS
 62
    64
 10
43.05669
 20
-63.357265
 11
42.806922
 21
-63.371767
  0
LINE
  8
ボルト／ビス
  6
CONTINUOUS
 62
    64
 10
42.7818
 20
-62.939165
 11
42.66948
 21
-63.16272
  0
LINE
  8
ボルト／ビス
  6
CONTINUOUS
 62
    64
 10
43.16901
 20
-63.133713
 11
43.05669
 21
-63.357265
  0
CIRCLE
  8
ボルト／ビス
  6
CONTINUOUS
 62
    64
 10
42.919245
 20
-63.148215
 40
0.216668
  0
ENDBLK
  0
BLOCK
  2
*GRP_0024
 70
    65
 10
0.0
 20
0.0
  0
LINE
  8
補助線
  6
BYBLOCK
 62
    64
 10
42.993707
 20
-73.077517
 11
42.844782
 21
-73.152343
  0
LINE
  8
補助線
  6
BYBLOCK
 62
    64
 10
42.881833
 20
-73.040465
 11
42.956658
 21
-73.189393
  0
LINE
  8
補助線
  6
BYBLOCK
 62
    64
 10
52.912188
 20
-68.09416
 11
52.76326
 21
-68.168985
  0
LINE
  8
補助線
  6
BYBLOCK
 62
    64
 10
52.80031
 20
-68.057107
 11
52.875135
 21
-68.206035
  0
LINE
  8
補助線
  6
BYBLOCK
 62
    64
 10
62.681738
 20
-63.185628
 11
62.830665
 21
-63.110803
  0
LINE
  8
補助線
  6
BYBLOCK
 62
    64
 10
62.718787
 20
-63.07375
 11
62.793613
 21
-63.222678
  0
LINE
  8
型材断面
  6
CONTINUOUS
 10
42.247268
 20
-72.519953
 11
42.024965
 21
-73.191205
  0
LINE
  8
型材断面
  6
CONTINUOUS
 10
42.024965
 20
-73.191205
 11
42.324267
 21
-73.78691
  0
LINE
  8
型材断面
  6
CONTINUOUS
 10
42.324267
 20
-73.78691
 11
42.99552
 21
-74.009213
  0
LINE
  8
型材断面
  6
CONTINUOUS
 10
62.679925
 20
-62.253935
 11
63.35118
 21
-62.476238
  0
LINE
  8
型材断面
  6
CONTINUOUS
 10
63.35118
 20
-62.476238
 11
63.650482
 21
-63.071943
  0
LINE
  8
型材断面
  6
CONTINUOUS
 10
63.650482
 20
-63.071943
 11
63.428177
 21
-63.743195
  0
LINE
  8
型材断面
  6
CONTINUOUS
 10
42.247268
 20
-72.519953
 11
62.679925
 21
-62.253935
  0
LINE
  8
型材断面
  6
CONTINUOUS
 10
42.99552
 20
-74.009213
 11
63.428177
 21
-63.743195
  0
CIRCLE
  8
ボルト／ビス
  6
CONTINUOUS
 10
42.919245
 20
-73.11493
 40
0.250185
  0
CIRCLE
  8
ボルト／ビス
  6
CONTINUOUS
 10
42.919245
 20
-73.11493
 40
0.301025
  0
LINE
  8
ボルト／ビス
  6
CONTINUOUS
 62
    64
 10
42.66948
 20
-73.100428
 11
42.806925
 21
-72.891378
  0
LINE
  8
ボルト／ビス
  6
CONTINUOUS
 62
    64
 10
43.05669
 20
-72.90588
 11
42.806925
 21
-72.891378
  0
LINE
  8
ボルト／ビス
  6
CONTINUOUS
 62
    64
 10
42.7818
 20
-73.32398
 11
43.031565
 21
-73.338483
  0
LINE
  8
ボルト／ビス
  6
CONTINUOUS
 62
    64
 10
43.16901
 20
-73.129432
 11
43.031565
 21
-73.338483
  0
LINE
  8
ボルト／ビス
  6
CONTINUOUS
 62
    64
 10
42.66948
 20
-73.100428
 11
42.7818
 21
-73.32398
  0
LINE
  8
ボルト／ビス
  6
CONTINUOUS
 62
    64
 10
43.05669
 20
-72.90588
 11
43.16901
 21
-73.129432
  0
CIRCLE
  8
ボルト／ビス
  6
CONTINUOUS
 62
    64
 10
42.919245
 20
-73.11493
 40
0.216668
  0
CIRCLE
  8
ボルト／ビス
  6
CONTINUOUS
 10
52.837723
 20
-68.131573
 40
0.250185
  0
CIRCLE
  8
ボルト／ビス
  6
CONTINUOUS
 10
52.837723
 20
-68.131573
 40
0.301025
  0
LINE
  8
ボルト／ビス
  6
CONTINUOUS
 62
    64
 10
52.587958
 20
-68.117068
 11
52.725403
 21
-67.908018
  0
LINE
  8
ボルト／ビス
  6
CONTINUOUS
 62
    64
 10
52.975167
 20
-67.92252
 11
52.725403
 21
-67.908018
  0
LINE
  8
ボルト／ビス
  6
CONTINUOUS
 62
    64
 10
52.700278
 20
-68.340622
 11
52.950045
 21
-68.355127
  0
LINE
  8
ボルト／ビス
  6
CONTINUOUS
 62
    64
 10
53.087487
 20
-68.146077
 11
52.950045
 21
-68.355127
  0
LINE
  8
ボルト／ビス
  6
CONTINUOUS
 62
    64
 10
52.587958
 20
-68.117068
 11
52.700278
 21
-68.340622
  0
LINE
  8
ボルト／ビス
  6
CONTINUOUS
 62
    64
 10
52.975167
 20
-67.92252
 11
53.087487
 21
-68.146077
  0
CIRCLE
  8
ボルト／ビス
  6
CONTINUOUS
 62
    64
 10
52.837723
 20
-68.131573
 40
0.216668
  0
CIRCLE
  8
ボルト／ビス
  6
CONTINUOUS
 10
62.7562
 20
-63.148215
 40
0.250185
  0
CIRCLE
  8
ボルト／ビス
  6
CONTINUOUS
 10
62.7562
 20
-63.148215
 40
0.301025
  0
LINE
  8
ボルト／ビス
  6
CONTINUOUS
 62
    64
 10
62.893645
 20
-62.939165
 11
62.64388
 21
-62.924662
  0
LINE
  8
ボルト／ビス
  6
CONTINUOUS
 62
    64
 10
62.506435
 20
-63.133713
 11
62.64388
 21
-62.924662
  0
LINE
  8
ボルト／ビス
  6
CONTINUOUS
 62
    64
 10
63.005965
 20
-63.16272
 11
62.868522
 21
-63.371767
  0
LINE
  8
ボルト／ビス
  6
CONTINUOUS
 62
    64
 10
62.618755
 20
-63.357265
 11
62.868522
 21
-63.371767
  0
LINE
  8
ボルト／ビス
  6
CONTINUOUS
 62
    64
 10
62.893645
 20
-62.939165
 11
63.005965
 21
-63.16272
  0
LINE
  8
ボルト／ビス
  6
CONTINUOUS
 62
    64
 10
62.506435
 20
-63.133713
 11
62.618755
 21
-63.357265
  0
CIRCLE
  8
ボルト／ビス
  6
CONTINUOUS
 62
    64
 10
62.7562
 20
-63.148215
 40
0.216668
  0
ENDBLK
  0
BLOCK
  2
*GRP_0025
 70
    65
 10
0.0
 20
0.0
  0
LINE
  8
補助線
  6
BYBLOCK
 62
    64
 10
-15.73312
 20
-73.077517
 11
-15.584195
 21
-73.152343
  0
LINE
  8
補助線
  6
BYBLOCK
 62
    64
 10
-15.621245
 20
-73.040465
 11
-15.69607
 21
-73.189393
  0
LINE
  8
補助線
  6
BYBLOCK
 62
    64
 10
-25.6516
 20
-68.09416
 11
-25.502672
 21
-68.168985
  0
LINE
  8
補助線
  6
BYBLOCK
 62
    64
 10
-25.539722
 20
-68.057107
 11
-25.614548
 21
-68.206035
  0
LINE
  8
補助線
  6
BYBLOCK
 62
    64
 10
-35.42115
 20
-63.185628
 11
-35.570078
 21
-63.110803
  0
LINE
  8
補助線
  6
BYBLOCK
 62
    64
 10
-35.4582
 20
-63.07375
 11
-35.533025
 21
-63.222678
  0
LINE
  8
型材断面
  6
CONTINUOUS
 10
-14.98668
 20
-72.519953
 11
-14.764377
 21
-73.191205
  0
LINE
  8
型材断面
  6
CONTINUOUS
 10
-14.764377
 20
-73.191205
 11
-15.06368
 21
-73.78691
  0
LINE
  8
型材断面
  6
CONTINUOUS
 10
-15.06368
 20
-73.78691
 11
-15.734933
 21
-74.009213
  0
LINE
  8
型材断面
  6
CONTINUOUS
 10
-35.419337
 20
-62.253935
 11
-36.090593
 21
-62.476238
  0
LINE
  8
型材断面
  6
CONTINUOUS
 10
-36.090593
 20
-62.476238
 11
-36.389895
 21
-63.071943
  0
LINE
  8
型材断面
  6
CONTINUOUS
 10
-36.389895
 20
-63.071943
 11
-36.16759
 21
-63.743195
  0
LINE
  8
型材断面
  6
CONTINUOUS
 10
-14.98668
 20
-72.519953
 11
-35.419337
 21
-62.253935
  0
LINE
  8
型材断面
  6
CONTINUOUS
 10
-15.734933
 20
-74.009213
 11
-36.16759
 21
-63.743195
  0
CIRCLE
  8
ボルト／ビス
  6
CONTINUOUS
 10
-15.658658
 20
-73.11493
 40
0.250185
  0
CIRCLE
  8
ボルト／ビス
  6
CONTINUOUS
 10
-15.658658
 20
-73.11493
 40
0.301025
  0
LINE
  8
ボルト／ビス
  6
CONTINUOUS
 62
    64
 10
-15.408893
 20
-73.100428
 11
-15.546338
 21
-72.891378
  0
LINE
  8
ボルト／ビス
  6
CONTINUOUS
 62
    64
 10
-15.796102
 20
-72.90588
 11
-15.546338
 21
-72.891378
  0
LINE
  8
ボルト／ビス
  6
CONTINUOUS
 62
    64
 10
-15.521213
 20
-73.32398
 11
-15.770978
 21
-73.338483
  0
LINE
  8
ボルト／ビス
  6
CONTINUOUS
 62
    64
 10
-15.908422
 20
-73.129432
 11
-15.770978
 21
-73.338483
  0
LINE
  8
ボルト／ビス
  6
CONTINUOUS
 62
    64
 10
-15.408893
 20
-73.100428
 11
-15.521213
 21
-73.32398
  0
LINE
  8
ボルト／ビス
  6
CONTINUOUS
 62
    64
 10
-15.796102
 20
-72.90588
 11
-15.908422
 21
-73.129432
  0
CIRCLE
  8
ボルト／ビス
  6
CONTINUOUS
 62
    64
 10
-15.658658
 20
-73.11493
 40
0.216668
  0
CIRCLE
  8
ボルト／ビス
  6
CONTINUOUS
 10
-25.577135
 20
-68.131573
 40
0.250185
  0
CIRCLE
  8
ボルト／ビス
  6
CONTINUOUS
 10
-25.577135
 20
-68.131573
 40
0.301025
  0
LINE
  8
ボルト／ビス
  6
CONTINUOUS
 62
    64
 10
-25.32737
 20
-68.117068
 11
-25.464815
 21
-67.908018
  0
LINE
  8
ボルト／ビス
  6
CONTINUOUS
 62
    64
 10
-25.71458
 20
-67.92252
 11
-25.464815
 21
-67.908018
  0
LINE
  8
ボルト／ビス
  6
CONTINUOUS
 62
    64
 10
-25.43969
 20
-68.340622
 11
-25.689458
 21
-68.355127
  0
LINE
  8
ボルト／ビス
  6
CONTINUOUS
 62
    64
 10
-25.8269
 20
-68.146077
 11
-25.689458
 21
-68.355127
  0
LINE
  8
ボルト／ビス
  6
CONTINUOUS
 62
    64
 10
-25.32737
 20
-68.117068
 11
-25.43969
 21
-68.340622
  0
LINE
  8
ボルト／ビス
  6
CONTINUOUS
 62
    64
 10
-25.71458
 20
-67.92252
 11
-25.8269
 21
-68.146077
  0
CIRCLE
  8
ボルト／ビス
  6
CONTINUOUS
 62
    64
 10
-25.577135
 20
-68.131573
 40
0.216668
  0
CIRCLE
  8
ボルト／ビス
  6
CONTINUOUS
 10
-35.495612
 20
-63.148215
 40
0.250185
  0
CIRCLE
  8
ボルト／ビス
  6
CONTINUOUS
 10
-35.495612
 20
-63.148215
 40
0.301025
  0
LINE
  8
ボルト／ビス
  6
CONTINUOUS
 62
    64
 10
-35.633057
 20
-62.939165
 11
-35.383292
 21
-62.924662
  0
LINE
  8
ボルト／ビス
  6
CONTINUOUS
 62
    64
 10
-35.245848
 20
-63.133713
 11
-35.383292
 21
-62.924662
  0
LINE
  8
ボルト／ビス
  6
CONTINUOUS
 62
    64
 10
-35.745377
 20
-63.16272
 11
-35.607935
 21
-63.371767
  0
LINE
  8
ボルト／ビス
  6
CONTINUOUS
 62
    64
 10
-35.358168
 20
-63.357265
 11
-35.607935
 21
-63.371767
  0
LINE
  8
ボルト／ビス
  6
CONTINUOUS
 62
    64
 10
-35.633057
 20
-62.939165
 11
-35.745377
 21
-63.16272
  0
LINE
  8
ボルト／ビス
  6
CONTINUOUS
 62
    64
 10
-35.245848
 20
-63.133713
 11
-35.358168
 21
-63.357265
  0
CIRCLE
  8
ボルト／ビス
  6
CONTINUOUS
 62
    64
 10
-35.495612
 20
-63.148215
 40
0.216668
  0
ENDBLK
  0
BLOCK
  2
*GRP_0026
 70
    65
 10
0.0
 20
0.0
  0
LINE
  8
補助線
  6
BYBLOCK
 62
    64
 10
-35.42115
 20
-73.077517
 11
-35.570075
 21
-73.152343
  0
LINE
  8
補助線
  6
BYBLOCK
 62
    64
 10
-35.533025
 20
-73.040465
 11
-35.4582
 21
-73.189393
  0
LINE
  8
補助線
  6
BYBLOCK
 62
    64
 10
-25.50267
 20
-68.09416
 11
-25.651598
 21
-68.168985
  0
LINE
  8
補助線
  6
BYBLOCK
 62
    64
 10
-25.614548
 20
-68.057107
 11
-25.539722
 21
-68.206035
  0
LINE
  8
補助線
  6
BYBLOCK
 62
    64
 10
-15.73312
 20
-63.185628
 11
-15.584192
 21
-63.110803
  0
LINE
  8
補助線
  6
BYBLOCK
 62
    64
 10
-15.69607
 20
-63.07375
 11
-15.621245
 21
-63.222678
  0
LINE
  8
型材断面
  6
CONTINUOUS
 10
-36.16759
 20
-72.519953
 11
-36.389893
 21
-73.191205
  0
LINE
  8
型材断面
  6
CONTINUOUS
 10
-36.389893
 20
-73.191205
 11
-36.09059
 21
-73.78691
  0
LINE
  8
型材断面
  6
CONTINUOUS
 10
-36.09059
 20
-73.78691
 11
-35.419337
 21
-74.009213
  0
LINE
  8
型材断面
  6
CONTINUOUS
 10
-15.734933
 20
-62.253935
 11
-15.063677
 21
-62.476238
  0
LINE
  8
型材断面
  6
CONTINUOUS
 10
-15.063677
 20
-62.476238
 11
-14.764375
 21
-63.071943
  0
LINE
  8
型材断面
  6
CONTINUOUS
 10
-14.764375
 20
-63.071943
 11
-14.98668
 21
-63.743195
  0
LINE
  8
型材断面
  6
CONTINUOUS
 10
-36.16759
 20
-72.519953
 11
-15.734933
 21
-62.253935
  0
LINE
  8
型材断面
  6
CONTINUOUS
 10
-35.419337
 20
-74.009213
 11
-14.98668
 21
-63.743195
  0
CIRCLE
  8
ボルト／ビス
  6
CONTINUOUS
 10
-35.495612
 20
-73.11493
 40
0.250185
  0
CIRCLE
  8
ボルト／ビス
  6
CONTINUOUS
 10
-35.495612
 20
-73.11493
 40
0.301025
  0
LINE
  8
ボルト／ビス
  6
CONTINUOUS
 62
    64
 10
-35.745377
 20
-73.100428
 11
-35.607932
 21
-72.891378
  0
LINE
  8
ボルト／ビス
  6
CONTINUOUS
 62
    64
 10
-35.358168
 20
-72.90588
 11
-35.607932
 21
-72.891378
  0
LINE
  8
ボルト／ビス
  6
CONTINUOUS
 62
    64
 10
-35.633057
 20
-73.32398
 11
-35.383292
 21
-73.338483
  0
LINE
  8
ボルト／ビス
  6
CONTINUOUS
 62
    64
 10
-35.245848
 20
-73.129432
 11
-35.383292
 21
-73.338483
  0
LINE
  8
ボルト／ビス
  6
CONTINUOUS
 62
    64
 10
-35.745377
 20
-73.100428
 11
-35.633057
 21
-73.32398
  0
LINE
  8
ボルト／ビス
  6
CONTINUOUS
 62
    64
 10
-35.358168
 20
-72.90588
 11
-35.245848
 21
-73.129432
  0
CIRCLE
  8
ボルト／ビス
  6
CONTINUOUS
 62
    64
 10
-35.495612
 20
-73.11493
 40
0.216668
  0
CIRCLE
  8
ボルト／ビス
  6
CONTINUOUS
 10
-25.577135
 20
-68.131573
 40
0.250185
  0
CIRCLE
  8
ボルト／ビス
  6
CONTINUOUS
 10
-25.577135
 20
-68.131573
 40
0.301025
  0
LINE
  8
ボルト／ビス
  6
CONTINUOUS
 62
    64
 10
-25.8269
 20
-68.117068
 11
-25.689455
 21
-67.908018
  0
LINE
  8
ボルト／ビス
  6
CONTINUOUS
 62
    64
 10
-25.43969
 20
-67.92252
 11
-25.689455
 21
-67.908018
  0
LINE
  8
ボルト／ビス
  6
CONTINUOUS
 62
    64
 10
-25.71458
 20
-68.340622
 11
-25.464812
 21
-68.355127
  0
LINE
  8
ボルト／ビス
  6
CONTINUOUS
 62
    64
 10
-25.32737
 20
-68.146077
 11
-25.464812
 21
-68.355127
  0
LINE
  8
ボルト／ビス
  6
CONTINUOUS
 62
    64
 10
-25.8269
 20
-68.117068
 11
-25.71458
 21
-68.340622
  0
LINE
  8
ボルト／ビス
  6
CONTINUOUS
 62
    64
 10
-25.43969
 20
-67.92252
 11
-25.32737
 21
-68.146077
  0
CIRCLE
  8
ボルト／ビス
  6
CONTINUOUS
 62
    64
 10
-25.577135
 20
-68.131573
 40
0.216668
  0
CIRCLE
  8
ボルト／ビス
  6
CONTINUOUS
 10
-15.658658
 20
-63.148215
 40
0.250185
  0
CIRCLE
  8
ボルト／ビス
  6
CONTINUOUS
 10
-15.658658
 20
-63.148215
 40
0.301025
  0
LINE
  8
ボルト／ビス
  6
CONTINUOUS
 62
    64
 10
-15.521213
 20
-62.939165
 11
-15.770978
 21
-62.924662
  0
LINE
  8
ボルト／ビス
  6
CONTINUOUS
 62
    64
 10
-15.908422
 20
-63.133713
 11
-15.770978
 21
-62.924662
  0
LINE
  8
ボルト／ビス
  6
CONTINUOUS
 62
    64
 10
-15.408893
 20
-63.16272
 11
-15.546335
 21
-63.371767
  0
LINE
  8
ボルト／ビス
  6
CONTINUOUS
 62
    64
 10
-15.796102
 20
-63.357265
 11
-15.546335
 21
-63.371767
  0
LINE
  8
ボルト／ビス
  6
CONTINUOUS
 62
    64
 10
-15.521213
 20
-62.939165
 11
-15.408893
 21
-63.16272
  0
LINE
  8
ボルト／ビス
  6
CONTINUOUS
 62
    64
 10
-15.908422
 20
-63.133713
 11
-15.796102
 21
-63.357265
  0
CIRCLE
  8
ボルト／ビス
  6
CONTINUOUS
 62
    64
 10
-15.658658
 20
-63.148215
 40
0.216668
  0
ENDBLK
  0
BLOCK
  2
*DIM_0027
 70
    65
 10
0.0
 20
0.0
  0
LINE
  8
寸法
  6
CONTINUOUS
 10
79.32477
 20
-67.538213
 11
79.32477
 21
-75.188263
  0
POINT
  8
寸法
 10
79.32477
 20
-67.538213
  0
POINT
  8
寸法
 10
79.32477
 20
-75.188263
  0
TEXT
  7
TextStyle03
  8
寸法
  6
CONTINUOUS
 10
83.575
 20
-74.975
  1
229.5
 40
3.0
 50
90.0
 72
     5
 11
83.575
 21
-66.725
  0
ENDBLK
  0
BLOCK
  2
*DIM_0028
 70
    65
 10
0.0
 20
0.0
  0
LINE
  8
寸法
  6
CONTINUOUS
 10
125.57608
 20
-55.403383
 11
161.17608
 21
-55.403383
  0
POINT
  8
寸法
 10
125.57608
 20
-55.403383
  0
POINT
  8
寸法
 10
161.17608
 20
-55.403383
  0
TEXT
  7
TextStyle03
  8
寸法
  6
CONTINUOUS
 10
140.09375
 20
-55.05
  1
1068
 40
3.0
 72
     5
 11
146.65625
 21
-55.05
  0
ENDBLK
  0
BLOCK
  2
*DIM_0029
 70
    65
 10
0.0
 20
0.0
  0
LINE
  8
寸法
  6
BYBLOCK
 62
     0
 10
79.32477
 20
-67.538213
 11
79.32477
 21
-60.20488
  0
POINT
  8
寸法
 62
     0
 10
79.32477
 20
-67.538213
  0
POINT
  8
寸法
 62
     0
 10
79.32477
 20
-60.20488
  0
TEXT
  7
TextStyle03
  8
寸法
  6
CONTINUOUS
 62
     0
 10
79.05
 20
-58.69375
  1
上昇210以上
 40
3.0
 50
90.0
 72
     5
 11
79.05
 21
-40.50625
  0
ENDBLK
  0
ENDSEC
  0
SECTION
  2
ENTITIES
  0
POLYLINE
  8
通り芯
  6
CONTINUOUS
 66
     1
 70
     1
  0
VERTEX
  8
通り芯
 10
-210.0
 20
-148.5
  0
VERTEX
  8
通り芯
 10
210.0
 20
-148.5
  0
VERTEX
  8
通り芯
 10
210.0
 20
148.5
  0
VERTEX
  8
通り芯
 10
-210.0
 20
148.5
  0
SEQEND
  0
INSERT
  2
*GRP_0001
  8
型材断面
  6
CONTINUOUS
 10
0.0
 20
0.0
  0
LINE
  8
型材断面
  6
DASHDOT
 10
66.089525
 20
-77.836442
 11
66.089525
 21
42.814033
  0
LINE
  8
型材断面
  6
DASHDOT
 10
-25.577142
 20
-77.836442
 11
-25.577142
 21
42.814033
  0
LINE
  8
型材断面
  6
DASHDOT
 10
-117.243808
 20
-77.836442
 11
-117.243808
 21
42.814033
  0
LINE
  8
型材断面
  6
DASHDOT
 10
163.766288
 20
22.814033
 11
-117.243808
 21
22.814033
  0
LINE
  8
型材断面
  6
DASHDOT
 10
163.766288
 20
32.814033
 11
-117.243808
 21
32.814033
  0
LINE
  8
型材断面
  6
DASHDOT
 10
163.766288
 20
42.814033
 11
-117.243808
 21
42.814033
  0
POLYLINE
  8
型材断面
  6
CONTINUOUS
 66
     1
 70
     1
  0
VERTEX
  8
型材断面
 10
-15.464005
 20
13.03811
  0
VERTEX
  8
型材断面
 10
-34.235935
 20
13.03811
  0
VERTEX
  8
型材断面
 10
-34.235935
 20
8.301267
  0
VERTEX
  8
型材断面
 10
-15.464005
 20
8.301267
  0
SEQEND
  0
POLYLINE
  8
型材断面
  6
CONTINUOUS
 66
     1
 70
     1
  0
VERTEX
  8
型材断面
 10
-15.464005
 20
52.589955
  0
VERTEX
  8
型材断面
 10
-34.235935
 20
52.589955
  0
VERTEX
  8
型材断面
 10
-34.235935
 20
57.326798
  0
VERTEX
  8
型材断面
 10
-15.464005
 20
57.326798
  0
SEQEND
  0
LINE
  8
型材断面
  6
CONTINUOUS
 10
-100.57714
 20
45.444162
 11
-102.07277
 21
48.03467
  0
LINE
  8
型材断面
  6
CONTINUOUS
 10
-100.57714
 20
45.444162
 11
-99.08151
 21
48.03467
  0
LINE
  8
型材断面
  6
CONTINUOUS
 10
-99.08151
 20
48.03467
 11
-102.07277
 21
48.03467
  0
LINE
  8
型材断面
  6
CONTINUOUS
 10
-158.096015
 20
80.791505
 11
-157.49996
 21
78.200998
  0
LINE
  8
型材断面
  6
CONTINUOUS
 10
-158.096015
 20
80.791505
 11
-158.692072
 21
78.200998
  0
LINE
  8
型材断面
  6
CONTINUOUS
 10
-158.692072
 20
78.200998
 11
-157.49996
 21
78.200998
  0
LINE
  8
型材断面
  6
CONTINUOUS
 10
-164.118603
 20
74.922105
 11
-117.876825
 21
74.922105
  0
LINE
  8
型材断面
  6
CONTINUOUS
 10
-158.096015
 20
87.32138
 11
-159.591645
 21
84.730873
  0
LINE
  8
型材断面
  6
CONTINUOUS
 10
-158.096015
 20
87.32138
 11
-156.600385
 21
84.730873
  0
LINE
  8
型材断面
  6
CONTINUOUS
 10
-156.600385
 20
84.730873
 11
-159.591645
 21
84.730873
  0
LINE
  8
型材断面
  6
CONTINUOUS
 10
-164.118603
 20
83.792277
 11
-117.876825
 21
83.792277
  0
LINE
  8
型材断面
  6
CONTINUOUS
 10
-164.118603
 20
69.134073
 11
-117.876825
 21
69.134073
  0
LINE
  8
型材断面
  6
CONTINUOUS
 10
-119.873938
 20
32.814033
 11
-122.464445
 21
34.309663
  0
LINE
  8
型材断面
  6
CONTINUOUS
 10
-119.873938
 20
32.814033
 11
-122.464445
 21
31.318403
  0
LINE
  8
型材断面
  6
CONTINUOUS
 10
-122.464445
 20
31.318403
 11
-122.464445
 21
34.309663
  0
LINE
  8
型材断面
  6
CONTINUOUS
 10
-100.57714
 20
20.183902
 11
-102.07277
 21
17.593395
  0
LINE
  8
型材断面
  6
CONTINUOUS
 10
-100.57714
 20
20.183902
 11
-99.08151
 21
17.593395
  0
LINE
  8
型材断面
  6
CONTINUOUS
 10
-99.08151
 20
17.593395
 11
-102.07277
 21
17.593395
  0
LINE
  8
型材断面
  6
CONTINUOUS
 10
49.422855
 20
45.444162
 11
50.918485
 21
48.03467
  0
LINE
  8
型材断面
  6
CONTINUOUS
 10
49.422855
 20
45.444162
 11
47.927225
 21
48.03467
  0
LINE
  8
型材断面
  6
CONTINUOUS
 10
47.927225
 20
48.03467
 11
50.918485
 21
48.03467
  0
LINE
  8
型材断面
  6
CONTINUOUS
 10
49.422855
 20
20.183902
 11
50.918485
 21
17.593395
  0
LINE
  8
型材断面
  6
CONTINUOUS
 10
49.422855
 20
20.183902
 11
47.927225
 21
17.593395
  0
LINE
  8
型材断面
  6
CONTINUOUS
 10
47.927225
 20
17.593395
 11
50.918485
 21
17.593395
  0
LINE
  8
型材断面
  6
CONTINUOUS
 10
-25.577142
 20
45.44416
 11
-27.072772
 21
48.034668
  0
LINE
  8
型材断面
  6
CONTINUOUS
 10
-25.577142
 20
45.44416
 11
-24.081513
 21
48.034668
  0
LINE
  8
型材断面
  6
CONTINUOUS
 10
-24.081513
 20
48.034668
 11
-27.072772
 21
48.034668
  0
LINE
  8
型材断面
  6
CONTINUOUS
 10
-25.577142
 20
20.1839
 11
-27.072772
 21
17.593392
  0
LINE
  8
型材断面
  6
CONTINUOUS
 10
-25.577142
 20
20.1839
 11
-24.081513
 21
17.593392
  0
LINE
  8
型材断面
  6
CONTINUOUS
 10
-24.081513
 20
17.593392
 11
-27.072772
 21
17.593392
  0
LINE
  8
型材断面
  6
CONTINUOUS
 10
68.719655
 20
39.114035
 11
71.310165
 21
38.517982
  0
LINE
  8
型材断面
  6
CONTINUOUS
 10
68.719655
 20
39.114035
 11
71.310162
 21
39.710095
  0
LINE
  8
型材断面
  6
CONTINUOUS
 10
71.310162
 20
39.710095
 11
71.310165
 21
38.517982
  0
LINE
  8
型材断面
  6
CONTINUOUS
 10
68.719655
 20
26.51403
 11
71.310165
 21
27.110082
  0
LINE
  8
型材断面
  6
CONTINUOUS
 10
68.719655
 20
26.51403
 11
71.310162
 21
25.91797
  0
LINE
  8
型材断面
  6
CONTINUOUS
 10
71.310162
 20
25.91797
 11
71.310165
 21
27.110082
  0
LINE
  8
型材断面
  6
CONTINUOUS
 10
-119.87394
 20
39.114035
 11
-122.46445
 21
38.517982
  0
LINE
  8
型材断面
  6
CONTINUOUS
 10
-119.87394
 20
39.114035
 11
-122.464448
 21
39.710095
  0
LINE
  8
型材断面
  6
CONTINUOUS
 10
-122.464448
 20
39.710095
 11
-122.46445
 21
38.517982
  0
LINE
  8
型材断面
  6
CONTINUOUS
 10
-119.87394
 20
26.51403
 11
-122.46445
 21
27.110082
  0
LINE
  8
型材断面
  6
CONTINUOUS
 10
-119.87394
 20
26.51403
 11
-122.464448
 21
25.91797
  0
LINE
  8
型材断面
  6
CONTINUOUS
 10
-122.464448
 20
25.91797
 11
-122.46445
 21
27.110082
  0
LINE
  8
型材断面
  6
CONTINUOUS
 10
68.719652
 20
32.814033
 11
71.31016
 21
34.309663
  0
LINE
  8
型材断面
  6
CONTINUOUS
 10
68.719652
 20
32.814033
 11
71.31016
 21
31.318403
  0
LINE
  8
型材断面
  6
CONTINUOUS
 10
71.31016
 20
31.318403
 11
71.31016
 21
34.309663
  0
LINE
  8
型材断面
  6
CONTINUOUS
 10
-119.226992
 20
20.830853
 11
-25.577142
 21
20.830853
  0
LINE
  8
型材断面
  6
CONTINUOUS
 10
-119.226992
 20
44.797213
 11
-25.577142
 21
44.797213
  0
LINE
  8
型材断面
  6
CONTINUOUS
 10
68.072708
 20
44.797213
 11
-25.577142
 21
44.797213
  0
LINE
  8
型材断面
  6
CONTINUOUS
 10
68.072708
 20
20.830853
 11
-25.577142
 21
20.830853
  0
LINE
  8
型材断面
  6
CONTINUOUS
 10
-164.118603
 20
63.34604
 11
-117.876825
 21
63.34604
  0
LINE
  8
型材断面
  6
CONTINUOUS
 10
154.558863
 20
44.370552
 11
154.558863
 21
32.814033
  0
LINE
  8
型材断面
  6
CONTINUOUS
 10
154.392195
 20
32.814033
 11
154.392195
 21
44.21403
  0
LINE
  8
型材断面
  6
CONTINUOUS
 10
156.058863
 20
32.814033
 11
156.058863
 21
44.21403
  0
ARC
  8
型材断面
  6
CONTINUOUS
 62
    47
 10
158.508856
 20
44.797368
 40
0.016668
 50
90.0
 51
180.000877
  0
ARC
  8
型材断面
  6
CONTINUOUS
 62
    47
 10
158.548857
 20
44.804034
 40
0.010002
 50
0.208374
 51
90.0
  0
LINE
  8
型材断面
  6
CONTINUOUS
 62
    47
 10
158.725577
 20
44.76403
 11
158.725577
 21
43.913885
  0
LINE
  8
型材断面
  6
CONTINUOUS
 10
158.725577
 20
32.814033
 11
158.725577
 21
44.797365
  0
LINE
  8
型材断面
  6
CONTINUOUS
 10
162.042245
 20
32.814033
 11
162.042245
 21
44.797365
  0
LINE
  8
型材断面
  6
CONTINUOUS
 10
162.542245
 20
32.814033
 11
162.542245
 21
44.297365
  0
LINE
  8
型材断面
  6
CONTINUOUS
 62
    47
 10
158.49219
 20
44.79737
 11
156.38553
 21
44.79737
  0
LINE
  8
型材断面
  6
CONTINUOUS
 10
156.38553
 20
32.814033
 11
156.38553
 21
44.79737
  0
LINE
  8
型材断面
  6
CONTINUOUS
 62
    47
 10
158.725577
 20
44.797365
 11
162.042245
 21
44.797365
  0
LINE
  8
型材断面
  6
CONTINUOUS
 62
    47
 10
162.542245
 20
44.297365
 11
162.042245
 21
44.297365
  0
LINE
  8
型材断面
  6
CONTINUOUS
 62
    47
 10
156.38553
 20
43.91403
 11
156.058863
 21
43.91403
  0
LINE
  8
型材断面
  6
CONTINUOUS
 10
154.558863
 20
21.257512
 11
154.558863
 21
32.814033
  0
LINE
  8
型材断面
  6
CONTINUOUS
 10
154.392195
 20
32.814033
 11
154.392195
 21
21.414035
  0
LINE
  8
型材断面
  6
CONTINUOUS
 10
156.058863
 20
32.814033
 11
156.058863
 21
21.414035
  0
ARC
  8
型材断面
  6
CONTINUOUS
 62
    47
 10
158.508856
 20
20.830696
 40
0.016668
 50
179.999123
 51
270.0
  0
ARC
  8
型材断面
  6
CONTINUOUS
 62
    47
 10
158.548857
 20
20.82403
 40
0.010002
 50
270.0
 51
359.791626
  0
LINE
  8
型材断面
  6
CONTINUOUS
 62
    47
 10
158.725577
 20
20.864035
 11
158.725577
 21
21.71418
  0
LINE
  8
型材断面
  6
CONTINUOUS
 10
158.725577
 20
32.814033
 11
158.725577
 21
20.8307
  0
LINE
  8
型材断面
  6
CONTINUOUS
 10
162.042245
 20
32.814033
 11
162.042245
 21
20.8307
  0
LINE
  8
型材断面
  6
CONTINUOUS
 10
162.542245
 20
32.814033
 11
162.542245
 21
21.3307
  0
LINE
  8
型材断面
  6
CONTINUOUS
 62
    47
 10
158.49219
 20
20.830695
 11
156.38553
 21
20.830695
  0
LINE
  8
型材断面
  6
CONTINUOUS
 10
156.38553
 20
32.814033
 11
156.38553
 21
20.830695
  0
LINE
  8
型材断面
  6
CONTINUOUS
 62
    47
 10
158.725577
 20
20.8307
 11
162.042245
 21
20.8307
  0
LINE
  8
型材断面
  6
CONTINUOUS
 62
    47
 10
162.542245
 20
21.3307
 11
162.042245
 21
21.3307
  0
LINE
  8
型材断面
  6
CONTINUOUS
 62
    47
 10
156.38553
 20
21.714035
 11
156.058863
 21
21.714035
  0
LINE
  8
型材断面
  6
CONTINUOUS
 10
158.558863
 20
32.814033
 11
158.558863
 21
44.804035
  0
LINE
  8
型材断面
  6
CONTINUOUS
 62
    47
 10
158.508857
 20
44.81403
 11
158.548517
 21
44.81403
  0
LINE
  8
型材断面
  6
CONTINUOUS
 62
    47
 10
158.508857
 20
20.814035
 11
158.548517
 21
20.814035
  0
LINE
  8
型材断面
  6
CONTINUOUS
 10
158.558863
 20
32.814033
 11
158.558863
 21
20.82403
  0
ARC
  8
型材断面
  6
CONTINUOUS
 62
    47
 10
-119.227145
 20
-71.654876
 40
0.016668
 50
89.999123
 51
180.0
  0
ARC
  8
型材断面
  6
CONTINUOUS
 62
    47
 10
-119.233811
 20
-71.694878
 40
0.010002
 50
180.0
 51
269.791626
  0
LINE
  8
型材断面
  6
CONTINUOUS
 62
    47
 10
-119.193808
 20
-71.871595
 11
-118.34366
 21
-71.871595
  0
LINE
  8
型材断面
  6
CONTINUOUS
 62
    47
 10
-119.227145
 20
-71.638208
 11
-119.227145
 21
-69.531548
  0
LINE
  8
型材断面
  6
CONTINUOUS
 62
    47
 10
-119.22714
 20
-71.871595
 11
-119.22714
 21
-75.188263
  0
LINE
  8
型材断面
  6
CONTINUOUS
 62
    47
 10
-118.72714
 20
-75.688263
 11
-118.72714
 21
-75.188263
  0
LINE
  8
型材断面
  6
CONTINUOUS
 62
    47
 10
-118.343805
 20
-69.531548
 11
-118.343805
 21
-69.20488
  0
LINE
  8
型材断面
  6
CONTINUOUS
 62
    47
 10
-119.243808
 20
-71.654875
 11
-119.243808
 21
-71.694535
  0
ARC
  8
型材断面
  6
CONTINUOUS
 62
    47
 10
68.072861
 20
-71.654876
 40
0.016668
 50
0.0
 51
90.000877
  0
ARC
  8
型材断面
  6
CONTINUOUS
 62
    47
 10
68.079527
 20
-71.694878
 40
0.010002
 50
270.208374
 51
360.0
  0
LINE
  8
型材断面
  6
CONTINUOUS
 62
    47
 10
68.039523
 20
-71.871595
 11
67.189378
 21
-71.871595
  0
LINE
  8
型材断面
  6
CONTINUOUS
 62
    47
 10
68.072862
 20
-71.638208
 11
68.072862
 21
-69.531548
  0
LINE
  8
型材断面
  6
CONTINUOUS
 62
    47
 10
68.072857
 20
-71.871595
 11
68.072857
 21
-75.188263
  0
LINE
  8
型材断面
  6
CONTINUOUS
 62
    47
 10
67.572857
 20
-75.688263
 11
67.572857
 21
-75.188263
  0
LINE
  8
型材断面
  6
CONTINUOUS
 62
    47
 10
67.189523
 20
-69.531548
 11
67.189523
 21
-69.20488
  0
LINE
  8
型材断面
  6
CONTINUOUS
 62
    47
 10
68.089523
 20
-71.654875
 11
68.089523
 21
-71.694535
  0
LINE
  8
型材断面
  6
CONTINUOUS
 10
-118.800328
 20
-67.70488
 11
-25.577142
 21
-67.70488
  0
LINE
  8
型材断面
  6
CONTINUOUS
 10
-118.643808
 20
-67.538213
 11
-25.577142
 21
-67.538213
  0
LINE
  8
型材断面
  6
CONTINUOUS
 10
-118.643808
 20
-69.20488
 11
-25.577142
 21
-69.20488
  0
LINE
  8
型材断面
  6
CONTINUOUS
 10
-119.227145
 20
-69.531548
 11
-25.577142
 21
-69.531548
  0
LINE
  8
型材断面
  6
CONTINUOUS
 10
-119.23381
 20
-71.70488
 11
-25.577142
 21
-71.70488
  0
LINE
  8
型材断面
  6
CONTINUOUS
 10
-119.22714
 20
-71.871595
 11
-25.577142
 21
-71.871595
  0
LINE
  8
型材断面
  6
CONTINUOUS
 10
-119.22714
 20
-75.188263
 11
-25.577142
 21
-75.188263
  0
LINE
  8
型材断面
  6
CONTINUOUS
 10
-118.72714
 20
-75.688263
 11
-25.577142
 21
-75.688263
  0
LINE
  8
型材断面
  6
CONTINUOUS
 10
67.572857
 20
-75.688263
 11
-25.577142
 21
-75.688263
  0
LINE
  8
型材断面
  6
CONTINUOUS
 10
68.072857
 20
-75.188263
 11
-25.577142
 21
-75.188263
  0
LINE
  8
型材断面
  6
CONTINUOUS
 10
68.072857
 20
-71.871595
 11
-25.577142
 21
-71.871595
  0
LINE
  8
型材断面
  6
CONTINUOUS
 10
68.079528
 20
-71.70488
 11
-25.577142
 21
-71.70488
  0
LINE
  8
型材断面
  6
CONTINUOUS
 10
67.489523
 20
-67.538213
 11
-25.577142
 21
-67.538213
  0
LINE
  8
型材断面
  6
CONTINUOUS
 10
67.646045
 20
-67.70488
 11
-25.577142
 21
-67.70488
  0
LINE
  8
型材断面
  6
CONTINUOUS
 10
67.489523
 20
-69.20488
 11
-25.577142
 21
-69.20488
  0
LINE
  8
型材断面
  6
CONTINUOUS
 10
68.072862
 20
-69.531548
 11
-25.577142
 21
-69.531548
  0
ARC
  8
型材断面
  6
DOT
 62
    47
 10
-119.227145
 20
-64.321543
 40
0.016668
 50
89.999123
 51
180.0
  0
ARC
  8
型材断面
  6
DOT
 62
    47
 10
-119.233811
 20
-64.361545
 40
0.010002
 50
180.0
 51
269.791626
  0
LINE
  8
型材断面
  6
DOT
 62
    47
 10
-119.227145
 20
-64.304875
 11
-119.227145
 21
-62.198215
  0
LINE
  8
型材断面
  6
DOT
 62
    47
 10
-118.343805
 20
-62.198215
 11
-118.343805
 21
-61.871547
  0
LINE
  8
型材断面
  6
DOT
 62
    47
 10
-119.243808
 20
-64.321543
 11
-119.243808
 21
-64.361203
  0
ARC
  8
型材断面
  6
DOT
 62
    47
 10
68.072861
 20
-64.321543
 40
0.016668
 50
0.0
 51
90.000877
  0
ARC
  8
型材断面
  6
DOT
 62
    47
 10
68.079527
 20
-64.361545
 40
0.010002
 50
270.208374
 51
360.0
  0
LINE
  8
型材断面
  6
DOT
 62
    47
 10
68.072862
 20
-64.304875
 11
68.072862
 21
-62.198215
  0
LINE
  8
型材断面
  6
DOT
 62
    47
 10
67.189523
 20
-62.198215
 11
67.189523
 21
-61.871547
  0
LINE
  8
型材断面
  6
DOT
 62
    47
 10
68.089523
 20
-64.321543
 11
68.089523
 21
-64.361203
  0
LINE
  8
型材断面
  6
DOT
 10
-118.643808
 20
-60.20488
 11
-25.577142
 21
-60.20488
  0
LINE
  8
型材断面
  6
DOT
 10
-118.800328
 20
-60.371547
 11
-25.577142
 21
-60.371547
  0
LINE
  8
型材断面
  6
DOT
 10
-119.227145
 20
-62.198215
 11
-25.577142
 21
-62.198215
  0
LINE
  8
型材断面
  6
DOT
 10
-118.643808
 20
-61.871547
 11
-25.577142
 21
-61.871547
  0
LINE
  8
型材断面
  6
DOT
 10
-119.23381
 20
-64.371547
 11
-25.577142
 21
-64.371547
  0
LINE
  8
型材断面
  6
DOT
 10
68.079528
 20
-64.371547
 11
-25.577142
 21
-64.371547
  0
LINE
  8
型材断面
  6
DOT
 10
67.489523
 20
-61.871547
 11
-25.577142
 21
-61.871547
  0
LINE
  8
型材断面
  6
DOT
 10
67.646045
 20
-60.371547
 11
-25.577142
 21
-60.371547
  0
LINE
  8
型材断面
  6
DOT
 10
67.489523
 20
-60.20488
 11
-25.577142
 21
-60.20488
  0
LINE
  8
型材断面
  6
DOT
 10
68.072862
 20
-62.198215
 11
-25.577142
 21
-62.198215
  0
INSERT
  2
*GRP_0021
  8
型材断面
  6
CONTINUOUS
 10
0.0
 20
0.0
  0
INSERT
  2
*GRP_0022
  8
型材断面
  6
CONTINUOUS
 10
0.0
 20
0.0
  0
INSERT
  2
*GRP_0023
  8
型材断面
  6
CONTINUOUS
 10
0.0
 20
0.0
  0
INSERT
  2
*GRP_0024
  8
型材断面
  6
CONTINUOUS
 10
0.0
 20
0.0
  0
INSERT
  2
*GRP_0025
  8
型材断面
  6
CONTINUOUS
 10
0.0
 20
0.0
  0
INSERT
  2
*GRP_0026
  8
型材断面
  6
CONTINUOUS
 10
0.0
 20
0.0
  0
LINE
  8
型材断面
  6
DASHDOT
 10
-80.72714
 20
22.814033
 11
-80.72714
 21
42.814033
  0
LINE
  8
型材断面
  6
DASHDOT
 10
-43.960473
 20
22.814033
 11
-43.960473
 21
42.814033
  0
LINE
  8
型材断面
  6
DASHDOT
 10
29.572855
 20
22.814033
 11
29.572855
 21
42.814033
  0
LINE
  8
型材断面
  6
DASHDOT
 10
-7.193812
 20
22.814033
 11
-7.193812
 21
42.814033
  0
LINE
  8
型材断面
  6
CONTINUOUS
 10
47.414523
 20
21.257512
 11
47.414523
 21
23.757512
  0
LINE
  8
型材断面
  6
CONTINUOUS
 10
48.247857
 20
21.257512
 11
48.247857
 21
23.757512
  0
LINE
  8
型材断面
  6
CONTINUOUS
 10
11.60619
 20
21.257512
 11
11.60619
 21
23.757512
  0
LINE
  8
型材断面
  6
CONTINUOUS
 10
10.772855
 20
21.257512
 11
10.772855
 21
23.757512
  0
LINE
  8
型材断面
  6
CONTINUOUS
 10
-25.160477
 20
21.257512
 11
-25.160477
 21
23.757512
  0
LINE
  8
型材断面
  6
CONTINUOUS
 10
-25.993812
 20
21.257512
 11
-25.993812
 21
23.757512
  0
LINE
  8
型材断面
  6
CONTINUOUS
 10
-98.568808
 20
21.257512
 11
-98.568808
 21
23.757512
  0
LINE
  8
型材断面
  6
CONTINUOUS
 10
-99.402142
 20
21.257512
 11
-99.402142
 21
23.757512
  0
LINE
  8
型材断面
  6
CONTINUOUS
 10
-62.760475
 20
21.257512
 11
-62.760475
 21
23.757512
  0
LINE
  8
型材断面
  6
CONTINUOUS
 10
-61.92714
 20
21.257512
 11
-61.92714
 21
23.757512
  0
LINE
  8
型材断面
  6
CONTINUOUS
 10
47.414523
 20
44.370552
 11
47.414523
 21
41.870552
  0
LINE
  8
型材断面
  6
CONTINUOUS
 10
48.247857
 20
44.370552
 11
48.247857
 21
41.870552
  0
LINE
  8
型材断面
  6
CONTINUOUS
 10
11.60619
 20
44.370552
 11
11.60619
 21
41.870552
  0
LINE
  8
型材断面
  6
CONTINUOUS
 10
10.772855
 20
44.370552
 11
10.772855
 21
41.870552
  0
LINE
  8
型材断面
  6
CONTINUOUS
 10
-25.160477
 20
44.370552
 11
-25.160477
 21
41.870552
  0
LINE
  8
型材断面
  6
CONTINUOUS
 10
-25.993812
 20
44.370552
 11
-25.993812
 21
41.870552
  0
LINE
  8
型材断面
  6
CONTINUOUS
 10
-98.568808
 20
44.370552
 11
-98.568808
 21
41.870552
  0
LINE
  8
型材断面
  6
CONTINUOUS
 10
-99.402142
 20
44.370552
 11
-99.402142
 21
41.870552
  0
LINE
  8
型材断面
  6
CONTINUOUS
 10
-62.760475
 20
44.370552
 11
-62.760475
 21
41.870552
  0
LINE
  8
型材断面
  6
CONTINUOUS
 10
-61.92714
 20
44.370552
 11
-61.92714
 21
41.870552
  0
LINE
  8
型材断面
  6
CONTINUOUS
 10
-98.568808
 20
23.757512
 11
-62.760475
 21
23.757512
  0
LINE
  8
型材断面
  6
CONTINUOUS
 10
-98.568808
 20
41.870552
 11
-62.760475
 21
41.870552
  0
LINE
  8
型材断面
  6
CONTINUOUS
 10
-61.92714
 20
41.870552
 11
-25.993812
 21
41.870552
  0
LINE
  8
型材断面
  6
CONTINUOUS
 10
-61.92714
 20
23.757512
 11
-25.993812
 21
23.757512
  0
LINE
  8
型材断面
  6
CONTINUOUS
 10
-25.160477
 20
41.870552
 11
10.772855
 21
41.870552
  0
LINE
  8
型材断面
  6
CONTINUOUS
 10
-25.160477
 20
23.757512
 11
10.772855
 21
23.757512
  0
LINE
  8
型材断面
  6
CONTINUOUS
 10
11.60619
 20
23.757512
 11
47.414523
 21
23.757512
  0
LINE
  8
型材断面
  6
CONTINUOUS
 10
11.60619
 20
41.870552
 11
47.414523
 21
41.870552
  0
LINE
  8
型材断面
  6
CONTINUOUS
 10
30.822855
 20
24.590845
 11
28.322855
 21
24.590845
  0
LINE
  8
型材断面
  6
CONTINUOUS
 10
30.822855
 20
41.03722
 11
28.322855
 21
41.03722
  0
LINE
  8
型材断面
  6
CONTINUOUS
 10
30.822855
 20
24.590845
 11
30.822855
 21
41.03722
  0
LINE
  8
型材断面
  6
CONTINUOUS
 10
28.322855
 20
24.590845
 11
28.322855
 21
41.03722
  0
LINE
  8
型材断面
  6
CONTINUOUS
 10
-5.943812
 20
24.590845
 11
-8.443812
 21
24.590845
  0
LINE
  8
型材断面
  6
CONTINUOUS
 10
-5.943812
 20
41.03722
 11
-8.443812
 21
41.03722
  0
LINE
  8
型材断面
  6
CONTINUOUS
 10
-5.943812
 20
24.590845
 11
-5.943812
 21
41.03722
  0
LINE
  8
型材断面
  6
CONTINUOUS
 10
-8.443812
 20
24.590845
 11
-8.443812
 21
41.03722
  0
LINE
  8
型材断面
  6
CONTINUOUS
 10
-81.97714
 20
24.590845
 11
-79.47714
 21
24.590845
  0
LINE
  8
型材断面
  6
CONTINUOUS
 10
-81.97714
 20
41.03722
 11
-79.47714
 21
41.03722
  0
LINE
  8
型材断面
  6
CONTINUOUS
 10
-81.97714
 20
24.590845
 11
-81.97714
 21
41.03722
  0
LINE
  8
型材断面
  6
CONTINUOUS
 10
-79.47714
 20
24.590845
 11
-79.47714
 21
41.03722
  0
LINE
  8
型材断面
  6
CONTINUOUS
 10
-45.210473
 20
24.590845
 11
-42.710473
 21
24.590845
  0
LINE
  8
型材断面
  6
CONTINUOUS
 10
-45.210473
 20
41.03722
 11
-42.710473
 21
41.03722
  0
LINE
  8
型材断面
  6
CONTINUOUS
 10
-45.210473
 20
24.590845
 11
-45.210473
 21
41.03722
  0
LINE
  8
型材断面
  6
CONTINUOUS
 10
-42.710473
 20
24.590845
 11
-42.710473
 21
41.03722
  0
LINE
  8
型材断面
  6
CONTINUOUS
 10
68.07271
 20
32.814033
 11
68.07271
 21
20.830853
  0
LINE
  8
型材断面
  6
CONTINUOUS
 10
68.07271
 20
32.814033
 11
68.07271
 21
44.797213
  0
LINE
  8
型材断面
  6
CONTINUOUS
 10
65.146045
 20
32.397365
 11
67.646045
 21
32.397365
  0
LINE
  8
型材断面
  6
CONTINUOUS
 10
65.146045
 20
33.2307
 11
67.646045
 21
33.2307
  0
LINE
  8
型材断面
  6
CONTINUOUS
 10
67.410347
 20
21.25751
 11
67.646045
 21
21.493217
  0
LINE
  8
型材断面
  6
CONTINUOUS
 10
68.07271
 20
20.830853
 11
67.528197
 21
21.375365
  0
LINE
  8
型材断面
  6
CONTINUOUS
 10
65.146045
 20
23.993212
 11
67.646045
 21
21.493217
  0
LINE
  8
型材断面
  6
CONTINUOUS
 10
64.910342
 20
23.75751
 11
67.410345
 21
21.257512
  0
LINE
  8
型材断面
  6
CONTINUOUS
 10
65.146045
 20
32.397365
 11
65.146045
 21
23.993212
  0
LINE
  8
型材断面
  6
CONTINUOUS
 10
65.146045
 20
32.397365
 11
65.146045
 21
23.993212
  0
LINE
  8
型材断面
  6
CONTINUOUS
 10
65.146045
 20
23.993212
 11
64.910345
 21
23.757512
  0
LINE
  8
型材断面
  6
CONTINUOUS
 10
67.410347
 20
44.370555
 11
67.646045
 21
44.134848
  0
LINE
  8
型材断面
  6
CONTINUOUS
 10
68.07271
 20
44.797213
 11
67.528197
 21
44.2527
  0
LINE
  8
型材断面
  6
CONTINUOUS
 10
65.146045
 20
33.2307
 11
65.146045
 21
41.634852
  0
LINE
  8
型材断面
  6
CONTINUOUS
 10
64.910345
 20
41.870552
 11
65.146045
 21
41.634852
  0
LINE
  8
型材断面
  6
CONTINUOUS
 10
65.146045
 20
33.2307
 11
65.146045
 21
41.634852
  0
LINE
  8
型材断面
  6
CONTINUOUS
 10
67.646045
 20
21.493217
 11
67.646045
 21
44.134848
  0
LINE
  8
型材断面
  6
CONTINUOUS
 10
65.146045
 20
41.634852
 11
67.646045
 21
44.134848
  0
LINE
  8
型材断面
  6
CONTINUOUS
 10
67.646045
 20
21.493217
 11
67.646045
 21
44.134848
  0
LINE
  8
型材断面
  6
CONTINUOUS
 10
64.910342
 20
41.870555
 11
67.410345
 21
44.370552
  0
LINE
  8
型材断面
  6
CONTINUOUS
 10
48.247857
 20
41.870552
 11
64.91034
 21
41.870552
  0
LINE
  8
型材断面
  6
CONTINUOUS
 10
48.247857
 20
23.757512
 11
64.91034
 21
23.757512
  0
LINE
  8
型材断面
  6
CONTINUOUS
 10
-119.226995
 20
32.814033
 11
-119.226995
 21
20.830853
  0
LINE
  8
型材断面
  6
CONTINUOUS
 10
-119.226995
 20
32.814033
 11
-119.226995
 21
44.797213
  0
LINE
  8
型材断面
  6
CONTINUOUS
 10
-116.30033
 20
32.397365
 11
-118.80033
 21
32.397365
  0
LINE
  8
型材断面
  6
CONTINUOUS
 10
-116.30033
 20
33.2307
 11
-118.80033
 21
33.2307
  0
LINE
  8
型材断面
  6
CONTINUOUS
 10
-118.564632
 20
21.25751
 11
-118.80033
 21
21.493217
  0
LINE
  8
型材断面
  6
CONTINUOUS
 10
-119.226995
 20
20.830853
 11
-118.682482
 21
21.375365
  0
LINE
  8
型材断面
  6
CONTINUOUS
 10
-116.30033
 20
23.993212
 11
-118.80033
 21
21.493217
  0
LINE
  8
型材断面
  6
CONTINUOUS
 10
-116.064628
 20
23.75751
 11
-118.56463
 21
21.257512
  0
LINE
  8
型材断面
  6
CONTINUOUS
 10
-116.30033
 20
32.397365
 11
-116.30033
 21
23.993212
  0
LINE
  8
型材断面
  6
CONTINUOUS
 10
-116.30033
 20
32.397365
 11
-116.30033
 21
23.993212
  0
LINE
  8
型材断面
  6
CONTINUOUS
 10
-116.30033
 20
23.993212
 11
-116.06463
 21
23.757512
  0
LINE
  8
型材断面
  6
CONTINUOUS
 10
-118.564632
 20
44.370555
 11
-118.80033
 21
44.134848
  0
LINE
  8
型材断面
  6
CONTINUOUS
 10
-119.226995
 20
44.797213
 11
-118.682482
 21
44.2527
  0
LINE
  8
型材断面
  6
CONTINUOUS
 10
-116.30033
 20
33.2307
 11
-116.30033
 21
41.634852
  0
LINE
  8
型材断面
  6
CONTINUOUS
 10
-116.06463
 20
41.870552
 11
-116.30033
 21
41.634852
  0
LINE
  8
型材断面
  6
CONTINUOUS
 10
-116.30033
 20
33.2307
 11
-116.30033
 21
41.634852
  0
LINE
  8
型材断面
  6
CONTINUOUS
 10
-118.80033
 20
21.493217
 11
-118.80033
 21
44.134848
  0
LINE
  8
型材断面
  6
CONTINUOUS
 10
-116.30033
 20
41.634852
 11
-118.80033
 21
44.134848
  0
LINE
  8
型材断面
  6
CONTINUOUS
 10
-118.80033
 20
21.493217
 11
-118.80033
 21
44.134848
  0
LINE
  8
型材断面
  6
CONTINUOUS
 10
-116.064628
 20
41.870555
 11
-118.56463
 21
44.370552
  0
LINE
  8
型材断面
  6
CONTINUOUS
 10
-99.402142
 20
23.757512
 11
-116.06463
 21
23.757512
  0
LINE
  8
型材断面
  6
CONTINUOUS
 10
67.410345
 20
21.257512
 11
-118.56463
 21
21.257512
  0
LINE
  8
型材断面
  6
CONTINUOUS
 10
-99.402142
 20
41.870552
 11
-116.064625
 21
41.870552
  0
LINE
  8
型材断面
  6
CONTINUOUS
 10
67.410345
 20
44.370552
 11
-118.56463
 21
44.370552
  0
TEXT
  7
TextStyle03
  8
文字
  6
CONTINUOUS
 10
142.625
 20
-76.7
  1
網入り6.8t
 40
3.0
 72
     5
 11
159.3125
 21
-76.7
  0
TEXT
  7
TextStyle03
  8
文字
  6
CONTINUOUS
 10
-33.175
 20
9.325
  1
可動装置側
 40
3.0
 72
     5
 11
-16.675
 21
9.325
  0
TEXT
  7
TextStyle03
  8
文字
  6
CONTINUOUS
 10
149.3
 20
-81.375
  1
×５枚
 40
3.0
 72
     5
 11
159.05
 21
-81.375
  0
TEXT
  7
TextStyle03
  8
文字
  6
CONTINUOUS
 10
-33.175
 20
53.3
  1
可動装置側
 40
3.0
 72
     5
 11
-16.675
 21
53.3
  0
TEXT
  7
TextStyle03
  8
文字
  6
CONTINUOUS
 10
-155.275
 20
79.425
  1
はケーシング位置を示す
 40
3.0
 72
     5
 11
-118.525
 21
79.425
  0
TEXT
  7
TextStyle03
  8
文字
  6
CONTINUOUS
 10
-155.275
 20
76.05
  1
４ヶ所中1ヶ所に設定
 40
3.0
 72
     5
 11
-123.5875
 21
76.05
  0
TEXT
  7
TextStyle03
  8
文字
  6
CONTINUOUS
 10
-155.275
 20
84.95
  1
は排水穴位置を示す
 40
3.0
 72
     5
 11
-125.275
 21
84.95
  0
TEXT
  7
TextStyle03
  8
文字
  6
CONTINUOUS
 10
-138.275
 20
11.275
  1
アンカーピッチ
 40
3.0
 50
90.0
 72
     5
 11
-138.275
 21
34.525
  0
TEXT
  7
TextStyle03
  8
文字
  6
CONTINUOUS
 10
-103.2
 20
79.225
  1
アンカーピッチ
 40
3.0
 72
     5
 11
-79.95
 21
79.225
  0
TEXT
  7
TextStyle03
  8
文字
  6
CONTINUOUS
 10
-159.0
 20
70.075
  1
アンカー数量　１８ヶ所
 40
3.0
 72
     5
 11
-122.25
 21
70.075
  0
TEXT
  7
TextStyle03
  8
文字
  6
CONTINUOUS
 10
-159.075
 20
64.3
  1
アームユニット数　４～６ヶ所
 40
3.0
 72
     5
 11
-112.2
 21
64.3
  0
TEXT
  7
TextStyle03
  8
文字
  6
CONTINUOUS
 10
-164.0
 20
59.35
  1
※重量に依るのでご相談ください
 40
3.0
 72
     5
 11
-113.75
 21
59.35
  0
LINE
  8
文字
  6
CONTINUOUS
 10
154.392195
 20
56.049278
 11
154.392195
 21
45.499315
  0
LINE
  8
文字
  6
CONTINUOUS
 10
162.042245
 20
56.049278
 11
162.042245
 21
45.564395
  0
LINE
  8
文字
  6
CONTINUOUS
 10
79.32477
 20
-67.538213
 11
68.774807
 21
-67.538213
  0
LINE
  8
文字
  6
CONTINUOUS
 10
79.32477
 20
-75.188263
 11
68.839888
 21
-75.188263
  0
LINE
  8
文字
  6
CONTINUOUS
 10
79.32477
 20
-60.20488
 11
68.774807
 21
-60.20488
  0
LINE
  8
文字
  6
CONTINUOUS
 10
161.17608
 20
-55.403383
 11
161.17608
 21
-62.256862
  0
LINE
  8
文字
  6
CONTINUOUS
 10
125.57608
 20
-55.403383
 11
125.57608
 21
-62.256862
  0
TEXT
  7
TextStyle03
  8
文字
  6
CONTINUOUS
 10
60.3
 20
125.25
  1
シリーズ：ＴＦ２ＦＬ
 40
5.0
 72
     5
 11
115.925
 21
125.25
  0
TEXT
  7
TextStyle03
  8
文字
  6
CONTINUOUS
 10
60.3
 20
119.625
  1
　　　　　（上下可動）600×5500タイプ
 40
5.0
 72
     5
 11
163.7375
 21
119.625
  0
TEXT
  7
TextStyle03
  8
文字
  6
CONTINUOUS
 10
60.3
 20
114.0
  1
図面名　：外観姿図
 40
5.0
 72
     5
 11
110.3
 21
114.0
  0
TEXT
  7
TextStyle03
  8
文字
  6
CONTINUOUS
 10
60.3
 20
108.375
  1
　　　　　　
 40
5.0
 72
     5
 11
93.425
 21
108.375
  0
TEXT
  7
TextStyle03
  8
文字
  6
CONTINUOUS
 10
60.45
 20
104.525
  1
ＮＳコード：ＮＳＦＺＬ
 40
5.0
 72
     5
 11
121.7
 21
104.525
  0
INSERT
  2
*DIM_0002
  8
寸法
  6
CONTINUOUS
 10
0.0
 20
0.0
  0
INSERT
  2
*DIM_0003
  8
寸法
  6
CONTINUOUS
 10
0.0
 20
0.0
  0
INSERT
  2
*DIM_0004
  8
寸法
  6
CONTINUOUS
 10
0.0
 20
0.0
  0
INSERT
  2
*DIM_0005
  8
寸法
  6
CONTINUOUS
 10
0.0
 20
0.0
  0
INSERT
  2
*DIM_0006
  8
寸法
  6
CONTINUOUS
 10
0.0
 20
0.0
  0
INSERT
  2
*DIM_0007
  8
寸法
  6
CONTINUOUS
 10
0.0
 20
0.0
  0
INSERT
  2
*DIM_0008
  8
寸法
  6
CONTINUOUS
 10
0.0
 20
0.0
  0
INSERT
  2
*DIM_0009
  8
寸法
  6
CONTINUOUS
 10
0.0
 20
0.0
  0
INSERT
  2
*DIM_0010
  8
寸法
  6
CONTINUOUS
 10
0.0
 20
0.0
  0
INSERT
  2
*DIM_0011
  8
寸法
  6
CONTINUOUS
 10
0.0
 20
0.0
  0
INSERT
  2
*DIM_0012
  8
寸法
  6
CONTINUOUS
 10
0.0
 20
0.0
  0
INSERT
  2
*DIM_0013
  8
寸法
  6
CONTINUOUS
 10
0.0
 20
0.0
  0
INSERT
  2
*DIM_0014
  8
寸法
  6
CONTINUOUS
 10
0.0
 20
0.0
  0
INSERT
  2
*DIM_0015
  8
寸法
  6
CONTINUOUS
 10
0.0
 20
0.0
  0
INSERT
  2
*DIM_0016
  8
寸法
  6
CONTINUOUS
 10
0.0
 20
0.0
  0
INSERT
  2
*DIM_0017
  8
寸法
  6
CONTINUOUS
 10
0.0
 20
0.0
  0
INSERT
  2
*DIM_0018
  8
寸法
  6
CONTINUOUS
 10
0.0
 20
0.0
  0
INSERT
  2
*DIM_0019
  8
寸法
  6
CONTINUOUS
 10
0.0
 20
0.0
  0
INSERT
  2
*DIM_0020
  8
寸法
  6
CONTINUOUS
 10
0.0
 20
0.0
  0
INSERT
  2
*DIM_0027
  8
寸法
  6
CONTINUOUS
 10
0.0
 20
0.0
  0
INSERT
  2
*DIM_0028
  8
寸法
  6
CONTINUOUS
 10
0.0
 20
0.0
  0
INSERT
  2
*DIM_0029
  8
寸法
  6
CONTINUOUS
 10
0.0
 20
0.0
  0
LINE
  8
別途部材
  6
CONTINUOUS
 62
    47
 10
154.492195
 20
44.370552
 11
154.558863
 21
44.370552
  0
ARC
  8
別途部材
  6
CONTINUOUS
 62
    47
 10
154.492193
 20
44.270553
 40
0.1
 50
90.0
 51
180.0
  0
LINE
  8
別途部材
  6
CONTINUOUS
 62
    47
 10
154.392195
 20
44.270552
 11
154.392195
 21
41.903885
  0
LINE
  8
別途部材
  6
CONTINUOUS
 62
    47
 10
156.058863
 20
44.21403
 11
154.558863
 21
44.21403
  0
LINE
  8
別途部材
  6
CONTINUOUS
 62
    47
 10
154.492195
 20
21.257512
 11
154.558863
 21
21.257512
  0
ARC
  8
別途部材
  6
CONTINUOUS
 62
    47
 10
154.492193
 20
21.357511
 40
0.1
 50
180.0
 51
270.0
  0
LINE
  8
別途部材
  6
CONTINUOUS
 62
    47
 10
154.392195
 20
21.357512
 11
154.392195
 21
23.72418
  0
LINE
  8
別途部材
  6
CONTINUOUS
 62
    47
 10
156.058863
 20
21.414035
 11
154.558863
 21
21.414035
  0
LINE
  8
別途部材
  6
CONTINUOUS
 62
    47
 10
-118.800328
 20
-67.638213
 11
-118.800328
 21
-67.70488
  0
ARC
  8
別途部材
  6
CONTINUOUS
 62
    47
 10
-118.70033
 20
-67.638214
 40
0.1
 50
90.0
 51
180.0
  0
LINE
  8
別途部材
  6
CONTINUOUS
 62
    47
 10
-118.700328
 20
-67.538213
 11
-116.333662
 21
-67.538213
  0
LINE
  8
別途部材
  6
CONTINUOUS
 62
    47
 10
-118.643808
 20
-69.20488
 11
-118.643808
 21
-67.70488
  0
LINE
  8
別途部材
  6
CONTINUOUS
 62
    47
 10
67.646045
 20
-67.638213
 11
67.646045
 21
-67.70488
  0
ARC
  8
別途部材
  6
CONTINUOUS
 62
    47
 10
67.546045
 20
-67.638214
 40
0.1
 50
0.0
 51
90.0
  0
LINE
  8
別途部材
  6
CONTINUOUS
 62
    47
 10
67.546045
 20
-67.538213
 11
65.179378
 21
-67.538213
  0
LINE
  8
別途部材
  6
CONTINUOUS
 62
    47
 10
67.489523
 20
-69.20488
 11
67.489523
 21
-67.70488
  0
LINE
  8
別途部材
  6
DOT
 62
    47
 10
-118.800328
 20
-60.30488
 11
-118.800328
 21
-60.371547
  0
ARC
  8
別途部材
  6
DOT
 62
    47
 10
-118.70033
 20
-60.304881
 40
0.1
 50
90.0
 51
180.0
  0
LINE
  8
別途部材
  6
DOT
 62
    47
 10
-118.700328
 20
-60.20488
 11
-116.333662
 21
-60.20488
  0
LINE
  8
別途部材
  6
DOT
 62
    47
 10
-118.643808
 20
-61.871547
 11
-118.643808
 21
-60.371547
  0
LINE
  8
別途部材
  6
DOT
 62
    47
 10
67.646045
 20
-60.30488
 11
67.646045
 21
-60.371547
  0
ARC
  8
別途部材
  6
DOT
 62
    47
 10
67.546045
 20
-60.304881
 40
0.1
 50
0.0
 51
90.0
  0
LINE
  8
別途部材
  6
DOT
 62
    47
 10
67.546045
 20
-60.20488
 11
65.179378
 21
-60.20488
  0
LINE
  8
別途部材
  6
DOT
 62
    47
 10
67.489523
 20
-61.871547
 11
67.489523
 21
-60.371547
  0
LINE
  8
曲げ物
  6
CONTINUOUS
 10
161.17608
 20
-83.118728
 11
161.17608
 21
-63.785395
  0
LINE
  8
曲げ物
  6
CONTINUOUS
 10
50.815255
 20
34.739582
 11
47.119943
 21
31.04427
  0
LINE
  8
曲げ物
  6
CONTINUOUS
 10
50.111785
 20
33.203472
 11
48.656055
 21
31.747742
  0
LINE
  8
曲げ物
  6
CONTINUOUS
 10
49.279145
 20
34.036112
 11
47.823415
 21
32.580383
  0
LINE
  8
曲げ物
  6
CONTINUOUS
 10
13.136292
 20
34.739582
 11
9.44098
 21
31.04427
  0
LINE
  8
曲げ物
  6
CONTINUOUS
 10
12.432822
 20
33.203472
 11
10.977093
 21
31.747742
  0
LINE
  8
曲げ物
  6
CONTINUOUS
 10
11.600182
 20
34.036112
 11
10.144453
 21
32.580383
  0
LINE
  8
曲げ物
  6
CONTINUOUS
 10
-23.613707
 20
34.739582
 11
-27.30902
 21
31.04427
  0
LINE
  8
曲げ物
  6
CONTINUOUS
 10
-24.317177
 20
33.203472
 11
-25.772908
 21
31.747742
  0
LINE
  8
曲げ物
  6
CONTINUOUS
 10
-25.149817
 20
34.036112
 11
-26.605548
 21
32.580383
  0
LINE
  8
曲げ物
  6
CONTINUOUS
 10
-59.20689
 20
34.739582
 11
-62.902203
 21
31.04427
  0
LINE
  8
曲げ物
  6
CONTINUOUS
 10
-59.91036
 20
33.203472
 11
-61.36609
 21
31.747742
  0
LINE
  8
曲げ物
  6
CONTINUOUS
 10
-60.743
 20
34.036112
 11
-62.19873
 21
32.580383
  0
LINE
  8
曲げ物
  6
CONTINUOUS
 10
-97.915222
 20
34.739582
 11
-101.610535
 21
31.04427
  0
LINE
  8
曲げ物
  6
CONTINUOUS
 10
-98.618692
 20
33.203472
 11
-100.074423
 21
31.747742
  0
LINE
  8
曲げ物
  6
CONTINUOUS
 10
-99.451332
 20
34.036112
 11
-100.907063
 21
32.580383
  0
LINE
  8
曲げ物
  6
CONTINUOUS
 10
125.57608
 20
-83.118728
 11
125.57608
 21
-63.785395
  0
LINE
  8
曲げ物
  6
CONTINUOUS
 10
161.17608
 20
-63.785395
 11
125.57608
 21
-63.785395
  0
LINE
  8
曲げ物
  6
CONTINUOUS
 10
161.17608
 20
-83.118728
 11
125.57608
 21
-83.118728
  0
ENDSEC
  0
EOF
