  0
SECTION
  2
HEADER
  9
$EXTMIN
 10
-210.0
 20
-148.5
  9
$EXTMAX
 10
210.0
 20
148.5
  9
$PDMODE
 70
    32
  9
$PDSIZE
 40
1.5
  9
$LTSCALE
 40
10.0
  0
ENDSEC
  0
SECTION
  2
TABLES
  0
TABLE
  2
LTYPE
 70
    15
  0
LTYPE
  2
CONTINUOUS
 70
    64
  3
実線
 72
    65
 73
     0
 40
0.0
  0
LTYPE
  2
DASHED
 70
    64
  3
破線A
 72
    65
 73
     2
 40
0.6
 49
0.4
 49
-0.2
  0
LTYPE
  2
DASHEDX2
 70
    64
  3
破線B
 72
    65
 73
     2
 40
1.3
 49
0.9
 49
-0.4
  0
LTYPE
  2
DASHDOT
 70
    64
  3
１点鎖線A
 72
    65
 73
     4
 40
0.5375
 49
0.375
 49
-0.05
 49
0.0625
 49
-0.05
  0
LTYPE
  2
DASHDOTX2
 70
    64
  3
１点鎖線B
 72
    65
 73
     4
 40
1.075
 49
0.75
 49
-0.1
 49
0.125
 49
-0.1
  0
LTYPE
  2
DIVIDE2
 70
    64
  3
２点鎖線A
 72
    65
 73
     6
 40
0.5125
 49
0.3
 49
-0.0375
 49
0.05
 49
-0.0375
 49
0.05
 49
-0.0375
  0
LTYPE
  2
DIVIDE
 70
    64
  3
２点鎖線B
 72
    65
 73
     6
 40
1.05
 49
0.55
 49
-0.1
 49
0.1
 49
-0.1
 49
0.1
 49
-0.1
  0
LTYPE
  2
DOT
 70
    64
  3
点線A
 72
    65
 73
     2
 40
0.1125
 49
0.0625
 49
-0.05
  0
LTYPE
  2
DOTX2
 70
    64
  3
点線B
 72
    65
 73
     2
 40
0.275
 49
0.15
 49
-0.125
  0
LTYPE
  2
CONTINUOUS
 70
    64
  3
実線
 72
    65
 73
     0
 40
0.0
  0
LTYPE
  2
CONTINUOUS
 70
    64
  3
実線
 72
    65
 73
     0
 40
0.0
  0
LTYPE
  2
CONTINUOUS
 70
    64
  3
実線
 72
    65
 73
     0
 40
0.0
  0
LTYPE
  2
CONTINUOUS
 70
    64
  3
実線
 72
    65
 73
     0
 40
0.0
  0
LTYPE
  2
CONTINUOUS
 70
    64
  3
実線
 72
    65
 73
     0
 40
0.0
  0
LTYPE
  2
CONTINUOUS
 70
    64
  3
実線
 72
    65
 73
     0
 40
0.0
  0
ENDTAB
  0
TABLE
  2
LAYER
 70
    34
  0
LAYER
  2
通り芯
 70
     0
 62
    15
  6
CONTINUOUS
  0
LAYER
  2
補助線
 70
     0
 62
    16
  6
DOT
  0
LAYER
  2
躯体
 70
     0
 62
    31
  6
CONTINUOUS
  0
LAYER
  2
型材
 70
     0
 62
    32
  6
CONTINUOUS
  0
LAYER
  2
型材断面
 70
     0
 62
    47
  6
CONTINUOUS
  0
LAYER
  2
ガラス
 70
     0
 62
    48
  6
CONTINUOUS
  0
LAYER
  2
ゴム等
 70
     0
 62
    63
  6
CONTINUOUS
  0
LAYER
  2
ボルト／ビス
 70
     0
 62
    64
  6
CONTINUOUS
  0
LAYER
  2
文字
 70
     0
 62
    79
  6
CONTINUOUS
  0
LAYER
  2
寸法
 70
     0
 62
    80
  6
CONTINUOUS
  0
LAYER
  2
ﾊｯﾁﾝｸﾞ
 70
     0
 62
    95
  6
CONTINUOUS
  0
LAYER
  2
別途部材
 70
     0
 62
    96
  6
CONTINUOUS
  0
LAYER
  2
曲げ物
 70
     0
 62
   111
  6
CONTINUOUS
  0
LAYER
  2
鉄骨等
 70
     0
 62
   112
  6
CONTINUOUS
  0
LAYER
  2
St
 70
     0
 62
   127
  6
CONTINUOUS
  0
LAYER
  2
その他部品等
 70
     0
 62
   128
  6
CONTINUOUS
  0
LAYER
  2
ｶﾞｽｹｯﾄ
 70
     0
 62
   143
  6
CONTINUOUS
  0
LAYER
  2
ｽｹｯﾁ
 70
     0
 62
    14
  6
CONTINUOUS
  0
LAYER
  2
0
 70
     0
 62
    17
  6
CONTINUOUS
  0
LAYER
  2
1
 70
     0
 62
    30
  6
CONTINUOUS
  0
LAYER
  2
4
 70
     0
 62
    33
  6
CONTINUOUS
  0
LAYER
  2
ﾚｲﾔ3
 70
     0
 62
    46
  6
CONTINUOUS
  0
LAYER
  2
外形線
 70
     0
 62
    49
  6
CONTINUOUS
  0
LAYER
  2
部品
 70
     0
 62
    14
  6
CONTINUOUS
  0
LAYER
  2
サッシ芯
 70
     0
 62
    17
  6
DASHDOTX2
  0
LAYER
  2
寸法線
 70
     0
 62
    62
  6
CONTINUOUS
  0
LAYER
  2
姿図外形線
 70
     0
 62
    65
  6
CONTINUOUS
  0
LAYER
  2
姿補助線
 70
     0
 62
    30
  6
CONTINUOUS
  0
LAYER
  2
透視線
 70
     0
 62
    78
  6
DOT
  0
LAYER
  2
用紙
 70
     0
 62
    81
  6
CONTINUOUS
  0
LAYER
  2
実線図枠
 70
     0
 62
    94
  6
CONTINUOUS
  0
LAYER
  2
補助図枠
 70
     0
 62
    97
  6
CONTINUOUS
  0
LAYER
  2
建具記号
 70
     0
 62
   110
  6
CONTINUOUS
  0
LAYER
  2
補助文字
 70
     0
 62
   113
  6
CONTINUOUS
  0
ENDTAB
  0
TABLE
  2
STYLE
 70
    10
  0
STYLE
  2
STANDARD
 70
     0
 40
1.0
 41
1.0
 42
1.0
 50
0.0
 71
     0
  3
TXT
  4
BIGFONT
  0
STYLE
  2
TATE
 70
     4
 40
1.0
 41
1.0
 42
1.0
 50
0.0
 71
     0
  3
TXT
  4
BIGFONT
  0
STYLE
  2
TextStyle03
 70
     0
 40
1.0
 41
1.0
 42
1.0
 50
0.0
 71
     0
  3
MONOTXT
  4
BIGFONT
  0
STYLE
  2
TextStyle04
 70
     0
 40
1.0
 41
1.0
 42
1.0
 50
0.0
 71
     0
  3
MONOTXT
  4
BIGFONT
  0
STYLE
  2
TextStyle05
 70
     0
 40
1.0
 41
1.0
 42
1.0
 50
0.0
 71
     0
  3
MONOTXT
  4
BIGFONT
  0
STYLE
  2
TextStyle06
 70
     0
 40
1.0
 41
1.0
 42
1.0
 50
0.0
 71
     0
  3
MONOTXT
  4
BIGFONT
  0
STYLE
  2
TextStyle07
 70
     0
 40
1.0
 41
1.0
 42
1.0
 50
0.0
 71
     0
  3
MONOTXT
  4
BIGFONT
  0
STYLE
  2
TextStyle08
 70
     0
 40
1.0
 41
1.0
 42
1.0
 50
0.0
 71
     0
  3
MONOTXT
  4
BIGFONT
  0
STYLE
  2
TextStyle09
 70
     0
 40
1.0
 41
1.0
 42
1.0
 50
0.0
 71
     0
  3
MONOTXT
  4
BIGFONT
  0
STYLE
  2
TextStyle10
 70
     0
 40
1.0
 41
1.0
 42
1.0
 50
0.0
 71
     0
  3
MONOTXT
  4
BIGFONT
  0
ENDTAB
  0
ENDSEC
  0
SECTION
  2
BLOCKS
  0
BLOCK
  2
*GRP_0001
 70
    65
 10
0.0
 20
0.0
  0
LINE
  8
型材断面
  6
CONTINUOUS
 10
195.0
 20
133.5
 11
195.0
 21
-133.5
  0
LINE
  8
型材断面
  6
CONTINUOUS
 10
195.0
 20
-133.5
 11
-185.0
 21
-133.5
  0
LINE
  8
型材断面
  6
CONTINUOUS
 10
-185.0
 20
-133.5
 11
-185.0
 21
133.5
  0
LINE
  8
型材断面
  6
CONTINUOUS
 10
195.0
 20
133.5
 11
-185.0
 21
133.5
  0
LINE
  8
型材断面
  6
CONTINUOUS
 10
145.0
 20
-133.5
 11
145.0
 21
-118.5
  0
LINE
  8
型材断面
  6
CONTINUOUS
 10
195.0
 20
-118.5
 11
145.0
 21
-118.5
  0
ENDBLK
  0
BLOCK
  2
*DIM_0002
 70
    65
 10
0.0
 20
0.0
  0
LINE
  8
寸法
  6
BYBLOCK
 62
     0
 10
100.79942
 20
-63.785395
 11
108.91095
 21
-63.785395
  0
LINE
  8
寸法
  6
BYBLOCK
 62
     0
 10
100.79942
 20
-83.118728
 11
108.91095
 21
-83.118728
  0
LINE
  8
寸法
  6
BYBLOCK
 62
     0
 10
108.91095
 20
-63.785395
 11
108.91095
 21
-83.118728
  0
POINT
  8
寸法
 62
     0
 10
108.91095
 20
-63.785395
  0
POINT
  8
寸法
 62
     0
 10
108.91095
 20
-83.118728
  0
TEXT
  7
TextStyle03
  8
寸法
  6
CONTINUOUS
 62
     0
 10
108.525
 20
-75.9125
  1
580
 40
3.0
 50
90.0
 72
     5
 11
108.525
 21
-71.0375
  0
ENDBLK
  0
BLOCK
  2
*DIM_0003
 70
    65
 10
0.0
 20
0.0
  0
LINE
  8
寸法
  6
BYBLOCK
 62
     0
 10
-61.953802
 20
-16.511205
 11
-61.953802
 21
-13.121378
  0
LINE
  8
寸法
  6
BYBLOCK
 62
     0
 10
4.712865
 20
-13.121378
 11
-61.953802
 21
-13.121378
  0
POINT
  8
寸法
 62
     0
 10
4.712865
 20
-13.121378
  0
POINT
  8
寸法
 62
     0
 10
-61.953802
 20
-13.121378
  0
TEXT
  7
TextStyle03
  8
寸法
  6
CONTINUOUS
 62
     0
 10
-40.34375
 20
-12.75
  1
呼称寸法　2000
 40
3.0
 72
     5
 11
-16.90625
 21
-12.75
  0
ENDBLK
  0
BLOCK
  2
*DIM_0004
 70
    65
 10
0.0
 20
0.0
  0
LINE
  8
寸法
  6
BYBLOCK
 62
     0
 10
-45.287135
 20
19.183902
 11
-45.287135
 21
14.182178
  0
LINE
  8
寸法
  6
BYBLOCK
 62
     0
 10
-11.9538
 20
19.183902
 11
-11.9538
 21
14.182178
  0
LINE
  8
寸法
  6
BYBLOCK
 62
     0
 10
-45.287135
 20
14.182178
 11
-11.9538
 21
14.182178
  0
POINT
  8
寸法
 62
     0
 10
-45.287135
 20
14.182178
  0
POINT
  8
寸法
 62
     0
 10
-11.9538
 20
14.182178
  0
TEXT
  7
TextStyle03
  8
寸法
  6
CONTINUOUS
 62
     0
 10
-31.90625
 20
14.55
  1
1000
 40
3.0
 72
     5
 11
-25.34375
 21
14.55
  0
ENDBLK
  0
BLOCK
  2
*DIM_0005
 70
    65
 10
0.0
 20
0.0
  0
LINE
  8
寸法
  6
BYBLOCK
 62
     0
 10
5.712865
 20
42.814035
 11
15.437147
 21
42.814035
  0
LINE
  8
寸法
  6
BYBLOCK
 62
     0
 10
8.342995
 20
39.114035
 11
15.437147
 21
39.114035
  0
LINE
  8
寸法
  6
BYBLOCK
 62
     0
 10
15.437147
 20
42.814035
 11
15.437147
 21
39.114035
  0
POINT
  8
寸法
 62
     0
 10
15.437147
 20
42.814035
  0
POINT
  8
寸法
 62
     0
 10
15.437147
 20
39.114035
  0
TEXT
  7
TextStyle03
  8
寸法
  6
CONTINUOUS
 62
     0
 10
15.125
 20
43.8125
  1
111
 40
3.0
 50
90.0
 72
     5
 11
15.125
 21
48.6875
  0
ENDBLK
  0
BLOCK
  2
*DIM_0006
 70
    65
 10
0.0
 20
0.0
  0
LINE
  8
寸法
  6
BYBLOCK
 62
     0
 10
5.712865
 20
22.81403
 11
15.437147
 21
22.814027
  0
LINE
  8
寸法
  6
BYBLOCK
 62
     0
 10
8.342995
 20
26.51403
 11
15.437147
 21
26.514027
  0
LINE
  8
寸法
  6
BYBLOCK
 62
     0
 10
15.437147
 20
22.814027
 11
15.437147
 21
26.514027
  0
POINT
  8
寸法
 62
     0
 10
15.437147
 20
22.814027
  0
POINT
  8
寸法
 62
     0
 10
15.437147
 20
26.514027
  0
TEXT
  7
TextStyle03
  8
寸法
  6
CONTINUOUS
 62
     0
 10
15.45
 20
16.5625
  1
111
 40
3.0
 50
90.0
 72
     5
 11
15.45
 21
21.4375
  0
ENDBLK
  0
BLOCK
  2
*DIM_0007
 70
    65
 10
0.0
 20
0.0
  0
LINE
  8
寸法
  6
BYBLOCK
 62
     0
 10
38.732515
 20
22.814033
 11
38.732515
 21
42.814033
  0
POINT
  8
寸法
 62
     0
 10
38.732515
 20
22.814033
  0
POINT
  8
寸法
 62
     0
 10
38.732515
 20
42.814033
  0
TEXT
  7
TextStyle03
  8
寸法
  6
CONTINUOUS
 62
     0
 10
38.375
 20
21.925
  1
呼称寸法　600
 40
3.0
 50
90.0
 72
     5
 11
38.375
 21
43.675
  0
ENDBLK
  0
BLOCK
  2
*DIM_0008
 70
    65
 10
0.0
 20
0.0
  0
LINE
  8
寸法
  6
BYBLOCK
 62
     0
 10
92.62291
 20
44.79737
 11
38.732515
 21
44.79737
  0
LINE
  8
寸法
  6
BYBLOCK
 62
     0
 10
38.732515
 20
42.814033
 11
38.732515
 21
44.79737
  0
POINT
  8
寸法
 62
     0
 10
38.732515
 20
42.814033
  0
POINT
  8
寸法
 62
     0
 10
38.732515
 20
44.79737
  0
TEXT
  7
TextStyle03
  8
寸法
  6
CONTINUOUS
 62
     0
 10
38.35
 20
47.26875
  1
59.5
 40
3.0
 50
90.0
 72
     5
 11
38.35
 21
53.83125
  0
ENDBLK
  0
BLOCK
  2
*DIM_0009
 70
    65
 10
0.0
 20
0.0
  0
LINE
  8
寸法
  6
BYBLOCK
 62
     0
 10
92.62291
 20
20.830703
 11
38.732515
 21
20.830703
  0
LINE
  8
寸法
  6
BYBLOCK
 62
     0
 10
38.732515
 20
22.814033
 11
38.732515
 21
20.830703
  0
POINT
  8
寸法
 62
     0
 10
38.732515
 20
22.814033
  0
POINT
  8
寸法
 62
     0
 10
38.732515
 20
20.830703
  0
TEXT
  7
TextStyle03
  8
寸法
  6
CONTINUOUS
 62
     0
 10
38.35
 20
11.76875
  1
59.5
 40
3.0
 50
90.0
 72
     5
 11
38.35
 21
18.33125
  0
ENDBLK
  0
BLOCK
  2
*DIM_0010
 70
    65
 10
0.0
 20
0.0
  0
LINE
  8
寸法
  6
BYBLOCK
 62
     0
 10
6.6962
 20
-61.253063
 11
6.6962
 21
-13.121378
  0
LINE
  8
寸法
  6
BYBLOCK
 62
     0
 10
4.712865
 20
-13.121378
 11
6.6962
 21
-13.121378
  0
POINT
  8
寸法
 62
     0
 10
4.712865
 20
-13.121378
  0
POINT
  8
寸法
 62
     0
 10
6.6962
 20
-13.121378
  0
TEXT
  7
TextStyle03
  8
寸法
  6
CONTINUOUS
 62
     0
 10
9.16875
 20
-12.75
  1
59.5
 40
3.0
 72
     5
 11
15.73125
 21
-12.75
  0
ENDBLK
  0
BLOCK
  2
*DIM_0011
 70
    65
 10
0.0
 20
0.0
  0
LINE
  8
寸法
  6
BYBLOCK
 62
     0
 10
-63.937135
 20
-61.253063
 11
-63.937135
 21
-13.121378
  0
LINE
  8
寸法
  6
BYBLOCK
 62
     0
 10
-61.953802
 20
-13.121378
 11
-63.937135
 21
-13.121378
  0
POINT
  8
寸法
 62
     0
 10
-61.953802
 20
-13.121378
  0
POINT
  8
寸法
 62
     0
 10
-63.937135
 20
-13.121378
  0
TEXT
  7
TextStyle03
  8
寸法
  6
CONTINUOUS
 62
     0
 10
-72.98125
 20
-12.75
  1
59.5
 40
3.0
 72
     5
 11
-66.41875
 21
-12.75
  0
ENDBLK
  0
BLOCK
  2
*DIM_0012
 70
    65
 10
0.0
 20
0.0
  0
LINE
  8
寸法
  6
BYBLOCK
 62
     0
 10
-64.953802
 20
39.4807
 11
-78.24664
 21
39.4807
  0
LINE
  8
寸法
  6
BYBLOCK
 62
     0
 10
-64.953802
 20
26.147365
 11
-78.24664
 21
26.147365
  0
LINE
  8
寸法
  6
BYBLOCK
 62
     0
 10
-78.24664
 20
39.4807
 11
-78.24664
 21
26.147365
  0
POINT
  8
寸法
 62
     0
 10
-78.24664
 20
39.4807
  0
POINT
  8
寸法
 62
     0
 10
-78.24664
 20
26.147365
  0
TEXT
  7
TextStyle03
  8
寸法
  6
CONTINUOUS
 62
     0
 10
-78.7
 20
30.3625
  1
400
 40
3.0
 50
90.0
 72
     5
 11
-78.7
 21
35.2375
  0
ENDBLK
  0
BLOCK
  2
*DIM_0013
 70
    65
 10
0.0
 20
0.0
  0
LINE
  8
寸法
  6
BYBLOCK
 62
     0
 10
-51.9538
 20
45.814033
 11
-51.9538
 21
74.741653
  0
LINE
  8
寸法
  6
BYBLOCK
 62
     0
 10
-28.620467
 20
45.814033
 11
-28.620467
 21
74.741653
  0
LINE
  8
寸法
  6
BYBLOCK
 62
     0
 10
-51.9538
 20
74.741653
 11
-28.620467
 21
74.741653
  0
POINT
  8
寸法
 62
     0
 10
-51.9538
 20
74.741653
  0
POINT
  8
寸法
 62
     0
 10
-28.620467
 20
74.741653
  0
TEXT
  7
TextStyle03
  8
寸法
  6
CONTINUOUS
 62
     0
 10
-42.7375
 20
75.125
  1
700
 40
3.0
 72
     5
 11
-37.8625
 21
75.125
  0
ENDBLK
  0
BLOCK
  2
*DIM_0014
 70
    65
 10
0.0
 20
0.0
  0
LINE
  8
寸法
  6
BYBLOCK
 62
     0
 10
-5.287135
 20
45.814033
 11
-5.287135
 21
74.741653
  0
LINE
  8
寸法
  6
BYBLOCK
 62
     0
 10
-28.620467
 20
74.741653
 11
-5.287135
 21
74.741653
  0
POINT
  8
寸法
 62
     0
 10
-5.287135
 20
74.741653
  0
TEXT
  7
TextStyle03
  8
寸法
  6
CONTINUOUS
 62
     0
 10
-19.4125
 20
75.125
  1
700
 40
3.0
 72
     5
 11
-14.5375
 21
75.125
  0
ENDBLK
  0
BLOCK
  2
*DIM_0015
 70
    65
 10
0.0
 20
0.0
  0
LINE
  8
寸法
  6
CONTINUOUS
 10
93.583633
 20
56.049278
 11
101.233683
 21
56.049278
  0
POINT
  8
寸法
 10
93.583633
 20
56.049278
  0
POINT
  8
寸法
 10
101.233683
 20
56.049278
  0
TEXT
  7
TextStyle03
  8
寸法
  6
CONTINUOUS
 10
93.325
 20
56.4
  1
229.5
 40
3.0
 72
     5
 11
101.575
 21
56.4
  0
ENDBLK
  0
BLOCK
  2
*DIM_0016
 70
    65
 10
0.0
 20
0.0
  0
LINE
  8
寸法
  6
CONTINUOUS
 10
17.94811
 20
-69.422567
 11
17.94811
 21
-77.072617
  0
POINT
  8
寸法
 10
17.94811
 20
-69.422567
  0
POINT
  8
寸法
 10
17.94811
 20
-77.072617
  0
TEXT
  7
TextStyle03
  8
寸法
  6
CONTINUOUS
 10
21.8
 20
-77.425
  1
229.5
 40
3.0
 50
90.0
 72
     5
 11
21.8
 21
-69.175
  0
ENDBLK
  0
BLOCK
  2
*DIM_0017
 70
    65
 10
0.0
 20
0.0
  0
LINE
  8
寸法
  6
CONTINUOUS
 10
99.79942
 20
-56.213598
 11
67.382753
 21
-56.213598
  0
POINT
  8
寸法
 10
99.79942
 20
-56.213598
  0
POINT
  8
寸法
 10
67.382753
 20
-56.213598
  0
TEXT
  7
TextStyle03
  8
寸法
  6
CONTINUOUS
 10
79.45
 20
-55.875
  1
972.5
 40
3.0
 72
     5
 11
87.7
 21
-55.875
  0
ENDBLK
  0
BLOCK
  2
*DIM_0018
 70
    65
 10
0.0
 20
0.0
  0
LINE
  8
寸法
  6
BYBLOCK
 62
     0
 10
17.94811
 20
-69.422567
 11
17.94811
 21
-62.089235
  0
POINT
  8
寸法
 62
     0
 10
17.94811
 20
-69.422567
  0
POINT
  8
寸法
 62
     0
 10
17.94811
 20
-62.089235
  0
TEXT
  7
TextStyle03
  8
寸法
  6
CONTINUOUS
 62
     0
 10
17.975
 20
-60.29375
  1
上昇168以上
 40
3.0
 50
90.0
 72
     5
 11
17.975
 21
-42.10625
  0
ENDBLK
  0
ENDSEC
  0
SECTION
  2
ENTITIES
  0
POLYLINE
  8
通り芯
  6
CONTINUOUS
 66
     1
 70
     1
  0
VERTEX
  8
通り芯
 10
-210.0
 20
-148.5
  0
VERTEX
  8
通り芯
 10
210.0
 20
-148.5
  0
VERTEX
  8
通り芯
 10
210.0
 20
148.5
  0
VERTEX
  8
通り芯
 10
-210.0
 20
148.5
  0
SEQEND
  0
INSERT
  2
*GRP_0001
  8
型材断面
  6
CONTINUOUS
 10
0.0
 20
0.0
  0
LINE
  8
型材断面
  6
DASHDOT
 10
4.712865
 20
-77.836442
 11
4.712865
 21
42.814033
  0
LINE
  8
型材断面
  6
DASHDOT
 10
-28.620467
 20
-77.836442
 11
-28.620467
 21
42.814033
  0
LINE
  8
型材断面
  6
DASHDOT
 10
102.389627
 20
42.814033
 11
-61.953802
 21
42.814033
  0
LINE
  8
型材断面
  6
DASHDOT
 10
102.389627
 20
32.814033
 11
-61.953802
 21
32.814033
  0
LINE
  8
型材断面
  6
DASHDOT
 10
102.389627
 20
22.814033
 11
-61.953802
 21
22.814033
  0
LINE
  8
型材断面
  6
DASHDOT
 10
-28.620467
 20
22.814033
 11
-28.620467
 21
42.814033
  0
POLYLINE
  8
型材断面
  6
CONTINUOUS
 66
     1
 70
     1
  0
VERTEX
  8
型材断面
 10
-19.76742
 20
13.03811
  0
VERTEX
  8
型材断面
 10
-38.53935
 20
13.03811
  0
VERTEX
  8
型材断面
 10
-38.53935
 20
8.301267
  0
VERTEX
  8
型材断面
 10
-19.76742
 20
8.301267
  0
SEQEND
  0
POLYLINE
  8
型材断面
  6
CONTINUOUS
 66
     1
 70
     1
  0
VERTEX
  8
型材断面
 10
-19.76742
 20
52.589955
  0
VERTEX
  8
型材断面
 10
-38.53935
 20
52.589955
  0
VERTEX
  8
型材断面
 10
-38.53935
 20
57.326798
  0
VERTEX
  8
型材断面
 10
-19.76742
 20
57.326798
  0
SEQEND
  0
LINE
  8
型材断面
  6
CONTINUOUS
 10
-45.287135
 20
45.444162
 11
-46.782765
 21
48.03467
  0
LINE
  8
型材断面
  6
CONTINUOUS
 10
-45.287135
 20
45.444162
 11
-43.791505
 21
48.03467
  0
LINE
  8
型材断面
  6
CONTINUOUS
 10
-43.791505
 20
48.03467
 11
-46.782765
 21
48.03467
  0
LINE
  8
型材断面
  6
CONTINUOUS
 10
-102.80601
 20
80.791505
 11
-102.209955
 21
78.200998
  0
LINE
  8
型材断面
  6
CONTINUOUS
 10
-102.80601
 20
80.791505
 11
-103.402067
 21
78.200998
  0
LINE
  8
型材断面
  6
CONTINUOUS
 10
-103.402067
 20
78.200998
 11
-102.209955
 21
78.200998
  0
LINE
  8
型材断面
  6
CONTINUOUS
 10
-108.828597
 20
74.922105
 11
-62.58682
 21
74.922105
  0
LINE
  8
型材断面
  6
CONTINUOUS
 10
-102.80601
 20
87.32138
 11
-104.30164
 21
84.730873
  0
LINE
  8
型材断面
  6
CONTINUOUS
 10
-102.80601
 20
87.32138
 11
-101.31038
 21
84.730873
  0
LINE
  8
型材断面
  6
CONTINUOUS
 10
-101.31038
 20
84.730873
 11
-104.30164
 21
84.730873
  0
LINE
  8
型材断面
  6
CONTINUOUS
 10
-108.828597
 20
83.792277
 11
-62.58682
 21
83.792277
  0
LINE
  8
型材断面
  6
CONTINUOUS
 10
-108.828597
 20
69.134073
 11
-62.58682
 21
69.134073
  0
LINE
  8
型材断面
  6
CONTINUOUS
 10
-64.583932
 20
32.814033
 11
-67.17444
 21
34.309663
  0
LINE
  8
型材断面
  6
CONTINUOUS
 10
-64.583932
 20
32.814033
 11
-67.17444
 21
31.318403
  0
LINE
  8
型材断面
  6
CONTINUOUS
 10
-67.17444
 20
31.318403
 11
-67.17444
 21
34.309663
  0
LINE
  8
型材断面
  6
CONTINUOUS
 10
-45.287135
 20
20.183902
 11
-46.782765
 21
17.593395
  0
LINE
  8
型材断面
  6
CONTINUOUS
 10
-45.287135
 20
20.183902
 11
-43.791505
 21
17.593395
  0
LINE
  8
型材断面
  6
CONTINUOUS
 10
-43.791505
 20
17.593395
 11
-46.782765
 21
17.593395
  0
LINE
  8
型材断面
  6
CONTINUOUS
 10
-11.9538
 20
45.444162
 11
-10.45817
 21
48.03467
  0
LINE
  8
型材断面
  6
CONTINUOUS
 10
-11.9538
 20
45.444162
 11
-13.44943
 21
48.03467
  0
LINE
  8
型材断面
  6
CONTINUOUS
 10
-13.44943
 20
48.03467
 11
-10.45817
 21
48.03467
  0
LINE
  8
型材断面
  6
CONTINUOUS
 10
7.342997
 20
32.814033
 11
9.933505
 21
34.309663
  0
LINE
  8
型材断面
  6
CONTINUOUS
 10
7.342997
 20
32.814033
 11
9.933505
 21
31.318403
  0
LINE
  8
型材断面
  6
CONTINUOUS
 10
9.933505
 20
31.318403
 11
9.933505
 21
34.309663
  0
LINE
  8
型材断面
  6
CONTINUOUS
 10
-11.9538
 20
20.183902
 11
-10.45817
 21
17.593395
  0
LINE
  8
型材断面
  6
CONTINUOUS
 10
-11.9538
 20
20.183902
 11
-13.44943
 21
17.593395
  0
LINE
  8
型材断面
  6
CONTINUOUS
 10
-13.44943
 20
17.593395
 11
-10.45817
 21
17.593395
  0
LINE
  8
型材断面
  6
CONTINUOUS
 10
7.342995
 20
39.114035
 11
9.933505
 21
38.517982
  0
LINE
  8
型材断面
  6
CONTINUOUS
 10
7.342995
 20
39.114035
 11
9.933503
 21
39.710095
  0
LINE
  8
型材断面
  6
CONTINUOUS
 10
9.933503
 20
39.710095
 11
9.933505
 21
38.517982
  0
LINE
  8
型材断面
  6
CONTINUOUS
 10
7.342995
 20
26.51403
 11
9.933505
 21
27.110082
  0
LINE
  8
型材断面
  6
CONTINUOUS
 10
7.342995
 20
26.51403
 11
9.933503
 21
25.91797
  0
LINE
  8
型材断面
  6
CONTINUOUS
 10
9.933503
 20
25.91797
 11
9.933505
 21
27.110082
  0
LINE
  8
型材断面
  6
CONTINUOUS
 10
-64.58393
 20
39.114035
 11
-67.17444
 21
38.517982
  0
LINE
  8
型材断面
  6
CONTINUOUS
 10
-64.58393
 20
39.114035
 11
-67.174438
 21
39.710095
  0
LINE
  8
型材断面
  6
CONTINUOUS
 10
-67.174438
 20
39.710095
 11
-67.17444
 21
38.517982
  0
LINE
  8
型材断面
  6
CONTINUOUS
 10
-64.58393
 20
26.51403
 11
-67.17444
 21
27.110082
  0
LINE
  8
型材断面
  6
CONTINUOUS
 10
-64.58393
 20
26.51403
 11
-67.174438
 21
25.91797
  0
LINE
  8
型材断面
  6
CONTINUOUS
 10
-67.174438
 20
25.91797
 11
-67.17444
 21
27.110082
  0
LINE
  8
型材断面
  6
CONTINUOUS
 10
-28.620467
 20
44.797213
 11
-63.936982
 21
44.797213
  0
LINE
  8
型材断面
  6
CONTINUOUS
 10
-28.620467
 20
20.830853
 11
-63.936982
 21
20.830853
  0
LINE
  8
型材断面
  6
CONTINUOUS
 10
-28.620467
 20
20.830853
 11
6.696047
 21
20.830853
  0
LINE
  8
型材断面
  6
CONTINUOUS
 10
-28.620467
 20
44.797213
 11
6.696047
 21
44.797213
  0
LINE
  8
型材断面
  6
CONTINUOUS
 10
-108.828597
 20
63.34604
 11
-62.58682
 21
63.34604
  0
LINE
  8
型材断面
  6
CONTINUOUS
 10
93.7503
 20
44.370552
 11
93.7503
 21
32.814033
  0
LINE
  8
型材断面
  6
CONTINUOUS
 10
93.583633
 20
32.814033
 11
93.583633
 21
44.21403
  0
LINE
  8
型材断面
  6
CONTINUOUS
 10
95.2503
 20
32.814033
 11
95.2503
 21
44.21403
  0
ARC
  8
型材断面
  6
CONTINUOUS
 62
    47
 10
97.700295
 20
44.797368
 40
0.016668
 50
90.0
 51
180.000877
  0
ARC
  8
型材断面
  6
CONTINUOUS
 62
    47
 10
97.740296
 20
44.804034
 40
0.010002
 50
0.208374
 51
90.0
  0
LINE
  8
型材断面
  6
CONTINUOUS
 62
    47
 10
97.917017
 20
44.76403
 11
97.917017
 21
43.913883
  0
LINE
  8
型材断面
  6
CONTINUOUS
 10
97.917017
 20
32.814033
 11
97.917017
 21
44.797363
  0
LINE
  8
型材断面
  6
CONTINUOUS
 10
101.233683
 20
32.814033
 11
101.233683
 21
44.797363
  0
LINE
  8
型材断面
  6
CONTINUOUS
 10
101.733683
 20
32.814033
 11
101.733683
 21
44.297363
  0
LINE
  8
型材断面
  6
CONTINUOUS
 62
    47
 10
97.683627
 20
44.797367
 11
95.576967
 21
44.797367
  0
LINE
  8
型材断面
  6
CONTINUOUS
 10
95.576967
 20
32.814033
 11
95.576967
 21
44.797367
  0
LINE
  8
型材断面
  6
CONTINUOUS
 62
    47
 10
97.917017
 20
44.797363
 11
101.233683
 21
44.797363
  0
LINE
  8
型材断面
  6
CONTINUOUS
 62
    47
 10
101.733683
 20
44.297363
 11
101.233683
 21
44.297363
  0
LINE
  8
型材断面
  6
CONTINUOUS
 62
    47
 10
95.576967
 20
43.914027
 11
95.2503
 21
43.914027
  0
LINE
  8
型材断面
  6
CONTINUOUS
 10
93.7503
 20
21.257512
 11
93.7503
 21
32.814033
  0
LINE
  8
型材断面
  6
CONTINUOUS
 10
93.583633
 20
32.814033
 11
93.583633
 21
21.414033
  0
LINE
  8
型材断面
  6
CONTINUOUS
 10
95.2503
 20
32.814033
 11
95.2503
 21
21.414033
  0
ARC
  8
型材断面
  6
CONTINUOUS
 62
    47
 10
97.700295
 20
20.830696
 40
0.016668
 50
179.999123
 51
270.0
  0
ARC
  8
型材断面
  6
CONTINUOUS
 62
    47
 10
97.740296
 20
20.82403
 40
0.010002
 50
270.0
 51
359.791626
  0
LINE
  8
型材断面
  6
CONTINUOUS
 62
    47
 10
97.917017
 20
20.864033
 11
97.917017
 21
21.71418
  0
LINE
  8
型材断面
  6
CONTINUOUS
 10
97.917017
 20
32.814033
 11
97.917017
 21
20.8307
  0
LINE
  8
型材断面
  6
CONTINUOUS
 10
101.233683
 20
32.814033
 11
101.233683
 21
20.8307
  0
LINE
  8
型材断面
  6
CONTINUOUS
 10
101.733683
 20
32.814033
 11
101.733683
 21
21.3307
  0
LINE
  8
型材断面
  6
CONTINUOUS
 62
    47
 10
97.683627
 20
20.830695
 11
95.576967
 21
20.830695
  0
LINE
  8
型材断面
  6
CONTINUOUS
 10
95.576967
 20
32.814033
 11
95.576967
 21
20.830695
  0
LINE
  8
型材断面
  6
CONTINUOUS
 62
    47
 10
97.917017
 20
20.8307
 11
101.233683
 21
20.8307
  0
LINE
  8
型材断面
  6
CONTINUOUS
 62
    47
 10
101.733683
 20
21.3307
 11
101.233683
 21
21.3307
  0
LINE
  8
型材断面
  6
CONTINUOUS
 62
    47
 10
95.576967
 20
21.714035
 11
95.2503
 21
21.714035
  0
LINE
  8
型材断面
  6
CONTINUOUS
 10
97.7503
 20
32.814033
 11
97.7503
 21
44.804032
  0
LINE
  8
型材断面
  6
CONTINUOUS
 62
    47
 10
97.700295
 20
44.81403
 11
97.739955
 21
44.81403
  0
LINE
  8
型材断面
  6
CONTINUOUS
 62
    47
 10
97.700295
 20
20.814033
 11
97.739955
 21
20.814033
  0
LINE
  8
型材断面
  6
CONTINUOUS
 10
97.7503
 20
32.814033
 11
97.7503
 21
20.82403
  0
ARC
  8
型材断面
  6
CONTINUOUS
 62
    47
 10
-63.937138
 20
-73.539228
 40
0.016668
 50
89.999123
 51
180.0
  0
ARC
  8
型材断面
  6
CONTINUOUS
 62
    47
 10
-63.943804
 20
-73.57923
 40
0.010002
 50
180.0
 51
269.791626
  0
LINE
  8
型材断面
  6
CONTINUOUS
 62
    47
 10
-63.9038
 20
-73.75595
 11
-63.053653
 21
-73.75595
  0
LINE
  8
型材断面
  6
CONTINUOUS
 62
    47
 10
-63.937137
 20
-73.522563
 11
-63.937137
 21
-71.415902
  0
LINE
  8
型材断面
  6
CONTINUOUS
 62
    47
 10
-63.937133
 20
-73.75595
 11
-63.937133
 21
-77.072617
  0
LINE
  8
型材断面
  6
CONTINUOUS
 62
    47
 10
-63.437133
 20
-77.572617
 11
-63.437133
 21
-77.072617
  0
LINE
  8
型材断面
  6
CONTINUOUS
 62
    47
 10
-63.053798
 20
-71.415902
 11
-63.053798
 21
-71.089232
  0
LINE
  8
型材断面
  6
CONTINUOUS
 62
    47
 10
-63.9538
 20
-73.539228
 11
-63.9538
 21
-73.578888
  0
ARC
  8
型材断面
  6
CONTINUOUS
 62
    47
 10
6.696201
 20
-73.539228
 40
0.016668
 50
0.0
 51
90.000877
  0
ARC
  8
型材断面
  6
CONTINUOUS
 62
    47
 10
6.702867
 20
-73.57923
 40
0.010002
 50
270.208374
 51
360.0
  0
LINE
  8
型材断面
  6
CONTINUOUS
 62
    47
 10
6.662862
 20
-73.75595
 11
5.812717
 21
-73.75595
  0
LINE
  8
型材断面
  6
CONTINUOUS
 62
    47
 10
6.696203
 20
-73.522563
 11
6.696203
 21
-71.415902
  0
LINE
  8
型材断面
  6
CONTINUOUS
 62
    47
 10
6.696198
 20
-73.75595
 11
6.696198
 21
-77.072617
  0
LINE
  8
型材断面
  6
CONTINUOUS
 62
    47
 10
6.196198
 20
-77.572617
 11
6.196198
 21
-77.072617
  0
LINE
  8
型材断面
  6
CONTINUOUS
 62
    47
 10
5.812862
 20
-71.415902
 11
5.812862
 21
-71.089232
  0
LINE
  8
型材断面
  6
CONTINUOUS
 62
    47
 10
6.712862
 20
-73.539228
 11
6.712862
 21
-73.578888
  0
LINE
  8
型材断面
  6
CONTINUOUS
 10
6.112862
 20
-69.422567
 11
-28.620467
 21
-69.422567
  0
LINE
  8
型材断面
  6
CONTINUOUS
 10
6.269385
 20
-69.589232
 11
-28.620467
 21
-69.589232
  0
LINE
  8
型材断面
  6
CONTINUOUS
 10
6.696203
 20
-71.415902
 11
-28.620467
 21
-71.415902
  0
LINE
  8
型材断面
  6
CONTINUOUS
 10
6.112862
 20
-71.089232
 11
-28.620467
 21
-71.089232
  0
LINE
  8
型材断面
  6
CONTINUOUS
 10
6.702867
 20
-73.589232
 11
-28.620467
 21
-73.589232
  0
LINE
  8
型材断面
  6
CONTINUOUS
 10
6.696198
 20
-73.75595
 11
-28.620467
 21
-73.75595
  0
LINE
  8
型材断面
  6
CONTINUOUS
 10
6.696198
 20
-77.072617
 11
-28.620467
 21
-77.072617
  0
LINE
  8
型材断面
  6
CONTINUOUS
 10
6.196198
 20
-77.572617
 11
-28.620467
 21
-77.572617
  0
LINE
  8
型材断面
  6
CONTINUOUS
 10
-63.937137
 20
-71.415902
 11
-28.620467
 21
-71.415902
  0
LINE
  8
型材断面
  6
CONTINUOUS
 10
-63.937133
 20
-77.072617
 11
-28.620467
 21
-77.072617
  0
LINE
  8
型材断面
  6
CONTINUOUS
 10
-63.437133
 20
-77.572617
 11
-28.620467
 21
-77.572617
  0
LINE
  8
型材断面
  6
CONTINUOUS
 10
-63.943803
 20
-73.589232
 11
-28.620467
 21
-73.589232
  0
LINE
  8
型材断面
  6
CONTINUOUS
 10
-63.937133
 20
-73.75595
 11
-28.620467
 21
-73.75595
  0
LINE
  8
型材断面
  6
CONTINUOUS
 10
-63.3538
 20
-71.089232
 11
-28.620467
 21
-71.089232
  0
LINE
  8
型材断面
  6
CONTINUOUS
 10
-63.510322
 20
-69.589232
 11
-28.620467
 21
-69.589232
  0
LINE
  8
型材断面
  6
CONTINUOUS
 10
-63.3538
 20
-69.422567
 11
-28.620467
 21
-69.422567
  0
ARC
  8
型材断面
  6
DOT
 62
    47
 10
-63.937138
 20
-66.205895
 40
0.016668
 50
89.999123
 51
180.0
  0
ARC
  8
型材断面
  6
DOT
 62
    47
 10
-63.943804
 20
-66.245897
 40
0.010002
 50
180.0
 51
269.791626
  0
LINE
  8
型材断面
  6
DOT
 62
    47
 10
-63.937137
 20
-66.18923
 11
-63.937137
 21
-64.08257
  0
LINE
  8
型材断面
  6
DOT
 62
    47
 10
-63.053798
 20
-64.08257
 11
-63.053798
 21
-63.7559
  0
LINE
  8
型材断面
  6
DOT
 62
    47
 10
-63.9538
 20
-66.205895
 11
-63.9538
 21
-66.245555
  0
ARC
  8
型材断面
  6
DOT
 62
    47
 10
6.696201
 20
-66.205895
 40
0.016668
 50
0.0
 51
90.000877
  0
ARC
  8
型材断面
  6
DOT
 62
    47
 10
6.702867
 20
-66.245897
 40
0.010002
 50
270.208374
 51
360.0
  0
LINE
  8
型材断面
  6
DOT
 62
    47
 10
6.696203
 20
-66.18923
 11
6.696203
 21
-64.08257
  0
LINE
  8
型材断面
  6
DOT
 62
    47
 10
5.812862
 20
-64.08257
 11
5.812862
 21
-63.7559
  0
LINE
  8
型材断面
  6
DOT
 62
    47
 10
6.712862
 20
-66.205895
 11
6.712862
 21
-66.245555
  0
LINE
  8
型材断面
  6
DOT
 10
6.702867
 20
-66.2559
 11
-28.620467
 21
-66.2559
  0
LINE
  8
型材断面
  6
DOT
 10
6.696203
 20
-64.08257
 11
-28.620467
 21
-64.08257
  0
LINE
  8
型材断面
  6
DOT
 10
6.112862
 20
-63.7559
 11
-28.620467
 21
-63.7559
  0
LINE
  8
型材断面
  6
DOT
 10
6.112862
 20
-62.089235
 11
-28.620467
 21
-62.089235
  0
LINE
  8
型材断面
  6
DOT
 10
6.269385
 20
-62.2559
 11
-28.620467
 21
-62.2559
  0
LINE
  8
型材断面
  6
DOT
 10
-63.943803
 20
-66.2559
 11
-28.620467
 21
-66.2559
  0
LINE
  8
型材断面
  6
DOT
 10
-63.3538
 20
-63.7559
 11
-28.620467
 21
-63.7559
  0
LINE
  8
型材断面
  6
DOT
 10
-63.937137
 20
-64.08257
 11
-28.620467
 21
-64.08257
  0
LINE
  8
型材断面
  6
DOT
 10
-63.3538
 20
-62.089235
 11
-28.620467
 21
-62.089235
  0
LINE
  8
型材断面
  6
DOT
 10
-63.510322
 20
-62.2559
 11
-28.620467
 21
-62.2559
  0
LINE
  8
型材断面
  6
DASHDOT
 10
-61.9538
 20
-77.836442
 11
-61.9538
 21
42.814033
  0
LINE
  8
型材断面
  6
CONTINUOUS
 10
-44.870467
 20
41.870552
 11
-12.370467
 21
41.870552
  0
LINE
  8
型材断面
  6
CONTINUOUS
 10
-44.870467
 20
23.757512
 11
-12.370467
 21
23.757512
  0
LINE
  8
型材断面
  6
CONTINUOUS
 10
-27.370467
 20
24.590845
 11
-27.370467
 21
41.03722
  0
LINE
  8
型材断面
  6
CONTINUOUS
 10
-29.870467
 20
24.590845
 11
-29.870467
 21
41.03722
  0
LINE
  8
型材断面
  6
CONTINUOUS
 10
6.69605
 20
32.814033
 11
6.69605
 21
20.830853
  0
LINE
  8
型材断面
  6
CONTINUOUS
 10
6.69605
 20
32.814033
 11
6.69605
 21
44.797213
  0
LINE
  8
型材断面
  6
CONTINUOUS
 10
3.769385
 20
32.397365
 11
6.269385
 21
32.397365
  0
LINE
  8
型材断面
  6
CONTINUOUS
 10
3.769385
 20
33.2307
 11
6.269385
 21
33.2307
  0
LINE
  8
型材断面
  6
CONTINUOUS
 10
6.033688
 20
21.25751
 11
6.269385
 21
21.493217
  0
LINE
  8
型材断面
  6
CONTINUOUS
 10
6.69605
 20
20.830853
 11
6.151538
 21
21.375365
  0
LINE
  8
型材断面
  6
CONTINUOUS
 10
3.769385
 20
23.993212
 11
6.269385
 21
21.493217
  0
LINE
  8
型材断面
  6
CONTINUOUS
 10
3.533683
 20
23.75751
 11
6.033685
 21
21.257512
  0
LINE
  8
型材断面
  6
CONTINUOUS
 10
3.769385
 20
32.397365
 11
3.769385
 21
23.993212
  0
LINE
  8
型材断面
  6
CONTINUOUS
 10
3.769385
 20
32.397365
 11
3.769385
 21
23.993212
  0
LINE
  8
型材断面
  6
CONTINUOUS
 10
3.769385
 20
23.993212
 11
3.533685
 21
23.757512
  0
LINE
  8
型材断面
  6
CONTINUOUS
 10
6.033688
 20
44.370555
 11
6.269385
 21
44.134848
  0
LINE
  8
型材断面
  6
CONTINUOUS
 10
6.69605
 20
44.797213
 11
6.151538
 21
44.2527
  0
LINE
  8
型材断面
  6
CONTINUOUS
 10
3.769385
 20
33.2307
 11
3.769385
 21
41.634852
  0
LINE
  8
型材断面
  6
CONTINUOUS
 10
3.533685
 20
41.870552
 11
3.769385
 21
41.634852
  0
LINE
  8
型材断面
  6
CONTINUOUS
 10
3.769385
 20
33.2307
 11
3.769385
 21
41.634852
  0
LINE
  8
型材断面
  6
CONTINUOUS
 10
6.269385
 20
21.493217
 11
6.269385
 21
44.134848
  0
LINE
  8
型材断面
  6
CONTINUOUS
 10
3.769385
 20
41.634852
 11
6.269385
 21
44.134848
  0
LINE
  8
型材断面
  6
CONTINUOUS
 10
6.269385
 20
21.493217
 11
6.269385
 21
44.134848
  0
LINE
  8
型材断面
  6
CONTINUOUS
 10
3.533683
 20
41.870555
 11
6.033685
 21
44.370552
  0
LINE
  8
型材断面
  6
CONTINUOUS
 10
-11.537133
 20
41.870552
 11
3.53368
 21
41.870552
  0
LINE
  8
型材断面
  6
CONTINUOUS
 10
-11.537133
 20
23.757512
 11
3.53368
 21
23.757512
  0
LINE
  8
型材断面
  6
CONTINUOUS
 10
-63.936985
 20
32.814033
 11
-63.936985
 21
20.830853
  0
LINE
  8
型材断面
  6
CONTINUOUS
 10
-63.936985
 20
32.814033
 11
-63.936985
 21
44.797213
  0
LINE
  8
型材断面
  6
CONTINUOUS
 10
-61.01032
 20
32.397365
 11
-63.51032
 21
32.397365
  0
LINE
  8
型材断面
  6
CONTINUOUS
 10
-61.01032
 20
33.2307
 11
-63.51032
 21
33.2307
  0
LINE
  8
型材断面
  6
CONTINUOUS
 10
-63.274622
 20
21.25751
 11
-63.51032
 21
21.493217
  0
LINE
  8
型材断面
  6
CONTINUOUS
 10
-63.936985
 20
20.830853
 11
-63.392472
 21
21.375365
  0
LINE
  8
型材断面
  6
CONTINUOUS
 10
-61.01032
 20
23.993212
 11
-63.51032
 21
21.493217
  0
LINE
  8
型材断面
  6
CONTINUOUS
 10
-60.774618
 20
23.75751
 11
-63.27462
 21
21.257512
  0
LINE
  8
型材断面
  6
CONTINUOUS
 10
-61.01032
 20
32.397365
 11
-61.01032
 21
23.993212
  0
LINE
  8
型材断面
  6
CONTINUOUS
 10
-61.01032
 20
32.397365
 11
-61.01032
 21
23.993212
  0
LINE
  8
型材断面
  6
CONTINUOUS
 10
-61.01032
 20
23.993212
 11
-60.77462
 21
23.757512
  0
LINE
  8
型材断面
  6
CONTINUOUS
 10
-63.274622
 20
44.370555
 11
-63.51032
 21
44.134848
  0
LINE
  8
型材断面
  6
CONTINUOUS
 10
-63.936985
 20
44.797213
 11
-63.392472
 21
44.2527
  0
LINE
  8
型材断面
  6
CONTINUOUS
 10
-61.01032
 20
33.2307
 11
-61.01032
 21
41.634852
  0
LINE
  8
型材断面
  6
CONTINUOUS
 10
-60.77462
 20
41.870552
 11
-61.01032
 21
41.634852
  0
LINE
  8
型材断面
  6
CONTINUOUS
 10
-61.01032
 20
33.2307
 11
-61.01032
 21
41.634852
  0
LINE
  8
型材断面
  6
CONTINUOUS
 10
-63.51032
 20
21.493217
 11
-63.51032
 21
44.134848
  0
LINE
  8
型材断面
  6
CONTINUOUS
 10
-61.01032
 20
41.634852
 11
-63.51032
 21
44.134848
  0
LINE
  8
型材断面
  6
CONTINUOUS
 10
-63.51032
 20
21.493217
 11
-63.51032
 21
44.134848
  0
LINE
  8
型材断面
  6
CONTINUOUS
 10
-60.774618
 20
41.870555
 11
-63.27462
 21
44.370552
  0
LINE
  8
型材断面
  6
CONTINUOUS
 10
-45.703802
 20
23.757512
 11
-60.774615
 21
23.757512
  0
LINE
  8
型材断面
  6
CONTINUOUS
 10
6.033685
 20
21.257512
 11
-63.27462
 21
21.257512
  0
LINE
  8
型材断面
  6
CONTINUOUS
 10
-45.703802
 20
41.870552
 11
-60.774615
 21
41.870552
  0
LINE
  8
型材断面
  6
CONTINUOUS
 10
6.033685
 20
44.370552
 11
-63.27462
 21
44.370552
  0
TEXT
  7
TextStyle03
  8
文字
  6
CONTINUOUS
 10
81.275
 20
-76.7
  1
網入り6.8t
 40
3.0
 72
     5
 11
97.9625
 21
-76.7
  0
TEXT
  7
TextStyle03
  8
文字
  6
CONTINUOUS
 10
87.95
 20
-81.375
  1
×２枚
 40
3.0
 72
     5
 11
97.7
 21
-81.375
  0
TEXT
  7
TextStyle03
  8
文字
  6
CONTINUOUS
 10
-37.575
 20
9.325
  1
可動装置側
 40
3.0
 72
     5
 11
-21.075
 21
9.325
  0
TEXT
  7
TextStyle03
  8
文字
  6
CONTINUOUS
 10
-37.575
 20
53.3
  1
可動装置側
 40
3.0
 72
     5
 11
-21.075
 21
53.3
  0
TEXT
  7
TextStyle03
  8
文字
  6
CONTINUOUS
 10
-100.025
 20
79.425
  1
はケーシング位置を示す
 40
3.0
 72
     5
 11
-63.275
 21
79.425
  0
TEXT
  7
TextStyle03
  8
文字
  6
CONTINUOUS
 10
-100.025
 20
76.05
  1
４ヶ所中1ヶ所に設定
 40
3.0
 72
     5
 11
-68.3375
 21
76.05
  0
TEXT
  7
TextStyle03
  8
文字
  6
CONTINUOUS
 10
-100.025
 20
84.95
  1
は排水穴位置を示す
 40
3.0
 72
     5
 11
-70.025
 21
84.95
  0
TEXT
  7
TextStyle03
  8
文字
  6
CONTINUOUS
 10
-83.05
 20
11.275
  1
アンカーピッチ
 40
3.0
 50
90.0
 72
     5
 11
-83.05
 21
34.525
  0
TEXT
  7
TextStyle03
  8
文字
  6
CONTINUOUS
 10
-54.525
 20
79.675
  1
アンカーピッチ
 40
3.0
 72
     5
 11
-31.275
 21
79.675
  0
TEXT
  7
TextStyle03
  8
文字
  6
CONTINUOUS
 10
-103.75
 20
70.075
  1
アンカー数量　１０ヶ所
 40
3.0
 72
     5
 11
-67.0
 21
70.075
  0
TEXT
  7
TextStyle03
  8
文字
  6
CONTINUOUS
 10
-103.775
 20
64.3
  1
アームユニット数　２ヶ所
 40
3.0
 72
     5
 11
-63.65
 21
64.3
  0
LINE
  8
文字
  6
CONTINUOUS
 10
93.583633
 20
56.049278
 11
93.583633
 21
45.499313
  0
LINE
  8
文字
  6
CONTINUOUS
 10
101.233683
 20
56.049278
 11
101.233683
 21
45.564395
  0
LINE
  8
文字
  6
CONTINUOUS
 10
17.94811
 20
-69.422567
 11
7.398148
 21
-69.422567
  0
LINE
  8
文字
  6
CONTINUOUS
 10
17.94811
 20
-77.072617
 11
7.463227
 21
-77.072617
  0
LINE
  8
文字
  6
CONTINUOUS
 10
17.94811
 20
-62.089235
 11
7.50985
 21
-62.089235
  0
LINE
  8
文字
  6
CONTINUOUS
 10
99.79942
 20
-56.213598
 11
99.79942
 21
-62.313677
  0
LINE
  8
文字
  6
CONTINUOUS
 10
67.382753
 20
-56.213598
 11
67.382753
 21
-62.313677
  0
TEXT
  7
TextStyle03
  8
文字
  6
CONTINUOUS
 10
60.575
 20
125.25
  1
シリーズ：ＴＦ２ＦＬ
 40
5.0
 72
     5
 11
116.2
 21
125.25
  0
TEXT
  7
TextStyle03
  8
文字
  6
CONTINUOUS
 10
60.575
 20
119.625
  1
　　　　　（上下可動）600×2000タイプ
 40
5.0
 72
     5
 11
164.0125
 21
119.625
  0
TEXT
  7
TextStyle03
  8
文字
  6
CONTINUOUS
 10
60.575
 20
114.0
  1
図面名　：外観姿図
 40
5.0
 72
     5
 11
110.575
 21
114.0
  0
TEXT
  7
TextStyle03
  8
文字
  6
CONTINUOUS
 10
60.575
 20
108.375
  1
　　　　　　
 40
5.0
 72
     5
 11
93.7
 21
108.375
  0
LINE
  8
文字
  6
CONTINUOUS
 10
-11.537133
 20
23.757512
 11
-11.537133
 21
21.257512
  0
LINE
  8
文字
  6
CONTINUOUS
 10
-12.370467
 20
23.757512
 11
-12.370467
 21
21.257512
  0
LINE
  8
文字
  6
CONTINUOUS
 10
-45.703802
 20
23.757512
 11
-45.703802
 21
21.257512
  0
LINE
  8
文字
  6
CONTINUOUS
 10
-44.870467
 20
23.757512
 11
-44.870467
 21
21.257512
  0
LINE
  8
文字
  6
CONTINUOUS
 10
-11.537133
 20
41.870552
 11
-11.537133
 21
44.370552
  0
LINE
  8
文字
  6
CONTINUOUS
 10
-12.370467
 20
41.870552
 11
-12.370467
 21
44.370552
  0
LINE
  8
文字
  6
CONTINUOUS
 10
-45.703802
 20
41.870552
 11
-45.703802
 21
44.370552
  0
LINE
  8
文字
  6
CONTINUOUS
 10
-44.870467
 20
41.870552
 11
-44.870467
 21
44.370552
  0
LINE
  8
文字
  6
CONTINUOUS
 10
-27.370467
 20
24.590845
 11
-29.870467
 21
24.590845
  0
LINE
  8
文字
  6
CONTINUOUS
 10
-27.370467
 20
41.03722
 11
-29.870467
 21
41.03722
  0
TEXT
  7
TextStyle03
  8
文字
  6
CONTINUOUS
 10
60.725
 20
104.525
  1
ＮＳコード：ＮＳＦＺＬ
 40
5.0
 72
     5
 11
121.975
 21
104.525
  0
INSERT
  2
*DIM_0002
  8
寸法
  6
CONTINUOUS
 10
0.0
 20
0.0
  0
INSERT
  2
*DIM_0003
  8
寸法
  6
CONTINUOUS
 10
0.0
 20
0.0
  0
INSERT
  2
*DIM_0004
  8
寸法
  6
CONTINUOUS
 10
0.0
 20
0.0
  0
INSERT
  2
*DIM_0005
  8
寸法
  6
CONTINUOUS
 10
0.0
 20
0.0
  0
INSERT
  2
*DIM_0006
  8
寸法
  6
CONTINUOUS
 10
0.0
 20
0.0
  0
INSERT
  2
*DIM_0007
  8
寸法
  6
CONTINUOUS
 10
0.0
 20
0.0
  0
INSERT
  2
*DIM_0008
  8
寸法
  6
CONTINUOUS
 10
0.0
 20
0.0
  0
INSERT
  2
*DIM_0009
  8
寸法
  6
CONTINUOUS
 10
0.0
 20
0.0
  0
INSERT
  2
*DIM_0010
  8
寸法
  6
CONTINUOUS
 10
0.0
 20
0.0
  0
INSERT
  2
*DIM_0011
  8
寸法
  6
CONTINUOUS
 10
0.0
 20
0.0
  0
INSERT
  2
*DIM_0012
  8
寸法
  6
CONTINUOUS
 10
0.0
 20
0.0
  0
INSERT
  2
*DIM_0013
  8
寸法
  6
CONTINUOUS
 10
0.0
 20
0.0
  0
INSERT
  2
*DIM_0014
  8
寸法
  6
CONTINUOUS
 10
0.0
 20
0.0
  0
INSERT
  2
*DIM_0015
  8
寸法
  6
CONTINUOUS
 10
0.0
 20
0.0
  0
INSERT
  2
*DIM_0016
  8
寸法
  6
CONTINUOUS
 10
0.0
 20
0.0
  0
INSERT
  2
*DIM_0017
  8
寸法
  6
CONTINUOUS
 10
0.0
 20
0.0
  0
INSERT
  2
*DIM_0018
  8
寸法
  6
CONTINUOUS
 10
0.0
 20
0.0
  0
LINE
  8
別途部材
  6
CONTINUOUS
 62
    47
 10
93.683633
 20
44.370552
 11
93.7503
 21
44.370552
  0
ARC
  8
別途部材
  6
CONTINUOUS
 62
    47
 10
93.683632
 20
44.270553
 40
0.1
 50
90.0
 51
180.0
  0
LINE
  8
別途部材
  6
CONTINUOUS
 62
    47
 10
93.583633
 20
44.270552
 11
93.583633
 21
41.903885
  0
LINE
  8
別途部材
  6
CONTINUOUS
 62
    47
 10
95.2503
 20
44.21403
 11
93.7503
 21
44.21403
  0
LINE
  8
別途部材
  6
CONTINUOUS
 62
    47
 10
93.683633
 20
21.257512
 11
93.7503
 21
21.257512
  0
ARC
  8
別途部材
  6
CONTINUOUS
 62
    47
 10
93.683632
 20
21.357511
 40
0.1
 50
180.0
 51
270.0
  0
LINE
  8
別途部材
  6
CONTINUOUS
 62
    47
 10
93.583633
 20
21.357512
 11
93.583633
 21
23.724178
  0
LINE
  8
別途部材
  6
CONTINUOUS
 62
    47
 10
95.2503
 20
21.414033
 11
93.7503
 21
21.414033
  0
LINE
  8
別途部材
  6
CONTINUOUS
 62
    47
 10
-63.510322
 20
-69.522567
 11
-63.510322
 21
-69.589232
  0
ARC
  8
別途部材
  6
CONTINUOUS
 62
    47
 10
-63.410323
 20
-69.522566
 40
0.1
 50
90.0
 51
180.0
  0
LINE
  8
別途部材
  6
CONTINUOUS
 62
    47
 10
-63.410322
 20
-69.422567
 11
-61.043655
 21
-69.422567
  0
LINE
  8
別途部材
  6
CONTINUOUS
 62
    47
 10
-63.3538
 20
-71.089232
 11
-63.3538
 21
-69.589232
  0
LINE
  8
別途部材
  6
CONTINUOUS
 62
    47
 10
6.269385
 20
-69.522567
 11
6.269385
 21
-69.589232
  0
ARC
  8
別途部材
  6
CONTINUOUS
 62
    47
 10
6.169385
 20
-69.522566
 40
0.1
 50
0.0
 51
90.0
  0
LINE
  8
別途部材
  6
CONTINUOUS
 62
    47
 10
6.169385
 20
-69.422567
 11
3.802717
 21
-69.422567
  0
LINE
  8
別途部材
  6
CONTINUOUS
 62
    47
 10
6.112862
 20
-71.089232
 11
6.112862
 21
-69.589232
  0
LINE
  8
別途部材
  6
DOT
 62
    47
 10
-63.510322
 20
-62.189235
 11
-63.510322
 21
-62.2559
  0
ARC
  8
別途部材
  6
DOT
 62
    47
 10
-63.410323
 20
-62.189233
 40
0.1
 50
90.0
 51
180.0
  0
LINE
  8
別途部材
  6
DOT
 62
    47
 10
-63.410322
 20
-62.089235
 11
-61.043655
 21
-62.089235
  0
LINE
  8
別途部材
  6
DOT
 62
    47
 10
-63.3538
 20
-63.7559
 11
-63.3538
 21
-62.2559
  0
LINE
  8
別途部材
  6
DOT
 62
    47
 10
6.269385
 20
-62.189235
 11
6.269385
 21
-62.2559
  0
ARC
  8
別途部材
  6
DOT
 62
    47
 10
6.169385
 20
-62.189233
 40
0.1
 50
0.0
 51
90.0
  0
LINE
  8
別途部材
  6
DOT
 62
    47
 10
6.169385
 20
-62.089235
 11
3.802717
 21
-62.089235
  0
LINE
  8
別途部材
  6
DOT
 62
    47
 10
6.112862
 20
-63.7559
 11
6.112862
 21
-62.2559
  0
LINE
  8
曲げ物
  6
CONTINUOUS
 10
99.79942
 20
-83.118728
 11
99.79942
 21
-63.785395
  0
LINE
  8
曲げ物
  6
CONTINUOUS
 10
-9.52482
 20
34.739582
 11
-13.220133
 21
31.04427
  0
LINE
  8
曲げ物
  6
CONTINUOUS
 10
-10.22829
 20
33.203472
 11
-11.68402
 21
31.747742
  0
LINE
  8
曲げ物
  6
CONTINUOUS
 10
-11.06093
 20
34.036112
 11
-12.51666
 21
32.580383
  0
LINE
  8
曲げ物
  6
CONTINUOUS
 10
-42.87684
 20
34.739582
 11
-46.572152
 21
31.04427
  0
LINE
  8
曲げ物
  6
CONTINUOUS
 10
-43.58031
 20
33.203472
 11
-45.03604
 21
31.747742
  0
LINE
  8
曲げ物
  6
CONTINUOUS
 10
-44.41295
 20
34.036112
 11
-45.86868
 21
32.580383
  0
LINE
  8
曲げ物
  6
CONTINUOUS
 10
67.382753
 20
-83.118728
 11
67.382753
 21
-63.785395
  0
LINE
  8
曲げ物
  6
CONTINUOUS
 10
99.79942
 20
-63.785395
 11
67.382753
 21
-63.785395
  0
LINE
  8
曲げ物
  6
CONTINUOUS
 10
99.79942
 20
-83.118728
 11
67.382753
 21
-83.118728
  0
ENDSEC
  0
EOF
