  0
SECTION
  2
HEADER
  9
$EXTMIN
 10
-210.0
 20
-148.5
  9
$EXTMAX
 10
210.0
 20
148.5
  9
$PDMODE
 70
    32
  9
$PDSIZE
 40
1.5
  9
$LTSCALE
 40
10.0
  0
ENDSEC
  0
SECTION
  2
TABLES
  0
TABLE
  2
LTYPE
 70
    15
  0
LTYPE
  2
CONTINUOUS
 70
    64
  3
実線
 72
    65
 73
     0
 40
0.0
  0
LTYPE
  2
DASHED
 70
    64
  3
破線A
 72
    65
 73
     2
 40
0.6
 49
0.4
 49
-0.2
  0
LTYPE
  2
DASHEDX2
 70
    64
  3
破線B
 72
    65
 73
     2
 40
1.3
 49
0.9
 49
-0.4
  0
LTYPE
  2
DASHDOT
 70
    64
  3
１点鎖線A
 72
    65
 73
     4
 40
0.5375
 49
0.375
 49
-0.05
 49
0.0625
 49
-0.05
  0
LTYPE
  2
DASHDOTX2
 70
    64
  3
１点鎖線B
 72
    65
 73
     4
 40
1.075
 49
0.75
 49
-0.1
 49
0.125
 49
-0.1
  0
LTYPE
  2
DIVIDE2
 70
    64
  3
２点鎖線A
 72
    65
 73
     6
 40
0.5125
 49
0.3
 49
-0.0375
 49
0.05
 49
-0.0375
 49
0.05
 49
-0.0375
  0
LTYPE
  2
DIVIDE
 70
    64
  3
２点鎖線B
 72
    65
 73
     6
 40
1.05
 49
0.55
 49
-0.1
 49
0.1
 49
-0.1
 49
0.1
 49
-0.1
  0
LTYPE
  2
DOT
 70
    64
  3
点線A
 72
    65
 73
     2
 40
0.1125
 49
0.0625
 49
-0.05
  0
LTYPE
  2
DOTX2
 70
    64
  3
点線B
 72
    65
 73
     2
 40
0.275
 49
0.15
 49
-0.125
  0
LTYPE
  2
CONTINUOUS
 70
    64
  3
実線
 72
    65
 73
     0
 40
0.0
  0
LTYPE
  2
CONTINUOUS
 70
    64
  3
実線
 72
    65
 73
     0
 40
0.0
  0
LTYPE
  2
CONTINUOUS
 70
    64
  3
実線
 72
    65
 73
     0
 40
0.0
  0
LTYPE
  2
CONTINUOUS
 70
    64
  3
実線
 72
    65
 73
     0
 40
0.0
  0
LTYPE
  2
CONTINUOUS
 70
    64
  3
実線
 72
    65
 73
     0
 40
0.0
  0
LTYPE
  2
CONTINUOUS
 70
    64
  3
実線
 72
    65
 73
     0
 40
0.0
  0
ENDTAB
  0
TABLE
  2
LAYER
 70
    34
  0
LAYER
  2
通り芯
 70
     0
 62
    15
  6
CONTINUOUS
  0
LAYER
  2
補助線
 70
     0
 62
    16
  6
DOT
  0
LAYER
  2
躯体
 70
     0
 62
    31
  6
CONTINUOUS
  0
LAYER
  2
型材
 70
     0
 62
    32
  6
CONTINUOUS
  0
LAYER
  2
型材断面
 70
     0
 62
    47
  6
CONTINUOUS
  0
LAYER
  2
ガラス
 70
     0
 62
    48
  6
CONTINUOUS
  0
LAYER
  2
ゴム等
 70
     0
 62
    63
  6
CONTINUOUS
  0
LAYER
  2
ボルト／ビス
 70
     0
 62
    64
  6
CONTINUOUS
  0
LAYER
  2
文字
 70
     0
 62
    79
  6
CONTINUOUS
  0
LAYER
  2
寸法
 70
     0
 62
    80
  6
CONTINUOUS
  0
LAYER
  2
ﾊｯﾁﾝｸﾞ
 70
     0
 62
    95
  6
CONTINUOUS
  0
LAYER
  2
別途部材
 70
     0
 62
    96
  6
CONTINUOUS
  0
LAYER
  2
曲げ物
 70
     0
 62
   111
  6
CONTINUOUS
  0
LAYER
  2
鉄骨等
 70
     0
 62
   112
  6
CONTINUOUS
  0
LAYER
  2
St
 70
     0
 62
   127
  6
CONTINUOUS
  0
LAYER
  2
その他部品等
 70
     0
 62
   128
  6
CONTINUOUS
  0
LAYER
  2
ｶﾞｽｹｯﾄ
 70
     0
 62
   143
  6
CONTINUOUS
  0
LAYER
  2
ｽｹｯﾁ
 70
     0
 62
    14
  6
CONTINUOUS
  0
LAYER
  2
0
 70
     0
 62
    17
  6
CONTINUOUS
  0
LAYER
  2
1
 70
     0
 62
    30
  6
CONTINUOUS
  0
LAYER
  2
4
 70
     0
 62
    33
  6
CONTINUOUS
  0
LAYER
  2
ﾚｲﾔ3
 70
     0
 62
    46
  6
CONTINUOUS
  0
LAYER
  2
外形線
 70
     0
 62
    49
  6
CONTINUOUS
  0
LAYER
  2
部品
 70
     0
 62
    14
  6
CONTINUOUS
  0
LAYER
  2
サッシ芯
 70
     0
 62
    17
  6
DASHDOTX2
  0
LAYER
  2
寸法線
 70
     0
 62
    62
  6
CONTINUOUS
  0
LAYER
  2
姿図外形線
 70
     0
 62
    65
  6
CONTINUOUS
  0
LAYER
  2
姿補助線
 70
     0
 62
    30
  6
CONTINUOUS
  0
LAYER
  2
透視線
 70
     0
 62
    78
  6
DOT
  0
LAYER
  2
用紙
 70
     0
 62
    81
  6
CONTINUOUS
  0
LAYER
  2
実線図枠
 70
     0
 62
    94
  6
CONTINUOUS
  0
LAYER
  2
補助図枠
 70
     0
 62
    97
  6
CONTINUOUS
  0
LAYER
  2
建具記号
 70
     0
 62
   110
  6
CONTINUOUS
  0
LAYER
  2
補助文字
 70
     0
 62
   113
  6
CONTINUOUS
  0
ENDTAB
  0
TABLE
  2
STYLE
 70
    10
  0
STYLE
  2
STANDARD
 70
     0
 40
1.0
 41
1.0
 42
1.0
 50
0.0
 71
     0
  3
TXT
  4
BIGFONT
  0
STYLE
  2
TATE
 70
     4
 40
1.0
 41
1.0
 42
1.0
 50
0.0
 71
     0
  3
TXT
  4
BIGFONT
  0
STYLE
  2
TextStyle03
 70
     0
 40
1.0
 41
1.0
 42
1.0
 50
0.0
 71
     0
  3
MONOTXT
  4
BIGFONT
  0
STYLE
  2
TextStyle04
 70
     0
 40
1.0
 41
1.0
 42
1.0
 50
0.0
 71
     0
  3
MONOTXT
  4
BIGFONT
  0
STYLE
  2
TextStyle05
 70
     0
 40
1.0
 41
1.0
 42
1.0
 50
0.0
 71
     0
  3
MONOTXT
  4
BIGFONT
  0
STYLE
  2
TextStyle06
 70
     0
 40
1.0
 41
1.0
 42
1.0
 50
0.0
 71
     0
  3
MONOTXT
  4
BIGFONT
  0
STYLE
  2
TextStyle07
 70
     0
 40
1.0
 41
1.0
 42
1.0
 50
0.0
 71
     0
  3
MONOTXT
  4
BIGFONT
  0
STYLE
  2
TextStyle08
 70
     0
 40
1.0
 41
1.0
 42
1.0
 50
0.0
 71
     0
  3
MONOTXT
  4
BIGFONT
  0
STYLE
  2
TextStyle09
 70
     0
 40
1.0
 41
1.0
 42
1.0
 50
0.0
 71
     0
  3
MONOTXT
  4
BIGFONT
  0
STYLE
  2
TextStyle10
 70
     0
 40
1.0
 41
1.0
 42
1.0
 50
0.0
 71
     0
  3
MONOTXT
  4
BIGFONT
  0
ENDTAB
  0
ENDSEC
  0
SECTION
  2
BLOCKS
  0
BLOCK
  2
*GRP_0001
 70
    65
 10
0.0
 20
0.0
  0
LINE
  8
型材断面
  6
CONTINUOUS
 10
195.0
 20
133.5
 11
195.0
 21
-133.5
  0
LINE
  8
型材断面
  6
CONTINUOUS
 10
195.0
 20
-133.5
 11
-185.0
 21
-133.5
  0
LINE
  8
型材断面
  6
CONTINUOUS
 10
-185.0
 20
-133.5
 11
-185.0
 21
133.5
  0
LINE
  8
型材断面
  6
CONTINUOUS
 10
195.0
 20
133.5
 11
-185.0
 21
133.5
  0
LINE
  8
型材断面
  6
CONTINUOUS
 10
145.0
 20
-133.5
 11
145.0
 21
-118.5
  0
LINE
  8
型材断面
  6
CONTINUOUS
 10
195.0
 20
-118.5
 11
145.0
 21
-118.5
  0
ENDBLK
  0
BLOCK
  2
*DIM_0002
 70
    65
 10
0.0
 20
0.0
  0
LINE
  8
寸法
  6
BYBLOCK
 62
     0
 10
-128.742993
 20
-22.207025
 11
-128.742993
 21
-22.536362
  0
LINE
  8
寸法
  6
BYBLOCK
 62
     0
 10
71.257007
 20
-22.207025
 11
71.257007
 21
-22.536362
  0
LINE
  8
寸法
  6
BYBLOCK
 62
     0
 10
-128.742993
 20
-22.536362
 11
71.257007
 21
-22.536362
  0
POINT
  8
寸法
 62
     0
 10
-128.742993
 20
-22.536362
  0
POINT
  8
寸法
 62
     0
 10
71.257007
 20
-22.536362
  0
TEXT
  7
TextStyle03
  8
寸法
  6
CONTINUOUS
 62
     0
 10
-40.46875
 20
-22.175
  1
呼称寸法　6000
 40
3.0
 72
     5
 11
-17.03125
 21
-22.175
  0
ENDBLK
  0
BLOCK
  2
*DIM_0003
 70
    65
 10
0.0
 20
0.0
  0
LINE
  8
寸法
  6
BYBLOCK
 62
     0
 10
105.276657
 20
13.399048
 11
105.276657
 21
56.73238
  0
POINT
  8
寸法
 62
     0
 10
105.276657
 20
13.399048
  0
POINT
  8
寸法
 62
     0
 10
105.276657
 20
56.73238
  0
TEXT
  7
TextStyle03
  8
寸法
  6
CONTINUOUS
 62
     0
 10
104.9
 20
23.33125
  1
呼称寸法　1300
 40
3.0
 50
90.0
 72
     5
 11
104.9
 21
46.76875
  0
ENDBLK
  0
BLOCK
  2
*DIM_0004
 70
    65
 10
0.0
 20
0.0
  0
LINE
  8
寸法
  6
BYBLOCK
 62
     0
 10
167.343563
 20
-49.867045
 11
175.77841
 21
-49.867045
  0
LINE
  8
寸法
  6
BYBLOCK
 62
     0
 10
167.343563
 20
-92.533713
 11
175.77841
 21
-92.533713
  0
LINE
  8
寸法
  6
BYBLOCK
 62
     0
 10
175.77841
 20
-49.867045
 11
175.77841
 21
-92.533713
  0
POINT
  8
寸法
 62
     0
 10
175.77841
 20
-49.867045
  0
POINT
  8
寸法
 62
     0
 10
175.77841
 20
-92.533713
  0
TEXT
  7
TextStyle03
  8
寸法
  6
CONTINUOUS
 62
     0
 10
175.4
 20
-74.48125
  1
1280
 40
3.0
 50
90.0
 72
     5
 11
175.4
 21
-67.91875
  0
ENDBLK
  0
BLOCK
  2
*DIM_0005
 70
    65
 10
0.0
 20
0.0
  0
LINE
  8
寸法
  6
BYBLOCK
 62
     0
 10
-112.076325
 20
9.76892
 11
-112.076325
 21
4.684867
  0
LINE
  8
寸法
  6
BYBLOCK
 62
     0
 10
-28.742993
 20
9.76892
 11
-28.742993
 21
4.684867
  0
LINE
  8
寸法
  6
BYBLOCK
 62
     0
 10
-112.076325
 20
4.684867
 11
-28.742993
 21
4.684867
  0
POINT
  8
寸法
 62
     0
 10
-112.076325
 20
4.684867
  0
POINT
  8
寸法
 62
     0
 10
-28.742993
 20
4.684867
  0
TEXT
  7
TextStyle03
  8
寸法
  6
CONTINUOUS
 62
     0
 10
-73.70625
 20
5.05
  1
2500
 40
3.0
 72
     5
 11
-67.14375
 21
5.05
  0
ENDBLK
  0
BLOCK
  2
*DIM_0006
 70
    65
 10
0.0
 20
0.0
  0
LINE
  8
寸法
  6
BYBLOCK
 62
     0
 10
54.59034
 20
9.76892
 11
54.59034
 21
4.684867
  0
LINE
  8
寸法
  6
BYBLOCK
 62
     0
 10
-28.742993
 20
4.684867
 11
54.59034
 21
4.684867
  0
POINT
  8
寸法
 62
     0
 10
54.59034
 20
4.684867
  0
TEXT
  7
TextStyle03
  8
寸法
  6
CONTINUOUS
 62
     0
 10
9.61875
 20
5.05
  1
2500
 40
3.0
 72
     5
 11
16.18125
 21
5.05
  0
ENDBLK
  0
BLOCK
  2
*DIM_0007
 70
    65
 10
0.0
 20
0.0
  0
LINE
  8
寸法
  6
BYBLOCK
 62
     0
 10
72.257007
 20
56.732382
 11
81.98129
 21
56.732382
  0
LINE
  8
寸法
  6
BYBLOCK
 62
     0
 10
74.887138
 20
53.032382
 11
81.98129
 21
53.032382
  0
LINE
  8
寸法
  6
BYBLOCK
 62
     0
 10
81.98129
 20
56.732382
 11
81.98129
 21
53.032382
  0
POINT
  8
寸法
 62
     0
 10
81.98129
 20
56.732382
  0
POINT
  8
寸法
 62
     0
 10
81.98129
 20
53.032382
  0
TEXT
  7
TextStyle03
  8
寸法
  6
CONTINUOUS
 62
     0
 10
81.65
 20
57.7125
  1
111
 40
3.0
 50
90.0
 72
     5
 11
81.65
 21
62.5875
  0
ENDBLK
  0
BLOCK
  2
*DIM_0008
 70
    65
 10
0.0
 20
0.0
  0
LINE
  8
寸法
  6
BYBLOCK
 62
     0
 10
72.257007
 20
13.399048
 11
81.98129
 21
13.399045
  0
LINE
  8
寸法
  6
BYBLOCK
 62
     0
 10
74.887138
 20
17.099048
 11
81.98129
 21
17.099045
  0
LINE
  8
寸法
  6
BYBLOCK
 62
     0
 10
81.98129
 20
13.399045
 11
81.98129
 21
17.099045
  0
POINT
  8
寸法
 62
     0
 10
81.98129
 20
13.399045
  0
POINT
  8
寸法
 62
     0
 10
81.98129
 20
17.099045
  0
TEXT
  7
TextStyle03
  8
寸法
  6
CONTINUOUS
 62
     0
 10
81.625
 20
7.5375
  1
111
 40
3.0
 50
90.0
 72
     5
 11
81.625
 21
12.4125
  0
ENDBLK
  0
BLOCK
  2
*DIM_0009
 70
    65
 10
0.0
 20
0.0
  0
LINE
  8
寸法
  6
BYBLOCK
 62
     0
 10
159.167052
 20
58.715712
 11
105.276657
 21
58.715712
  0
LINE
  8
寸法
  6
BYBLOCK
 62
     0
 10
105.276657
 20
56.73238
 11
105.276657
 21
58.715712
  0
POINT
  8
寸法
 62
     0
 10
105.276657
 20
56.73238
  0
POINT
  8
寸法
 62
     0
 10
105.276657
 20
58.715712
  0
TEXT
  7
TextStyle03
  8
寸法
  6
CONTINUOUS
 62
     0
 10
104.85
 20
61.16875
  1
59.5
 40
3.0
 50
90.0
 72
     5
 11
104.85
 21
67.73125
  0
ENDBLK
  0
BLOCK
  2
*DIM_0010
 70
    65
 10
0.0
 20
0.0
  0
LINE
  8
寸法
  6
BYBLOCK
 62
     0
 10
159.167052
 20
11.415712
 11
105.276657
 21
11.415712
  0
LINE
  8
寸法
  6
BYBLOCK
 62
     0
 10
105.276657
 20
13.399048
 11
105.276657
 21
11.415712
  0
POINT
  8
寸法
 62
     0
 10
105.276657
 20
13.399048
  0
POINT
  8
寸法
 62
     0
 10
105.276657
 20
11.415712
  0
TEXT
  7
TextStyle03
  8
寸法
  6
CONTINUOUS
 62
     0
 10
104.85
 20
2.36875
  1
59.5
 40
3.0
 50
90.0
 72
     5
 11
104.85
 21
8.93125
  0
ENDBLK
  0
BLOCK
  2
*DIM_0011
 70
    65
 10
0.0
 20
0.0
  0
LINE
  8
寸法
  6
BYBLOCK
 62
     0
 10
73.24034
 20
-61.334713
 11
73.24034
 21
-22.536362
  0
LINE
  8
寸法
  6
BYBLOCK
 62
     0
 10
71.257007
 20
-22.536362
 11
73.24034
 21
-22.536362
  0
POINT
  8
寸法
 62
     0
 10
71.257007
 20
-22.536362
  0
POINT
  8
寸法
 62
     0
 10
73.24034
 20
-22.536362
  0
TEXT
  7
TextStyle03
  8
寸法
  6
CONTINUOUS
 62
     0
 10
75.69375
 20
-22.175
  1
59.5
 40
3.0
 72
     5
 11
82.25625
 21
-22.175
  0
ENDBLK
  0
BLOCK
  2
*DIM_0012
 70
    65
 10
0.0
 20
0.0
  0
LINE
  8
寸法
  6
BYBLOCK
 62
     0
 10
-130.726325
 20
-61.334713
 11
-130.726325
 21
-22.536362
  0
LINE
  8
寸法
  6
BYBLOCK
 62
     0
 10
-128.742993
 20
-22.536362
 11
-130.726325
 21
-22.536362
  0
POINT
  8
寸法
 62
     0
 10
-128.742993
 20
-22.536362
  0
POINT
  8
寸法
 62
     0
 10
-130.726325
 20
-22.536362
  0
TEXT
  7
TextStyle03
  8
寸法
  6
CONTINUOUS
 62
     0
 10
-139.78125
 20
-22.175
  1
59.5
 40
3.0
 72
     5
 11
-133.21875
 21
-22.175
  0
ENDBLK
  0
BLOCK
  2
*DIM_0013
 70
    65
 10
0.0
 20
0.0
  0
LINE
  8
寸法
  6
BYBLOCK
 62
     0
 10
-131.742993
 20
23.399048
 11
-160.688158
 21
23.399048
  0
LINE
  8
寸法
  6
BYBLOCK
 62
     0
 10
-131.742993
 20
46.732382
 11
-160.688158
 21
46.732382
  0
LINE
  8
寸法
  6
BYBLOCK
 62
     0
 10
-160.688158
 20
23.399048
 11
-160.688158
 21
46.732382
  0
POINT
  8
寸法
 62
     0
 10
-160.688158
 20
23.399048
  0
POINT
  8
寸法
 62
     0
 10
-160.688158
 20
46.732382
  0
TEXT
  7
TextStyle03
  8
寸法
  6
CONTINUOUS
 62
     0
 10
-161.075
 20
32.6125
  1
700
 40
3.0
 50
90.0
 72
     5
 11
-161.075
 21
37.4875
  0
ENDBLK
  0
BLOCK
  2
*DIM_0014
 70
    65
 10
0.0
 20
0.0
  0
LINE
  8
寸法
  6
BYBLOCK
 62
     0
 10
-122.076325
 20
59.73238
 11
-122.076325
 21
88.840452
  0
LINE
  8
寸法
  6
BYBLOCK
 62
     0
 10
-98.742993
 20
59.73238
 11
-98.742993
 21
88.840452
  0
LINE
  8
寸法
  6
BYBLOCK
 62
     0
 10
-122.076325
 20
88.840452
 11
-98.742993
 21
88.840452
  0
POINT
  8
寸法
 62
     0
 10
-122.076325
 20
88.840452
  0
POINT
  8
寸法
 62
     0
 10
-98.742993
 20
88.840452
  0
TEXT
  7
TextStyle03
  8
寸法
  6
CONTINUOUS
 62
     0
 10
-112.8625
 20
89.2
  1
700
 40
3.0
 72
     5
 11
-107.9875
 21
89.2
  0
ENDBLK
  0
BLOCK
  2
*DIM_0015
 70
    65
 10
0.0
 20
0.0
  0
LINE
  8
寸法
  6
BYBLOCK
 62
     0
 10
-75.40966
 20
59.73238
 11
-75.40966
 21
88.840452
  0
LINE
  8
寸法
  6
BYBLOCK
 62
     0
 10
-98.742993
 20
88.840452
 11
-75.40966
 21
88.840452
  0
POINT
  8
寸法
 62
     0
 10
-75.40966
 20
88.840452
  0
TEXT
  7
TextStyle03
  8
寸法
  6
CONTINUOUS
 62
     0
 10
-89.5375
 20
89.2
  1
700
 40
3.0
 72
     5
 11
-84.6625
 21
89.2
  0
ENDBLK
  0
BLOCK
  2
*DIM_0016
 70
    65
 10
0.0
 20
0.0
  0
LINE
  8
寸法
  6
BYBLOCK
 62
     0
 10
-52.076325
 20
59.73238
 11
-52.076325
 21
88.840452
  0
LINE
  8
寸法
  6
BYBLOCK
 62
     0
 10
-75.40966
 20
88.840452
 11
-52.076325
 21
88.840452
  0
POINT
  8
寸法
 62
     0
 10
-52.076325
 20
88.840452
  0
TEXT
  7
TextStyle03
  8
寸法
  6
CONTINUOUS
 62
     0
 10
-66.1875
 20
89.2
  1
700
 40
3.0
 72
     5
 11
-61.3125
 21
89.2
  0
ENDBLK
  0
BLOCK
  2
*DIM_0017
 70
    65
 10
0.0
 20
0.0
  0
LINE
  8
寸法
  6
BYBLOCK
 62
     0
 10
-28.742993
 20
59.73238
 11
-28.742993
 21
88.840452
  0
LINE
  8
寸法
  6
BYBLOCK
 62
     0
 10
-52.076325
 20
88.840452
 11
-28.742993
 21
88.840452
  0
POINT
  8
寸法
 62
     0
 10
-28.742993
 20
88.840452
  0
TEXT
  7
TextStyle03
  8
寸法
  6
CONTINUOUS
 62
     0
 10
-42.8625
 20
89.2
  1
700
 40
3.0
 72
     5
 11
-37.9875
 21
89.2
  0
ENDBLK
  0
BLOCK
  2
*DIM_0018
 70
    65
 10
0.0
 20
0.0
  0
LINE
  8
寸法
  6
BYBLOCK
 62
     0
 10
-5.40966
 20
59.73238
 11
-5.40966
 21
88.840452
  0
LINE
  8
寸法
  6
BYBLOCK
 62
     0
 10
-28.742993
 20
88.840452
 11
-5.40966
 21
88.840452
  0
POINT
  8
寸法
 62
     0
 10
-5.40966
 20
88.840452
  0
TEXT
  7
TextStyle03
  8
寸法
  6
CONTINUOUS
 62
     0
 10
-19.5375
 20
89.2
  1
700
 40
3.0
 72
     5
 11
-14.6625
 21
89.2
  0
ENDBLK
  0
BLOCK
  2
*DIM_0019
 70
    65
 10
0.0
 20
0.0
  0
LINE
  8
寸法
  6
BYBLOCK
 62
     0
 10
17.923675
 20
59.73238
 11
17.923675
 21
88.840452
  0
LINE
  8
寸法
  6
BYBLOCK
 62
     0
 10
-5.40966
 20
88.840452
 11
17.923675
 21
88.840452
  0
POINT
  8
寸法
 62
     0
 10
17.923675
 20
88.840452
  0
TEXT
  7
TextStyle03
  8
寸法
  6
CONTINUOUS
 62
     0
 10
3.8125
 20
89.2
  1
700
 40
3.0
 72
     5
 11
8.6875
 21
89.2
  0
ENDBLK
  0
BLOCK
  2
*DIM_0020
 70
    65
 10
0.0
 20
0.0
  0
LINE
  8
寸法
  6
BYBLOCK
 62
     0
 10
41.257007
 20
59.73238
 11
41.257007
 21
88.840452
  0
LINE
  8
寸法
  6
BYBLOCK
 62
     0
 10
17.923675
 20
88.840452
 11
41.257007
 21
88.840452
  0
POINT
  8
寸法
 62
     0
 10
41.257007
 20
88.840452
  0
TEXT
  7
TextStyle03
  8
寸法
  6
CONTINUOUS
 62
     0
 10
27.1375
 20
89.2
  1
700
 40
3.0
 72
     5
 11
32.0125
 21
89.2
  0
ENDBLK
  0
BLOCK
  2
*DIM_0021
 70
    65
 10
0.0
 20
0.0
  0
LINE
  8
寸法
  6
BYBLOCK
 62
     0
 10
64.59034
 20
59.73238
 11
64.59034
 21
88.840452
  0
LINE
  8
寸法
  6
BYBLOCK
 62
     0
 10
41.257007
 20
88.840452
 11
64.59034
 21
88.840452
  0
POINT
  8
寸法
 62
     0
 10
64.59034
 20
88.840452
  0
TEXT
  7
TextStyle03
  8
寸法
  6
CONTINUOUS
 62
     0
 10
50.4625
 20
89.2
  1
700
 40
3.0
 72
     5
 11
55.3375
 21
89.2
  0
ENDBLK
  0
BLOCK
  2
*DIM_0022
 70
    65
 10
0.0
 20
0.0
  0
LINE
  8
寸法
  6
CONTINUOUS
 10
159.983633
 20
70.502383
 11
167.633683
 21
70.502383
  0
POINT
  8
寸法
 10
159.983633
 20
70.502383
  0
POINT
  8
寸法
 10
167.633683
 20
70.502383
  0
TEXT
  7
TextStyle03
  8
寸法
  6
CONTINUOUS
 10
159.7
 20
70.85
  1
229.5
 40
3.0
 72
     5
 11
167.95
 21
70.85
  0
ENDBLK
  0
BLOCK
  2
*GRP_0023
 70
    65
 10
0.0
 20
0.0
  0
LINE
  8
補助線
  6
BYBLOCK
 62
    64
 10
-125.347732
 20
-82.822697
 11
-125.471577
 21
-82.934232
  0
LINE
  8
補助線
  6
BYBLOCK
 62
    64
 10
-125.465425
 20
-82.81654
 11
-125.353888
 21
-82.940388
  0
LINE
  8
補助線
  6
BYBLOCK
 62
    64
 10
-114.63263
 20
-73.172673
 11
-114.756475
 21
-73.284207
  0
LINE
  8
補助線
  6
BYBLOCK
 62
    64
 10
-114.75032
 20
-73.166515
 11
-114.638785
 21
-73.290362
  0
LINE
  8
補助線
  6
BYBLOCK
 62
    64
 10
-104.041373
 20
-63.634183
 11
-103.91753
 21
-63.522648
  0
LINE
  8
補助線
  6
BYBLOCK
 62
    64
 10
-104.03522
 20
-63.51649
 11
-103.923683
 21
-63.640337
  0
LINE
  8
型材断面
  6
CONTINUOUS
 10
-126.215023
 20
-82.48231
 11
-126.25195
 21
-83.18845
  0
LINE
  8
型材断面
  6
CONTINUOUS
 10
-126.25195
 20
-83.18845
 11
-125.80581
 21
-83.683832
  0
LINE
  8
型材断面
  6
CONTINUOUS
 10
-125.80581
 20
-83.683832
 11
-125.099668
 21
-83.720763
  0
LINE
  8
型材断面
  6
CONTINUOUS
 10
-104.289435
 20
-62.73612
 11
-103.583295
 21
-62.77305
  0
LINE
  8
型材断面
  6
CONTINUOUS
 10
-103.583295
 20
-62.77305
 11
-103.137152
 21
-63.26843
  0
LINE
  8
型材断面
  6
CONTINUOUS
 10
-103.137152
 20
-63.26843
 11
-103.174082
 21
-63.974575
  0
LINE
  8
型材断面
  6
CONTINUOUS
 10
-125.099668
 20
-83.720763
 11
-103.174082
 21
-63.974575
  0
LINE
  8
型材断面
  6
CONTINUOUS
 10
-126.215023
 20
-82.48231
 11
-104.289435
 21
-62.73612
  0
CIRCLE
  8
ボルト／ビス
  6
CONTINUOUS
 10
-125.409655
 20
-82.878465
 40
0.250185
  0
CIRCLE
  8
ボルト／ビス
  6
CONTINUOUS
 10
-125.409655
 20
-82.878465
 40
0.301025
  0
LINE
  8
ボルト／ビス
  6
CONTINUOUS
 62
    64
 10
-125.654367
 20
-82.93051
 11
-125.577082
 21
-82.69256
  0
LINE
  8
ボルト／ビス
  6
CONTINUOUS
 62
    64
 10
-125.33237
 20
-82.640515
 11
-125.577082
 21
-82.69256
  0
LINE
  8
ボルト／ビス
  6
CONTINUOUS
 62
    64
 10
-125.48694
 20
-83.116415
 11
-125.242227
 21
-83.06437
  0
LINE
  8
ボルト／ビス
  6
CONTINUOUS
 62
    64
 10
-125.164942
 20
-82.82642
 11
-125.242227
 21
-83.06437
  0
LINE
  8
ボルト／ビス
  6
CONTINUOUS
 62
    64
 10
-125.654367
 20
-82.93051
 11
-125.48694
 21
-83.116415
  0
LINE
  8
ボルト／ビス
  6
CONTINUOUS
 62
    64
 10
-125.33237
 20
-82.640515
 11
-125.164942
 21
-82.82642
  0
CIRCLE
  8
ボルト／ビス
  6
CONTINUOUS
 62
    64
 10
-125.409655
 20
-82.878465
 40
0.216668
  0
CIRCLE
  8
ボルト／ビス
  6
CONTINUOUS
 10
-114.694553
 20
-73.228442
 40
0.250185
  0
CIRCLE
  8
ボルト／ビス
  6
CONTINUOUS
 10
-114.694553
 20
-73.228442
 40
0.301025
  0
LINE
  8
ボルト／ビス
  6
CONTINUOUS
 62
    64
 10
-114.939268
 20
-73.280485
 11
-114.86198
 21
-73.042535
  0
LINE
  8
ボルト／ビス
  6
CONTINUOUS
 62
    64
 10
-114.617267
 20
-72.990492
 11
-114.86198
 21
-73.042535
  0
LINE
  8
ボルト／ビス
  6
CONTINUOUS
 62
    64
 10
-114.77184
 20
-73.46639
 11
-114.527128
 21
-73.414345
  0
LINE
  8
ボルト／ビス
  6
CONTINUOUS
 62
    64
 10
-114.44984
 20
-73.176397
 11
-114.527128
 21
-73.414345
  0
LINE
  8
ボルト／ビス
  6
CONTINUOUS
 62
    64
 10
-114.939268
 20
-73.280485
 11
-114.77184
 21
-73.46639
  0
LINE
  8
ボルト／ビス
  6
CONTINUOUS
 62
    64
 10
-114.617267
 20
-72.990492
 11
-114.44984
 21
-73.176397
  0
CIRCLE
  8
ボルト／ビス
  6
CONTINUOUS
 62
    64
 10
-114.694553
 20
-73.228442
 40
0.216668
  0
CIRCLE
  8
ボルト／ビス
  6
CONTINUOUS
 10
-103.979453
 20
-63.578415
 40
0.250185
  0
CIRCLE
  8
ボルト／ビス
  6
CONTINUOUS
 10
-103.979453
 20
-63.578415
 40
0.301025
  0
LINE
  8
ボルト／ビス
  6
CONTINUOUS
 62
    64
 10
-103.902165
 20
-63.340465
 11
-104.146878
 21
-63.39251
  0
LINE
  8
ボルト／ビス
  6
CONTINUOUS
 62
    64
 10
-104.224162
 20
-63.63046
 11
-104.146878
 21
-63.39251
  0
LINE
  8
ボルト／ビス
  6
CONTINUOUS
 62
    64
 10
-103.734738
 20
-63.52637
 11
-103.812025
 21
-63.76432
  0
LINE
  8
ボルト／ビス
  6
CONTINUOUS
 62
    64
 10
-104.056737
 20
-63.816365
 11
-103.812025
 21
-63.76432
  0
LINE
  8
ボルト／ビス
  6
CONTINUOUS
 62
    64
 10
-103.902165
 20
-63.340465
 11
-103.734738
 21
-63.52637
  0
LINE
  8
ボルト／ビス
  6
CONTINUOUS
 62
    64
 10
-104.224162
 20
-63.63046
 11
-104.056737
 21
-63.816365
  0
CIRCLE
  8
ボルト／ビス
  6
CONTINUOUS
 62
    64
 10
-103.979453
 20
-63.578415
 40
0.216668
  0
ENDBLK
  0
BLOCK
  2
*GRP_0024
 70
    65
 10
0.0
 20
0.0
  0
LINE
  8
補助線
  6
BYBLOCK
 62
    64
 10
-104.041373
 20
-82.822697
 11
-103.917527
 21
-82.934232
  0
LINE
  8
補助線
  6
BYBLOCK
 62
    64
 10
-103.92368
 20
-82.81654
 11
-104.035218
 21
-82.940388
  0
LINE
  8
補助線
  6
BYBLOCK
 62
    64
 10
-114.756475
 20
-73.172673
 11
-114.63263
 21
-73.284207
  0
LINE
  8
補助線
  6
BYBLOCK
 62
    64
 10
-114.638785
 20
-73.166515
 11
-114.75032
 21
-73.290362
  0
LINE
  8
補助線
  6
BYBLOCK
 62
    64
 10
-125.347732
 20
-63.634183
 11
-125.471575
 21
-63.522648
  0
LINE
  8
補助線
  6
BYBLOCK
 62
    64
 10
-125.353885
 20
-63.51649
 11
-125.465423
 21
-63.640337
  0
LINE
  8
型材断面
  6
CONTINUOUS
 10
-103.174082
 20
-82.48231
 11
-103.137155
 21
-83.18845
  0
LINE
  8
型材断面
  6
CONTINUOUS
 10
-103.137155
 20
-83.18845
 11
-103.583295
 21
-83.683832
  0
LINE
  8
型材断面
  6
CONTINUOUS
 10
-103.583295
 20
-83.683832
 11
-104.289437
 21
-83.720763
  0
LINE
  8
型材断面
  6
CONTINUOUS
 10
-125.09967
 20
-62.73612
 11
-125.80581
 21
-62.77305
  0
LINE
  8
型材断面
  6
CONTINUOUS
 10
-125.80581
 20
-62.77305
 11
-126.251952
 21
-63.26843
  0
LINE
  8
型材断面
  6
CONTINUOUS
 10
-126.251952
 20
-63.26843
 11
-126.215023
 21
-63.974575
  0
LINE
  8
型材断面
  6
CONTINUOUS
 10
-104.289437
 20
-83.720763
 11
-126.215023
 21
-63.974575
  0
LINE
  8
型材断面
  6
CONTINUOUS
 10
-103.174082
 20
-82.48231
 11
-125.09967
 21
-62.73612
  0
CIRCLE
  8
ボルト／ビス
  6
CONTINUOUS
 10
-103.97945
 20
-82.878465
 40
0.250185
  0
CIRCLE
  8
ボルト／ビス
  6
CONTINUOUS
 10
-103.97945
 20
-82.878465
 40
0.301025
  0
LINE
  8
ボルト／ビス
  6
CONTINUOUS
 62
    64
 10
-103.734738
 20
-82.93051
 11
-103.812022
 21
-82.69256
  0
LINE
  8
ボルト／ビス
  6
CONTINUOUS
 62
    64
 10
-104.056735
 20
-82.640515
 11
-103.812022
 21
-82.69256
  0
LINE
  8
ボルト／ビス
  6
CONTINUOUS
 62
    64
 10
-103.902165
 20
-83.116415
 11
-104.146878
 21
-83.06437
  0
LINE
  8
ボルト／ビス
  6
CONTINUOUS
 62
    64
 10
-104.224162
 20
-82.82642
 11
-104.146878
 21
-83.06437
  0
LINE
  8
ボルト／ビス
  6
CONTINUOUS
 62
    64
 10
-103.734738
 20
-82.93051
 11
-103.902165
 21
-83.116415
  0
LINE
  8
ボルト／ビス
  6
CONTINUOUS
 62
    64
 10
-104.056735
 20
-82.640515
 11
-104.224162
 21
-82.82642
  0
CIRCLE
  8
ボルト／ビス
  6
CONTINUOUS
 62
    64
 10
-103.97945
 20
-82.878465
 40
0.216668
  0
CIRCLE
  8
ボルト／ビス
  6
CONTINUOUS
 10
-114.694553
 20
-73.228442
 40
0.250185
  0
CIRCLE
  8
ボルト／ビス
  6
CONTINUOUS
 10
-114.694553
 20
-73.228442
 40
0.301025
  0
LINE
  8
ボルト／ビス
  6
CONTINUOUS
 62
    64
 10
-114.449838
 20
-73.280485
 11
-114.527125
 21
-73.042535
  0
LINE
  8
ボルト／ビス
  6
CONTINUOUS
 62
    64
 10
-114.771838
 20
-72.990492
 11
-114.527125
 21
-73.042535
  0
LINE
  8
ボルト／ビス
  6
CONTINUOUS
 62
    64
 10
-114.617265
 20
-73.46639
 11
-114.861978
 21
-73.414345
  0
LINE
  8
ボルト／ビス
  6
CONTINUOUS
 62
    64
 10
-114.939265
 20
-73.176397
 11
-114.861978
 21
-73.414345
  0
LINE
  8
ボルト／ビス
  6
CONTINUOUS
 62
    64
 10
-114.449838
 20
-73.280485
 11
-114.617265
 21
-73.46639
  0
LINE
  8
ボルト／ビス
  6
CONTINUOUS
 62
    64
 10
-114.771838
 20
-72.990492
 11
-114.939265
 21
-73.176397
  0
CIRCLE
  8
ボルト／ビス
  6
CONTINUOUS
 62
    64
 10
-114.694553
 20
-73.228442
 40
0.216668
  0
CIRCLE
  8
ボルト／ビス
  6
CONTINUOUS
 10
-125.409652
 20
-63.578415
 40
0.250185
  0
CIRCLE
  8
ボルト／ビス
  6
CONTINUOUS
 10
-125.409652
 20
-63.578415
 40
0.301025
  0
LINE
  8
ボルト／ビス
  6
CONTINUOUS
 62
    64
 10
-125.48694
 20
-63.340465
 11
-125.242227
 21
-63.39251
  0
LINE
  8
ボルト／ビス
  6
CONTINUOUS
 62
    64
 10
-125.164942
 20
-63.63046
 11
-125.242227
 21
-63.39251
  0
LINE
  8
ボルト／ビス
  6
CONTINUOUS
 62
    64
 10
-125.654367
 20
-63.52637
 11
-125.57708
 21
-63.76432
  0
LINE
  8
ボルト／ビス
  6
CONTINUOUS
 62
    64
 10
-125.332367
 20
-63.816365
 11
-125.57708
 21
-63.76432
  0
LINE
  8
ボルト／ビス
  6
CONTINUOUS
 62
    64
 10
-125.48694
 20
-63.340465
 11
-125.654367
 21
-63.52637
  0
LINE
  8
ボルト／ビス
  6
CONTINUOUS
 62
    64
 10
-125.164942
 20
-63.63046
 11
-125.332367
 21
-63.816365
  0
CIRCLE
  8
ボルト／ビス
  6
CONTINUOUS
 62
    64
 10
-125.409652
 20
-63.578415
 40
0.216668
  0
ENDBLK
  0
BLOCK
  2
*GRP_0025
 70
    65
 10
0.0
 20
0.0
  0
LINE
  8
補助線
  6
BYBLOCK
 62
    64
 10
67.861758
 20
-82.822697
 11
67.985602
 21
-82.934232
  0
LINE
  8
補助線
  6
BYBLOCK
 62
    64
 10
67.97945
 20
-82.81654
 11
67.867913
 21
-82.940388
  0
LINE
  8
補助線
  6
BYBLOCK
 62
    64
 10
57.146655
 20
-73.172673
 11
57.2705
 21
-73.284207
  0
LINE
  8
補助線
  6
BYBLOCK
 62
    64
 10
57.264345
 20
-73.166515
 11
57.15281
 21
-73.290362
  0
LINE
  8
補助線
  6
BYBLOCK
 62
    64
 10
46.555398
 20
-63.634183
 11
46.431555
 21
-63.522648
  0
LINE
  8
補助線
  6
BYBLOCK
 62
    64
 10
46.549245
 20
-63.51649
 11
46.437708
 21
-63.640337
  0
LINE
  8
型材断面
  6
CONTINUOUS
 10
68.729047
 20
-82.48231
 11
68.765975
 21
-83.18845
  0
LINE
  8
型材断面
  6
CONTINUOUS
 10
68.765975
 20
-83.18845
 11
68.319835
 21
-83.683832
  0
LINE
  8
型材断面
  6
CONTINUOUS
 10
68.319835
 20
-83.683832
 11
67.613693
 21
-83.720763
  0
LINE
  8
型材断面
  6
CONTINUOUS
 10
46.80346
 20
-62.73612
 11
46.09732
 21
-62.77305
  0
LINE
  8
型材断面
  6
CONTINUOUS
 10
46.09732
 20
-62.77305
 11
45.651178
 21
-63.26843
  0
LINE
  8
型材断面
  6
CONTINUOUS
 10
45.651178
 20
-63.26843
 11
45.688107
 21
-63.974575
  0
LINE
  8
型材断面
  6
CONTINUOUS
 10
67.613693
 20
-83.720763
 11
45.688107
 21
-63.974575
  0
LINE
  8
型材断面
  6
CONTINUOUS
 10
68.729047
 20
-82.48231
 11
46.80346
 21
-62.73612
  0
CIRCLE
  8
ボルト／ビス
  6
CONTINUOUS
 10
67.92368
 20
-82.878465
 40
0.250185
  0
CIRCLE
  8
ボルト／ビス
  6
CONTINUOUS
 10
67.92368
 20
-82.878465
 40
0.301025
  0
LINE
  8
ボルト／ビス
  6
CONTINUOUS
 62
    64
 10
68.168392
 20
-82.93051
 11
68.091107
 21
-82.69256
  0
LINE
  8
ボルト／ビス
  6
CONTINUOUS
 62
    64
 10
67.846395
 20
-82.640515
 11
68.091107
 21
-82.69256
  0
LINE
  8
ボルト／ビス
  6
CONTINUOUS
 62
    64
 10
68.000965
 20
-83.116415
 11
67.756252
 21
-83.06437
  0
LINE
  8
ボルト／ビス
  6
CONTINUOUS
 62
    64
 10
67.678967
 20
-82.82642
 11
67.756252
 21
-83.06437
  0
LINE
  8
ボルト／ビス
  6
CONTINUOUS
 62
    64
 10
68.168392
 20
-82.93051
 11
68.000965
 21
-83.116415
  0
LINE
  8
ボルト／ビス
  6
CONTINUOUS
 62
    64
 10
67.846395
 20
-82.640515
 11
67.678967
 21
-82.82642
  0
CIRCLE
  8
ボルト／ビス
  6
CONTINUOUS
 62
    64
 10
67.92368
 20
-82.878465
 40
0.216668
  0
CIRCLE
  8
ボルト／ビス
  6
CONTINUOUS
 10
57.208577
 20
-73.228442
 40
0.250185
  0
CIRCLE
  8
ボルト／ビス
  6
CONTINUOUS
 10
57.208577
 20
-73.228442
 40
0.301025
  0
LINE
  8
ボルト／ビス
  6
CONTINUOUS
 62
    64
 10
57.453292
 20
-73.280485
 11
57.376005
 21
-73.042535
  0
LINE
  8
ボルト／ビス
  6
CONTINUOUS
 62
    64
 10
57.131293
 20
-72.990492
 11
57.376005
 21
-73.042535
  0
LINE
  8
ボルト／ビス
  6
CONTINUOUS
 62
    64
 10
57.285865
 20
-73.46639
 11
57.041152
 21
-73.414345
  0
LINE
  8
ボルト／ビス
  6
CONTINUOUS
 62
    64
 10
56.963865
 20
-73.176397
 11
57.041152
 21
-73.414345
  0
LINE
  8
ボルト／ビス
  6
CONTINUOUS
 62
    64
 10
57.453292
 20
-73.280485
 11
57.285865
 21
-73.46639
  0
LINE
  8
ボルト／ビス
  6
CONTINUOUS
 62
    64
 10
57.131293
 20
-72.990492
 11
56.963865
 21
-73.176397
  0
CIRCLE
  8
ボルト／ビス
  6
CONTINUOUS
 62
    64
 10
57.208577
 20
-73.228442
 40
0.216668
  0
CIRCLE
  8
ボルト／ビス
  6
CONTINUOUS
 10
46.493477
 20
-63.578415
 40
0.250185
  0
CIRCLE
  8
ボルト／ビス
  6
CONTINUOUS
 10
46.493477
 20
-63.578415
 40
0.301025
  0
LINE
  8
ボルト／ビス
  6
CONTINUOUS
 62
    64
 10
46.41619
 20
-63.340465
 11
46.660902
 21
-63.39251
  0
LINE
  8
ボルト／ビス
  6
CONTINUOUS
 62
    64
 10
46.738187
 20
-63.63046
 11
46.660902
 21
-63.39251
  0
LINE
  8
ボルト／ビス
  6
CONTINUOUS
 62
    64
 10
46.248762
 20
-63.52637
 11
46.32605
 21
-63.76432
  0
LINE
  8
ボルト／ビス
  6
CONTINUOUS
 62
    64
 10
46.570762
 20
-63.816365
 11
46.32605
 21
-63.76432
  0
LINE
  8
ボルト／ビス
  6
CONTINUOUS
 62
    64
 10
46.41619
 20
-63.340465
 11
46.248762
 21
-63.52637
  0
LINE
  8
ボルト／ビス
  6
CONTINUOUS
 62
    64
 10
46.738187
 20
-63.63046
 11
46.570762
 21
-63.816365
  0
CIRCLE
  8
ボルト／ビス
  6
CONTINUOUS
 62
    64
 10
46.493477
 20
-63.578415
 40
0.216668
  0
ENDBLK
  0
BLOCK
  2
*GRP_0026
 70
    65
 10
0.0
 20
0.0
  0
LINE
  8
補助線
  6
BYBLOCK
 62
    64
 10
46.555398
 20
-82.822697
 11
46.431552
 21
-82.934232
  0
LINE
  8
補助線
  6
BYBLOCK
 62
    64
 10
46.437705
 20
-82.81654
 11
46.549243
 21
-82.940388
  0
LINE
  8
補助線
  6
BYBLOCK
 62
    64
 10
57.2705
 20
-73.172673
 11
57.146655
 21
-73.284207
  0
LINE
  8
補助線
  6
BYBLOCK
 62
    64
 10
57.15281
 20
-73.166515
 11
57.264345
 21
-73.290362
  0
LINE
  8
補助線
  6
BYBLOCK
 62
    64
 10
67.861758
 20
-63.634183
 11
67.9856
 21
-63.522648
  0
LINE
  8
補助線
  6
BYBLOCK
 62
    64
 10
67.86791
 20
-63.51649
 11
67.979448
 21
-63.640337
  0
LINE
  8
型材断面
  6
CONTINUOUS
 10
45.688107
 20
-82.48231
 11
45.65118
 21
-83.18845
  0
LINE
  8
型材断面
  6
CONTINUOUS
 10
45.65118
 20
-83.18845
 11
46.09732
 21
-83.683832
  0
LINE
  8
型材断面
  6
CONTINUOUS
 10
46.09732
 20
-83.683832
 11
46.803463
 21
-83.720763
  0
LINE
  8
型材断面
  6
CONTINUOUS
 10
67.613695
 20
-62.73612
 11
68.319835
 21
-62.77305
  0
LINE
  8
型材断面
  6
CONTINUOUS
 10
68.319835
 20
-62.77305
 11
68.765978
 21
-63.26843
  0
LINE
  8
型材断面
  6
CONTINUOUS
 10
68.765978
 20
-63.26843
 11
68.729047
 21
-63.974575
  0
LINE
  8
型材断面
  6
CONTINUOUS
 10
46.803463
 20
-83.720763
 11
68.729047
 21
-63.974575
  0
LINE
  8
型材断面
  6
CONTINUOUS
 10
45.688107
 20
-82.48231
 11
67.613695
 21
-62.73612
  0
CIRCLE
  8
ボルト／ビス
  6
CONTINUOUS
 10
46.493475
 20
-82.878465
 40
0.250185
  0
CIRCLE
  8
ボルト／ビス
  6
CONTINUOUS
 10
46.493475
 20
-82.878465
 40
0.301025
  0
LINE
  8
ボルト／ビス
  6
CONTINUOUS
 62
    64
 10
46.248762
 20
-82.93051
 11
46.326047
 21
-82.69256
  0
LINE
  8
ボルト／ビス
  6
CONTINUOUS
 62
    64
 10
46.57076
 20
-82.640515
 11
46.326047
 21
-82.69256
  0
LINE
  8
ボルト／ビス
  6
CONTINUOUS
 62
    64
 10
46.41619
 20
-83.116415
 11
46.660902
 21
-83.06437
  0
LINE
  8
ボルト／ビス
  6
CONTINUOUS
 62
    64
 10
46.738187
 20
-82.82642
 11
46.660902
 21
-83.06437
  0
LINE
  8
ボルト／ビス
  6
CONTINUOUS
 62
    64
 10
46.248762
 20
-82.93051
 11
46.41619
 21
-83.116415
  0
LINE
  8
ボルト／ビス
  6
CONTINUOUS
 62
    64
 10
46.57076
 20
-82.640515
 11
46.738187
 21
-82.82642
  0
CIRCLE
  8
ボルト／ビス
  6
CONTINUOUS
 62
    64
 10
46.493475
 20
-82.878465
 40
0.216668
  0
CIRCLE
  8
ボルト／ビス
  6
CONTINUOUS
 10
57.208577
 20
-73.228442
 40
0.250185
  0
CIRCLE
  8
ボルト／ビス
  6
CONTINUOUS
 10
57.208577
 20
-73.228442
 40
0.301025
  0
LINE
  8
ボルト／ビス
  6
CONTINUOUS
 62
    64
 10
56.963862
 20
-73.280485
 11
57.04115
 21
-73.042535
  0
LINE
  8
ボルト／ビス
  6
CONTINUOUS
 62
    64
 10
57.285863
 20
-72.990492
 11
57.04115
 21
-73.042535
  0
LINE
  8
ボルト／ビス
  6
CONTINUOUS
 62
    64
 10
57.13129
 20
-73.46639
 11
57.376002
 21
-73.414345
  0
LINE
  8
ボルト／ビス
  6
CONTINUOUS
 62
    64
 10
57.45329
 20
-73.176397
 11
57.376002
 21
-73.414345
  0
LINE
  8
ボルト／ビス
  6
CONTINUOUS
 62
    64
 10
56.963862
 20
-73.280485
 11
57.13129
 21
-73.46639
  0
LINE
  8
ボルト／ビス
  6
CONTINUOUS
 62
    64
 10
57.285863
 20
-72.990492
 11
57.45329
 21
-73.176397
  0
CIRCLE
  8
ボルト／ビス
  6
CONTINUOUS
 62
    64
 10
57.208577
 20
-73.228442
 40
0.216668
  0
CIRCLE
  8
ボルト／ビス
  6
CONTINUOUS
 10
67.923677
 20
-63.578415
 40
0.250185
  0
CIRCLE
  8
ボルト／ビス
  6
CONTINUOUS
 10
67.923677
 20
-63.578415
 40
0.301025
  0
LINE
  8
ボルト／ビス
  6
CONTINUOUS
 62
    64
 10
68.000965
 20
-63.340465
 11
67.756252
 21
-63.39251
  0
LINE
  8
ボルト／ビス
  6
CONTINUOUS
 62
    64
 10
67.678967
 20
-63.63046
 11
67.756252
 21
-63.39251
  0
LINE
  8
ボルト／ビス
  6
CONTINUOUS
 62
    64
 10
68.168392
 20
-63.52637
 11
68.091105
 21
-63.76432
  0
LINE
  8
ボルト／ビス
  6
CONTINUOUS
 62
    64
 10
67.846393
 20
-63.816365
 11
68.091105
 21
-63.76432
  0
LINE
  8
ボルト／ビス
  6
CONTINUOUS
 62
    64
 10
68.000965
 20
-63.340465
 11
68.168392
 21
-63.52637
  0
LINE
  8
ボルト／ビス
  6
CONTINUOUS
 62
    64
 10
67.678967
 20
-63.63046
 11
67.846393
 21
-63.816365
  0
CIRCLE
  8
ボルト／ビス
  6
CONTINUOUS
 62
    64
 10
67.923677
 20
-63.578415
 40
0.216668
  0
ENDBLK
  0
BLOCK
  2
*GRP_0027
 70
    65
 10
0.0
 20
0.0
  0
LINE
  8
補助線
  6
BYBLOCK
 62
    64
 10
-18.089808
 20
-82.822697
 11
-17.965963
 21
-82.934232
  0
LINE
  8
補助線
  6
BYBLOCK
 62
    64
 10
-17.972115
 20
-82.81654
 11
-18.083652
 21
-82.940388
  0
LINE
  8
補助線
  6
BYBLOCK
 62
    64
 10
-28.80491
 20
-73.172673
 11
-28.681065
 21
-73.284207
  0
LINE
  8
補助線
  6
BYBLOCK
 62
    64
 10
-28.68722
 20
-73.166515
 11
-28.798755
 21
-73.290362
  0
LINE
  8
補助線
  6
BYBLOCK
 62
    64
 10
-39.396167
 20
-63.634183
 11
-39.52001
 21
-63.522648
  0
LINE
  8
補助線
  6
BYBLOCK
 62
    64
 10
-39.40232
 20
-63.51649
 11
-39.513857
 21
-63.640337
  0
LINE
  8
型材断面
  6
CONTINUOUS
 10
-17.222517
 20
-82.48231
 11
-17.18559
 21
-83.18845
  0
LINE
  8
型材断面
  6
CONTINUOUS
 10
-17.18559
 20
-83.18845
 11
-17.63173
 21
-83.683832
  0
LINE
  8
型材断面
  6
CONTINUOUS
 10
-17.63173
 20
-83.683832
 11
-18.337872
 21
-83.720763
  0
LINE
  8
型材断面
  6
CONTINUOUS
 10
-39.148105
 20
-62.73612
 11
-39.854245
 21
-62.77305
  0
LINE
  8
型材断面
  6
CONTINUOUS
 10
-39.854245
 20
-62.77305
 11
-40.300388
 21
-63.26843
  0
LINE
  8
型材断面
  6
CONTINUOUS
 10
-40.300388
 20
-63.26843
 11
-40.263458
 21
-63.974575
  0
LINE
  8
型材断面
  6
CONTINUOUS
 10
-18.337872
 20
-83.720763
 11
-40.263458
 21
-63.974575
  0
LINE
  8
型材断面
  6
CONTINUOUS
 10
-17.222517
 20
-82.48231
 11
-39.148105
 21
-62.73612
  0
CIRCLE
  8
ボルト／ビス
  6
CONTINUOUS
 10
-18.027885
 20
-82.878465
 40
0.250185
  0
CIRCLE
  8
ボルト／ビス
  6
CONTINUOUS
 10
-18.027885
 20
-82.878465
 40
0.301025
  0
LINE
  8
ボルト／ビス
  6
CONTINUOUS
 62
    64
 10
-17.783172
 20
-82.93051
 11
-17.860458
 21
-82.69256
  0
LINE
  8
ボルト／ビス
  6
CONTINUOUS
 62
    64
 10
-18.10517
 20
-82.640515
 11
-17.860458
 21
-82.69256
  0
LINE
  8
ボルト／ビス
  6
CONTINUOUS
 62
    64
 10
-17.9506
 20
-83.116415
 11
-18.195313
 21
-83.06437
  0
LINE
  8
ボルト／ビス
  6
CONTINUOUS
 62
    64
 10
-18.272598
 20
-82.82642
 11
-18.195313
 21
-83.06437
  0
LINE
  8
ボルト／ビス
  6
CONTINUOUS
 62
    64
 10
-17.783172
 20
-82.93051
 11
-17.9506
 21
-83.116415
  0
LINE
  8
ボルト／ビス
  6
CONTINUOUS
 62
    64
 10
-18.10517
 20
-82.640515
 11
-18.272598
 21
-82.82642
  0
CIRCLE
  8
ボルト／ビス
  6
CONTINUOUS
 62
    64
 10
-18.027885
 20
-82.878465
 40
0.216668
  0
CIRCLE
  8
ボルト／ビス
  6
CONTINUOUS
 10
-28.742987
 20
-73.228442
 40
0.250185
  0
CIRCLE
  8
ボルト／ビス
  6
CONTINUOUS
 10
-28.742987
 20
-73.228442
 40
0.301025
  0
LINE
  8
ボルト／ビス
  6
CONTINUOUS
 62
    64
 10
-28.498272
 20
-73.280485
 11
-28.57556
 21
-73.042535
  0
LINE
  8
ボルト／ビス
  6
CONTINUOUS
 62
    64
 10
-28.820273
 20
-72.990492
 11
-28.57556
 21
-73.042535
  0
LINE
  8
ボルト／ビス
  6
CONTINUOUS
 62
    64
 10
-28.6657
 20
-73.46639
 11
-28.910412
 21
-73.414345
  0
LINE
  8
ボルト／ビス
  6
CONTINUOUS
 62
    64
 10
-28.9877
 20
-73.176397
 11
-28.910412
 21
-73.414345
  0
LINE
  8
ボルト／ビス
  6
CONTINUOUS
 62
    64
 10
-28.498272
 20
-73.280485
 11
-28.6657
 21
-73.46639
  0
LINE
  8
ボルト／ビス
  6
CONTINUOUS
 62
    64
 10
-28.820273
 20
-72.990492
 11
-28.9877
 21
-73.176397
  0
CIRCLE
  8
ボルト／ビス
  6
CONTINUOUS
 62
    64
 10
-28.742987
 20
-73.228442
 40
0.216668
  0
CIRCLE
  8
ボルト／ビス
  6
CONTINUOUS
 10
-39.458087
 20
-63.578415
 40
0.250185
  0
CIRCLE
  8
ボルト／ビス
  6
CONTINUOUS
 10
-39.458087
 20
-63.578415
 40
0.301025
  0
LINE
  8
ボルト／ビス
  6
CONTINUOUS
 62
    64
 10
-39.535375
 20
-63.340465
 11
-39.290662
 21
-63.39251
  0
LINE
  8
ボルト／ビス
  6
CONTINUOUS
 62
    64
 10
-39.213378
 20
-63.63046
 11
-39.290662
 21
-63.39251
  0
LINE
  8
ボルト／ビス
  6
CONTINUOUS
 62
    64
 10
-39.702802
 20
-63.52637
 11
-39.625515
 21
-63.76432
  0
LINE
  8
ボルト／ビス
  6
CONTINUOUS
 62
    64
 10
-39.380803
 20
-63.816365
 11
-39.625515
 21
-63.76432
  0
LINE
  8
ボルト／ビス
  6
CONTINUOUS
 62
    64
 10
-39.535375
 20
-63.340465
 11
-39.702802
 21
-63.52637
  0
LINE
  8
ボルト／ビス
  6
CONTINUOUS
 62
    64
 10
-39.213378
 20
-63.63046
 11
-39.380803
 21
-63.816365
  0
CIRCLE
  8
ボルト／ビス
  6
CONTINUOUS
 62
    64
 10
-39.458087
 20
-63.578415
 40
0.216668
  0
ENDBLK
  0
BLOCK
  2
*GRP_0028
 70
    65
 10
0.0
 20
0.0
  0
LINE
  8
補助線
  6
BYBLOCK
 62
    64
 10
-39.396167
 20
-82.822697
 11
-39.520013
 21
-82.934232
  0
LINE
  8
補助線
  6
BYBLOCK
 62
    64
 10
-39.51386
 20
-82.81654
 11
-39.402322
 21
-82.940388
  0
LINE
  8
補助線
  6
BYBLOCK
 62
    64
 10
-28.681065
 20
-73.172673
 11
-28.80491
 21
-73.284207
  0
LINE
  8
補助線
  6
BYBLOCK
 62
    64
 10
-28.798755
 20
-73.166515
 11
-28.68722
 21
-73.290362
  0
LINE
  8
補助線
  6
BYBLOCK
 62
    64
 10
-18.089808
 20
-63.634183
 11
-17.965965
 21
-63.522648
  0
LINE
  8
補助線
  6
BYBLOCK
 62
    64
 10
-18.083655
 20
-63.51649
 11
-17.972117
 21
-63.640337
  0
LINE
  8
型材断面
  6
CONTINUOUS
 10
-40.263458
 20
-82.48231
 11
-40.300385
 21
-83.18845
  0
LINE
  8
型材断面
  6
CONTINUOUS
 10
-40.300385
 20
-83.18845
 11
-39.854245
 21
-83.683832
  0
LINE
  8
型材断面
  6
CONTINUOUS
 10
-39.854245
 20
-83.683832
 11
-39.148103
 21
-83.720763
  0
LINE
  8
型材断面
  6
CONTINUOUS
 10
-18.33787
 20
-62.73612
 11
-17.63173
 21
-62.77305
  0
LINE
  8
型材断面
  6
CONTINUOUS
 10
-17.63173
 20
-62.77305
 11
-17.185588
 21
-63.26843
  0
LINE
  8
型材断面
  6
CONTINUOUS
 10
-17.185588
 20
-63.26843
 11
-17.222517
 21
-63.974575
  0
LINE
  8
型材断面
  6
CONTINUOUS
 10
-39.148103
 20
-83.720763
 11
-17.222517
 21
-63.974575
  0
LINE
  8
型材断面
  6
CONTINUOUS
 10
-40.263458
 20
-82.48231
 11
-18.33787
 21
-62.73612
  0
CIRCLE
  8
ボルト／ビス
  6
CONTINUOUS
 10
-39.45809
 20
-82.878465
 40
0.250185
  0
CIRCLE
  8
ボルト／ビス
  6
CONTINUOUS
 10
-39.45809
 20
-82.878465
 40
0.301025
  0
LINE
  8
ボルト／ビス
  6
CONTINUOUS
 62
    64
 10
-39.702802
 20
-82.93051
 11
-39.625518
 21
-82.69256
  0
LINE
  8
ボルト／ビス
  6
CONTINUOUS
 62
    64
 10
-39.380805
 20
-82.640515
 11
-39.625518
 21
-82.69256
  0
LINE
  8
ボルト／ビス
  6
CONTINUOUS
 62
    64
 10
-39.535375
 20
-83.116415
 11
-39.290662
 21
-83.06437
  0
LINE
  8
ボルト／ビス
  6
CONTINUOUS
 62
    64
 10
-39.213378
 20
-82.82642
 11
-39.290662
 21
-83.06437
  0
LINE
  8
ボルト／ビス
  6
CONTINUOUS
 62
    64
 10
-39.702802
 20
-82.93051
 11
-39.535375
 21
-83.116415
  0
LINE
  8
ボルト／ビス
  6
CONTINUOUS
 62
    64
 10
-39.380805
 20
-82.640515
 11
-39.213378
 21
-82.82642
  0
CIRCLE
  8
ボルト／ビス
  6
CONTINUOUS
 62
    64
 10
-39.45809
 20
-82.878465
 40
0.216668
  0
CIRCLE
  8
ボルト／ビス
  6
CONTINUOUS
 10
-28.742987
 20
-73.228442
 40
0.250185
  0
CIRCLE
  8
ボルト／ビス
  6
CONTINUOUS
 10
-28.742987
 20
-73.228442
 40
0.301025
  0
LINE
  8
ボルト／ビス
  6
CONTINUOUS
 62
    64
 10
-28.987702
 20
-73.280485
 11
-28.910415
 21
-73.042535
  0
LINE
  8
ボルト／ビス
  6
CONTINUOUS
 62
    64
 10
-28.665703
 20
-72.990492
 11
-28.910415
 21
-73.042535
  0
LINE
  8
ボルト／ビス
  6
CONTINUOUS
 62
    64
 10
-28.820275
 20
-73.46639
 11
-28.575562
 21
-73.414345
  0
LINE
  8
ボルト／ビス
  6
CONTINUOUS
 62
    64
 10
-28.498275
 20
-73.176397
 11
-28.575562
 21
-73.414345
  0
LINE
  8
ボルト／ビス
  6
CONTINUOUS
 62
    64
 10
-28.987702
 20
-73.280485
 11
-28.820275
 21
-73.46639
  0
LINE
  8
ボルト／ビス
  6
CONTINUOUS
 62
    64
 10
-28.665703
 20
-72.990492
 11
-28.498275
 21
-73.176397
  0
CIRCLE
  8
ボルト／ビス
  6
CONTINUOUS
 62
    64
 10
-28.742987
 20
-73.228442
 40
0.216668
  0
CIRCLE
  8
ボルト／ビス
  6
CONTINUOUS
 10
-18.027887
 20
-63.578415
 40
0.250185
  0
CIRCLE
  8
ボルト／ビス
  6
CONTINUOUS
 10
-18.027887
 20
-63.578415
 40
0.301025
  0
LINE
  8
ボルト／ビス
  6
CONTINUOUS
 62
    64
 10
-17.9506
 20
-63.340465
 11
-18.195313
 21
-63.39251
  0
LINE
  8
ボルト／ビス
  6
CONTINUOUS
 62
    64
 10
-18.272598
 20
-63.63046
 11
-18.195313
 21
-63.39251
  0
LINE
  8
ボルト／ビス
  6
CONTINUOUS
 62
    64
 10
-17.783172
 20
-63.52637
 11
-17.86046
 21
-63.76432
  0
LINE
  8
ボルト／ビス
  6
CONTINUOUS
 62
    64
 10
-18.105173
 20
-63.816365
 11
-17.86046
 21
-63.76432
  0
LINE
  8
ボルト／ビス
  6
CONTINUOUS
 62
    64
 10
-17.9506
 20
-63.340465
 11
-17.783172
 21
-63.52637
  0
LINE
  8
ボルト／ビス
  6
CONTINUOUS
 62
    64
 10
-18.272598
 20
-63.63046
 11
-18.105173
 21
-63.816365
  0
CIRCLE
  8
ボルト／ビス
  6
CONTINUOUS
 62
    64
 10
-18.027887
 20
-63.578415
 40
0.216668
  0
ENDBLK
  0
BLOCK
  2
*DIM_0029
 70
    65
 10
0.0
 20
0.0
  0
LINE
  8
寸法
  6
CONTINUOUS
 10
84.492252
 20
-77.301747
 11
84.492252
 21
-84.951797
  0
POINT
  8
寸法
 10
84.492252
 20
-77.301747
  0
POINT
  8
寸法
 10
84.492252
 20
-84.951797
  0
TEXT
  7
TextStyle03
  8
寸法
  6
CONTINUOUS
 10
88.7
 20
-85.325
  1
229.5
 40
3.0
 50
90.0
 72
     5
 11
88.7
 21
-77.075
  0
ENDBLK
  0
BLOCK
  2
*DIM_0030
 70
    65
 10
0.0
 20
0.0
  0
LINE
  8
寸法
  6
CONTINUOUS
 10
166.343563
 20
-40.788363
 11
134.093563
 21
-40.788363
  0
POINT
  8
寸法
 10
166.343563
 20
-40.788363
  0
POINT
  8
寸法
 10
134.093563
 20
-40.788363
  0
TEXT
  7
TextStyle03
  8
寸法
  6
CONTINUOUS
 10
146.075
 20
-40.475
  1
967.5
 40
3.0
 72
     5
 11
154.325
 21
-40.475
  0
ENDBLK
  0
BLOCK
  2
*DIM_0031
 70
    65
 10
0.0
 20
0.0
  0
LINE
  8
寸法
  6
BYBLOCK
 62
     0
 10
84.492252
 20
-77.301747
 11
84.492252
 21
-60.63508
  0
POINT
  8
寸法
 62
     0
 10
84.492252
 20
-77.301747
  0
POINT
  8
寸法
 62
     0
 10
84.492252
 20
-60.63508
  0
TEXT
  7
TextStyle03
  8
寸法
  6
CONTINUOUS
 62
     0
 10
83.75
 20
-58.49375
  1
上昇473以上
 40
3.0
 50
90.0
 72
     5
 11
83.75
 21
-40.30625
  0
ENDBLK
  0
ENDSEC
  0
SECTION
  2
ENTITIES
  0
POLYLINE
  8
通り芯
  6
CONTINUOUS
 66
     1
 70
     1
  0
VERTEX
  8
通り芯
 10
-210.0
 20
-148.5
  0
VERTEX
  8
通り芯
 10
210.0
 20
-148.5
  0
VERTEX
  8
通り芯
 10
210.0
 20
148.5
  0
VERTEX
  8
通り芯
 10
-210.0
 20
148.5
  0
SEQEND
  0
INSERT
  2
*GRP_0001
  8
型材断面
  6
CONTINUOUS
 10
0.0
 20
0.0
  0
LINE
  8
型材断面
  6
DASHDOT
 10
-128.742993
 20
13.399048
 11
168.93377
 21
13.399048
  0
LINE
  8
型材断面
  6
DASHDOT
 10
-128.742993
 20
56.73238
 11
168.93377
 21
56.73238
  0
LINE
  8
型材断面
  6
DASHDOT
 10
-128.742993
 20
35.065715
 11
168.93377
 21
35.065715
  0
POLYLINE
  8
型材断面
  6
CONTINUOUS
 66
     1
 70
     1
  0
VERTEX
  8
型材断面
 10
-19.342983
 20
66.508305
  0
VERTEX
  8
型材断面
 10
-38.114912
 20
66.508305
  0
VERTEX
  8
型材断面
 10
-38.114912
 20
71.245147
  0
VERTEX
  8
型材断面
 10
-19.342983
 20
71.245147
  0
SEQEND
  0
LINE
  8
型材断面
  6
DASHDOT
 10
-128.742993
 20
-87.251428
 11
-128.742993
 21
56.73238
  0
LINE
  8
型材断面
  6
DASHDOT
 10
-28.742993
 20
-87.251428
 11
-28.742993
 21
56.73238
  0
LINE
  8
型材断面
  6
DASHDOT
 10
71.257007
 20
-87.251428
 11
71.257007
 21
56.73238
  0
POLYLINE
  8
型材断面
  6
CONTINUOUS
 66
     1
 70
     1
  0
VERTEX
  8
型材断面
 10
-19.342983
 20
3.623125
  0
VERTEX
  8
型材断面
 10
-38.114912
 20
3.623125
  0
VERTEX
  8
型材断面
 10
-38.114912
 20
-1.113717
  0
VERTEX
  8
型材断面
 10
-19.342983
 20
-1.113717
  0
SEQEND
  0
LINE
  8
型材断面
  6
CONTINUOUS
 10
-131.373123
 20
35.065715
 11
-133.96363
 21
36.561345
  0
LINE
  8
型材断面
  6
CONTINUOUS
 10
-131.373123
 20
35.065715
 11
-133.96363
 21
33.570085
  0
LINE
  8
型材断面
  6
CONTINUOUS
 10
-133.96363
 20
33.570085
 11
-133.96363
 21
36.561345
  0
LINE
  8
型材断面
  6
CONTINUOUS
 10
-112.076325
 20
59.36251
 11
-113.571955
 21
61.953017
  0
LINE
  8
型材断面
  6
CONTINUOUS
 10
-112.076325
 20
59.36251
 11
-110.580695
 21
61.953017
  0
LINE
  8
型材断面
  6
CONTINUOUS
 10
-110.580695
 20
61.953017
 11
-113.571955
 21
61.953017
  0
LINE
  8
型材断面
  6
CONTINUOUS
 10
-28.742993
 20
59.36251
 11
-30.238623
 21
61.953017
  0
LINE
  8
型材断面
  6
CONTINUOUS
 10
-28.742993
 20
59.36251
 11
-27.247362
 21
61.953017
  0
LINE
  8
型材断面
  6
CONTINUOUS
 10
-27.247362
 20
61.953017
 11
-30.238623
 21
61.953017
  0
LINE
  8
型材断面
  6
CONTINUOUS
 10
54.59034
 20
59.36251
 11
53.09471
 21
61.953017
  0
LINE
  8
型材断面
  6
CONTINUOUS
 10
54.59034
 20
59.36251
 11
56.08597
 21
61.953017
  0
LINE
  8
型材断面
  6
CONTINUOUS
 10
56.08597
 20
61.953017
 11
53.09471
 21
61.953017
  0
LINE
  8
型材断面
  6
CONTINUOUS
 10
-169.5952
 20
94.709852
 11
-168.999145
 21
92.119345
  0
LINE
  8
型材断面
  6
CONTINUOUS
 10
-169.5952
 20
94.709852
 11
-170.191258
 21
92.119345
  0
LINE
  8
型材断面
  6
CONTINUOUS
 10
-170.191258
 20
92.119345
 11
-168.999145
 21
92.119345
  0
LINE
  8
型材断面
  6
CONTINUOUS
 10
-175.617788
 20
88.840452
 11
-129.37601
 21
88.840452
  0
LINE
  8
型材断面
  6
CONTINUOUS
 10
-169.5952
 20
101.239727
 11
-171.09083
 21
98.64922
  0
LINE
  8
型材断面
  6
CONTINUOUS
 10
-169.5952
 20
101.239727
 11
-168.09957
 21
98.64922
  0
LINE
  8
型材断面
  6
CONTINUOUS
 10
-168.09957
 20
98.64922
 11
-171.09083
 21
98.64922
  0
LINE
  8
型材断面
  6
CONTINUOUS
 10
-175.617788
 20
97.710625
 11
-129.37601
 21
97.710625
  0
LINE
  8
型材断面
  6
CONTINUOUS
 10
-175.617788
 20
83.05242
 11
-129.37601
 21
83.05242
  0
LINE
  8
型材断面
  6
CONTINUOUS
 10
-112.076325
 20
10.76892
 11
-113.571955
 21
8.178413
  0
LINE
  8
型材断面
  6
CONTINUOUS
 10
-112.076325
 20
10.76892
 11
-110.580695
 21
8.178413
  0
LINE
  8
型材断面
  6
CONTINUOUS
 10
-110.580695
 20
8.178413
 11
-113.571955
 21
8.178413
  0
LINE
  8
型材断面
  6
CONTINUOUS
 10
-28.742993
 20
10.76892
 11
-30.238623
 21
8.178413
  0
LINE
  8
型材断面
  6
CONTINUOUS
 10
-28.742993
 20
10.76892
 11
-27.247362
 21
8.178413
  0
LINE
  8
型材断面
  6
CONTINUOUS
 10
-27.247362
 20
8.178413
 11
-30.238623
 21
8.178413
  0
LINE
  8
型材断面
  6
CONTINUOUS
 10
54.59034
 20
10.76892
 11
53.09471
 21
8.178413
  0
LINE
  8
型材断面
  6
CONTINUOUS
 10
54.59034
 20
10.76892
 11
56.08597
 21
8.178413
  0
LINE
  8
型材断面
  6
CONTINUOUS
 10
56.08597
 20
8.178413
 11
53.09471
 21
8.178413
  0
LINE
  8
型材断面
  6
CONTINUOUS
 10
73.887138
 20
35.065715
 11
76.477645
 21
36.561345
  0
LINE
  8
型材断面
  6
CONTINUOUS
 10
73.887138
 20
35.065715
 11
76.477645
 21
33.570085
  0
LINE
  8
型材断面
  6
CONTINUOUS
 10
76.477645
 20
33.570085
 11
76.477645
 21
36.561345
  0
LINE
  8
型材断面
  6
CONTINUOUS
 10
73.887138
 20
53.032382
 11
76.477648
 21
52.43633
  0
LINE
  8
型材断面
  6
CONTINUOUS
 10
73.887138
 20
53.032382
 11
76.477645
 21
53.628442
  0
LINE
  8
型材断面
  6
CONTINUOUS
 10
76.477645
 20
53.628442
 11
76.477648
 21
52.43633
  0
LINE
  8
型材断面
  6
CONTINUOUS
 10
73.887138
 20
17.099048
 11
76.477648
 21
17.6951
  0
LINE
  8
型材断面
  6
CONTINUOUS
 10
73.887138
 20
17.099048
 11
76.477645
 21
16.502988
  0
LINE
  8
型材断面
  6
CONTINUOUS
 10
76.477645
 20
16.502988
 11
76.477648
 21
17.6951
  0
LINE
  8
型材断面
  6
CONTINUOUS
 10
-131.373123
 20
53.032382
 11
-133.963633
 21
52.43633
  0
LINE
  8
型材断面
  6
CONTINUOUS
 10
-131.373123
 20
53.032382
 11
-133.96363
 21
53.628442
  0
LINE
  8
型材断面
  6
CONTINUOUS
 10
-133.96363
 20
53.628442
 11
-133.963633
 21
52.43633
  0
LINE
  8
型材断面
  6
CONTINUOUS
 10
-131.373123
 20
17.099048
 11
-133.963633
 21
17.6951
  0
LINE
  8
型材断面
  6
CONTINUOUS
 10
-131.373123
 20
17.099048
 11
-133.96363
 21
16.502988
  0
LINE
  8
型材断面
  6
CONTINUOUS
 10
-133.96363
 20
16.502988
 11
-133.963633
 21
17.6951
  0
LINE
  8
型材断面
  6
CONTINUOUS
 10
-130.726178
 20
11.41587
 11
-28.742993
 21
11.41587
  0
LINE
  8
型材断面
  6
CONTINUOUS
 10
73.240193
 20
11.41587
 11
73.240193
 21
35.065715
  0
LINE
  8
型材断面
  6
CONTINUOUS
 10
73.240193
 20
11.41587
 11
-28.742993
 21
11.41587
  0
LINE
  8
型材断面
  6
CONTINUOUS
 10
73.240193
 20
58.71556
 11
73.240193
 21
35.065715
  0
LINE
  8
型材断面
  6
CONTINUOUS
 10
73.240193
 20
58.71556
 11
-28.742993
 21
58.71556
  0
LINE
  8
型材断面
  6
CONTINUOUS
 10
-130.726178
 20
58.71556
 11
-28.742993
 21
58.71556
  0
LINE
  8
型材断面
  6
CONTINUOUS
 10
-175.617788
 20
77.264387
 11
-129.37601
 21
77.264387
  0
ARC
  8
型材断面
  6
CONTINUOUS
 62
    47
 10
164.100299
 20
11.415711
 40
0.016668
 50
179.999123
 51
270.0
  0
ARC
  8
型材断面
  6
CONTINUOUS
 62
    47
 10
164.140301
 20
11.409045
 40
0.010002
 50
270.0
 51
359.791626
  0
LINE
  8
型材断面
  6
CONTINUOUS
 62
    47
 10
164.317017
 20
11.449048
 11
164.317017
 21
12.299195
  0
LINE
  8
型材断面
  6
CONTINUOUS
 62
    47
 10
164.083627
 20
11.41571
 11
161.976967
 21
11.41571
  0
LINE
  8
型材断面
  6
CONTINUOUS
 62
    47
 10
164.317017
 20
11.415715
 11
167.633683
 21
11.415715
  0
LINE
  8
型材断面
  6
CONTINUOUS
 62
    47
 10
168.133683
 20
11.915715
 11
167.633683
 21
11.915715
  0
LINE
  8
型材断面
  6
CONTINUOUS
 62
    47
 10
161.976967
 20
12.29905
 11
161.6503
 21
12.29905
  0
LINE
  8
型材断面
  6
CONTINUOUS
 62
    47
 10
164.100295
 20
11.399048
 11
164.139955
 21
11.399048
  0
ARC
  8
型材断面
  6
CONTINUOUS
 62
    47
 10
164.100299
 20
58.715717
 40
0.016668
 50
90.0
 51
180.000877
  0
ARC
  8
型材断面
  6
CONTINUOUS
 62
    47
 10
164.140301
 20
58.722383
 40
0.010002
 50
0.208374
 51
90.0
  0
LINE
  8
型材断面
  6
CONTINUOUS
 62
    47
 10
164.317017
 20
58.682378
 11
164.317017
 21
57.832232
  0
LINE
  8
型材断面
  6
CONTINUOUS
 62
    47
 10
164.083627
 20
58.715718
 11
161.976967
 21
58.715718
  0
LINE
  8
型材断面
  6
CONTINUOUS
 62
    47
 10
164.317017
 20
58.715712
 11
167.633683
 21
58.715712
  0
LINE
  8
型材断面
  6
CONTINUOUS
 62
    47
 10
168.133683
 20
58.215712
 11
167.633683
 21
58.215712
  0
LINE
  8
型材断面
  6
CONTINUOUS
 62
    47
 10
161.976967
 20
57.832378
 11
161.6503
 21
57.832378
  0
LINE
  8
型材断面
  6
CONTINUOUS
 62
    47
 10
164.100295
 20
58.732378
 11
164.139955
 21
58.732378
  0
LINE
  8
型材断面
  6
CONTINUOUS
 10
161.976967
 20
11.41571
 11
161.976967
 21
35.065712
  0
LINE
  8
型材断面
  6
CONTINUOUS
 10
161.6503
 20
11.999048
 11
161.6503
 21
35.065712
  0
LINE
  8
型材断面
  6
CONTINUOUS
 10
159.983633
 20
11.999048
 11
159.983633
 21
35.065712
  0
LINE
  8
型材断面
  6
CONTINUOUS
 10
160.1503
 20
11.842527
 11
160.1503
 21
35.065712
  0
LINE
  8
型材断面
  6
CONTINUOUS
 10
164.317017
 20
11.415715
 11
164.317017
 21
35.065712
  0
LINE
  8
型材断面
  6
CONTINUOUS
 10
164.1503
 20
11.409045
 11
164.1503
 21
35.065712
  0
LINE
  8
型材断面
  6
CONTINUOUS
 10
167.633683
 20
11.415715
 11
167.633683
 21
35.065712
  0
LINE
  8
型材断面
  6
CONTINUOUS
 10
168.133683
 20
11.915715
 11
168.133683
 21
35.065712
  0
LINE
  8
型材断面
  6
CONTINUOUS
 10
168.133683
 20
58.215712
 11
168.133683
 21
35.065712
  0
LINE
  8
型材断面
  6
CONTINUOUS
 10
167.633683
 20
58.715712
 11
167.633683
 21
35.065712
  0
LINE
  8
型材断面
  6
CONTINUOUS
 10
164.1503
 20
58.722382
 11
164.1503
 21
35.065712
  0
LINE
  8
型材断面
  6
CONTINUOUS
 10
164.317017
 20
58.715712
 11
164.317017
 21
35.065712
  0
LINE
  8
型材断面
  6
CONTINUOUS
 10
161.976967
 20
58.715718
 11
161.976967
 21
35.065712
  0
LINE
  8
型材断面
  6
CONTINUOUS
 10
161.6503
 20
58.132378
 11
161.6503
 21
35.065712
  0
LINE
  8
型材断面
  6
CONTINUOUS
 10
159.983633
 20
58.132378
 11
159.983633
 21
35.065712
  0
LINE
  8
型材断面
  6
CONTINUOUS
 10
160.1503
 20
58.2889
 11
160.1503
 21
35.065712
  0
ARC
  8
型材断面
  6
CONTINUOUS
 62
    47
 10
-130.726328
 20
-81.418411
 40
0.016668
 50
89.999123
 51
180.0
  0
ARC
  8
型材断面
  6
CONTINUOUS
 62
    47
 10
-130.732994
 20
-81.458413
 40
0.010002
 50
180.0
 51
269.791626
  0
LINE
  8
型材断面
  6
CONTINUOUS
 62
    47
 10
-130.69299
 20
-81.63513
 11
-129.842843
 21
-81.63513
  0
LINE
  8
型材断面
  6
CONTINUOUS
 62
    47
 10
-130.726328
 20
-81.401742
 11
-130.726328
 21
-79.295082
  0
LINE
  8
型材断面
  6
CONTINUOUS
 62
    47
 10
-130.726322
 20
-81.63513
 11
-130.726322
 21
-84.951797
  0
LINE
  8
型材断面
  6
CONTINUOUS
 62
    47
 10
-130.226322
 20
-85.451797
 11
-130.226322
 21
-84.951797
  0
LINE
  8
型材断面
  6
CONTINUOUS
 62
    47
 10
-129.842987
 20
-79.295082
 11
-129.842987
 21
-78.968415
  0
LINE
  8
型材断面
  6
CONTINUOUS
 62
    47
 10
-130.74299
 20
-81.41841
 11
-130.74299
 21
-81.45807
  0
ARC
  8
型材断面
  6
CONTINUOUS
 62
    47
 10
73.240345
 20
-81.418411
 40
0.016668
 50
0.0
 51
90.000877
  0
ARC
  8
型材断面
  6
CONTINUOUS
 62
    47
 10
73.247011
 20
-81.458413
 40
0.010002
 50
270.208374
 51
360.0
  0
LINE
  8
型材断面
  6
CONTINUOUS
 62
    47
 10
73.207007
 20
-81.63513
 11
72.35686
 21
-81.63513
  0
LINE
  8
型材断面
  6
CONTINUOUS
 62
    47
 10
73.240345
 20
-81.401742
 11
73.240345
 21
-79.295082
  0
LINE
  8
型材断面
  6
CONTINUOUS
 62
    47
 10
73.24034
 20
-81.63513
 11
73.24034
 21
-84.951797
  0
LINE
  8
型材断面
  6
CONTINUOUS
 62
    47
 10
72.74034
 20
-85.451797
 11
72.74034
 21
-84.951797
  0
LINE
  8
型材断面
  6
CONTINUOUS
 62
    47
 10
72.357005
 20
-79.295082
 11
72.357005
 21
-78.968415
  0
LINE
  8
型材断面
  6
CONTINUOUS
 62
    47
 10
73.257007
 20
-81.41841
 11
73.257007
 21
-81.45807
  0
LINE
  8
型材断面
  6
CONTINUOUS
 10
-130.14299
 20
-77.301747
 11
-28.742993
 21
-77.301747
  0
LINE
  8
型材断面
  6
CONTINUOUS
 10
-130.299513
 20
-77.468415
 11
-28.742993
 21
-77.468415
  0
LINE
  8
型材断面
  6
CONTINUOUS
 10
-130.14299
 20
-78.968415
 11
-28.742993
 21
-78.968415
  0
LINE
  8
型材断面
  6
CONTINUOUS
 10
-130.726328
 20
-79.295082
 11
-28.742993
 21
-79.295082
  0
LINE
  8
型材断面
  6
CONTINUOUS
 10
-130.732992
 20
-81.468415
 11
-28.742993
 21
-81.468415
  0
LINE
  8
型材断面
  6
CONTINUOUS
 10
-130.726322
 20
-81.63513
 11
-28.742993
 21
-81.63513
  0
LINE
  8
型材断面
  6
CONTINUOUS
 10
-130.226322
 20
-85.451797
 11
-28.742993
 21
-85.451797
  0
LINE
  8
型材断面
  6
CONTINUOUS
 10
-130.726322
 20
-84.951797
 11
-28.742993
 21
-84.951797
  0
LINE
  8
型材断面
  6
CONTINUOUS
 10
73.24034
 20
-84.951797
 11
-28.742993
 21
-84.951797
  0
LINE
  8
型材断面
  6
CONTINUOUS
 10
72.74034
 20
-85.451797
 11
-28.742993
 21
-85.451797
  0
LINE
  8
型材断面
  6
CONTINUOUS
 10
73.24034
 20
-81.63513
 11
-28.742993
 21
-81.63513
  0
LINE
  8
型材断面
  6
CONTINUOUS
 10
73.24701
 20
-81.468415
 11
-28.742993
 21
-81.468415
  0
LINE
  8
型材断面
  6
CONTINUOUS
 10
72.657007
 20
-77.301747
 11
-28.742993
 21
-77.301747
  0
LINE
  8
型材断面
  6
CONTINUOUS
 10
72.813528
 20
-77.468415
 11
-28.742993
 21
-77.468415
  0
LINE
  8
型材断面
  6
CONTINUOUS
 10
72.657007
 20
-78.968415
 11
-28.742993
 21
-78.968415
  0
LINE
  8
型材断面
  6
CONTINUOUS
 10
73.240345
 20
-79.295082
 11
-28.742993
 21
-79.295082
  0
ARC
  8
型材断面
  6
DOT
 62
    47
 10
-130.726328
 20
-64.751745
 40
0.016668
 50
89.999123
 51
180.0
  0
ARC
  8
型材断面
  6
DOT
 62
    47
 10
-130.732994
 20
-64.791746
 40
0.010002
 50
180.0
 51
269.791626
  0
LINE
  8
型材断面
  6
DOT
 62
    47
 10
-130.726328
 20
-64.735075
 11
-130.726328
 21
-62.628415
  0
LINE
  8
型材断面
  6
DOT
 62
    47
 10
-129.842987
 20
-62.628415
 11
-129.842987
 21
-62.301747
  0
LINE
  8
型材断面
  6
DOT
 62
    47
 10
-130.74299
 20
-64.751743
 11
-130.74299
 21
-64.791403
  0
ARC
  8
型材断面
  6
DOT
 62
    47
 10
73.240345
 20
-64.751745
 40
0.016668
 50
0.0
 51
90.000877
  0
ARC
  8
型材断面
  6
DOT
 62
    47
 10
73.247011
 20
-64.791746
 40
0.010002
 50
270.208374
 51
360.0
  0
LINE
  8
型材断面
  6
DOT
 62
    47
 10
73.240345
 20
-64.735075
 11
73.240345
 21
-62.628415
  0
LINE
  8
型材断面
  6
DOT
 62
    47
 10
72.357005
 20
-62.628415
 11
72.357005
 21
-62.301747
  0
LINE
  8
型材断面
  6
DOT
 62
    47
 10
73.257007
 20
-64.751743
 11
73.257007
 21
-64.791403
  0
LINE
  8
型材断面
  6
DOT
 10
-130.299513
 20
-60.801747
 11
-28.742993
 21
-60.801747
  0
LINE
  8
型材断面
  6
DOT
 10
-130.14299
 20
-60.63508
 11
-28.742993
 21
-60.63508
  0
LINE
  8
型材断面
  6
DOT
 10
-130.726328
 20
-62.628415
 11
-28.742993
 21
-62.628415
  0
LINE
  8
型材断面
  6
DOT
 10
-130.14299
 20
-62.301747
 11
-28.742993
 21
-62.301747
  0
LINE
  8
型材断面
  6
DOT
 10
-130.732992
 20
-64.801747
 11
-28.742993
 21
-64.801747
  0
LINE
  8
型材断面
  6
DOT
 10
73.24701
 20
-64.801747
 11
-28.742993
 21
-64.801747
  0
LINE
  8
型材断面
  6
DOT
 10
73.240345
 20
-62.628415
 11
-28.742993
 21
-62.628415
  0
LINE
  8
型材断面
  6
DOT
 10
72.657007
 20
-62.301747
 11
-28.742993
 21
-62.301747
  0
LINE
  8
型材断面
  6
DOT
 10
72.657007
 20
-60.63508
 11
-28.742993
 21
-60.63508
  0
LINE
  8
型材断面
  6
DOT
 10
72.813528
 20
-60.801747
 11
-28.742993
 21
-60.801747
  0
INSERT
  2
*GRP_0023
  8
型材断面
  6
CONTINUOUS
 10
0.0
 20
0.0
  0
INSERT
  2
*GRP_0024
  8
型材断面
  6
CONTINUOUS
 10
0.0
 20
0.0
  0
INSERT
  2
*GRP_0025
  8
型材断面
  6
CONTINUOUS
 10
0.0
 20
0.0
  0
INSERT
  2
*GRP_0026
  8
型材断面
  6
CONTINUOUS
 10
0.0
 20
0.0
  0
INSERT
  2
*GRP_0027
  8
型材断面
  6
CONTINUOUS
 10
0.0
 20
0.0
  0
INSERT
  2
*GRP_0028
  8
型材断面
  6
CONTINUOUS
 10
0.0
 20
0.0
  0
LINE
  8
型材断面
  6
DASHDOT
 10
-95.576325
 20
13.399048
 11
-95.576325
 21
56.73238
  0
LINE
  8
型材断面
  6
DASHDOT
 10
-62.159657
 20
13.399048
 11
-62.159657
 21
56.73238
  0
LINE
  8
型材断面
  6
DASHDOT
 10
38.09034
 20
13.399048
 11
38.09034
 21
56.73238
  0
LINE
  8
型材断面
  6
DASHDOT
 10
4.673673
 20
13.399048
 11
4.673673
 21
56.73238
  0
LINE
  8
型材断面
  6
CONTINUOUS
 10
55.090343
 20
11.842527
 11
55.090343
 21
14.342527
  0
LINE
  8
型材断面
  6
CONTINUOUS
 10
54.257007
 20
11.842527
 11
54.257007
 21
14.342527
  0
LINE
  8
型材断面
  6
CONTINUOUS
 10
21.798673
 20
11.842527
 11
21.798673
 21
14.342527
  0
LINE
  8
型材断面
  6
CONTINUOUS
 10
20.96534
 20
11.842527
 11
20.96534
 21
14.342527
  0
LINE
  8
型材断面
  6
CONTINUOUS
 10
21.798673
 20
14.342527
 11
54.257007
 21
14.342527
  0
LINE
  8
型材断面
  6
CONTINUOUS
 10
-11.617995
 20
11.842527
 11
-11.617995
 21
14.342527
  0
LINE
  8
型材断面
  6
CONTINUOUS
 10
-12.451328
 20
11.842527
 11
-12.451328
 21
14.342527
  0
LINE
  8
型材断面
  6
CONTINUOUS
 10
-45.03466
 20
11.842527
 11
-45.03466
 21
14.342527
  0
LINE
  8
型材断面
  6
CONTINUOUS
 10
-45.867993
 20
11.842527
 11
-45.867993
 21
14.342527
  0
LINE
  8
型材断面
  6
CONTINUOUS
 10
-78.451325
 20
11.842527
 11
-78.451325
 21
14.342527
  0
LINE
  8
型材断面
  6
CONTINUOUS
 10
-79.284657
 20
11.842527
 11
-79.284657
 21
14.342527
  0
LINE
  8
型材断面
  6
CONTINUOUS
 10
-112.576328
 20
11.842527
 11
-112.576328
 21
14.342527
  0
LINE
  8
型材断面
  6
CONTINUOUS
 10
-111.742993
 20
11.842527
 11
-111.742993
 21
14.342527
  0
LINE
  8
型材断面
  6
CONTINUOUS
 10
55.090343
 20
58.288903
 11
55.090343
 21
55.788903
  0
LINE
  8
型材断面
  6
CONTINUOUS
 10
54.257007
 20
58.288903
 11
54.257007
 21
55.788903
  0
LINE
  8
型材断面
  6
CONTINUOUS
 10
21.798673
 20
58.288903
 11
21.798673
 21
55.788903
  0
LINE
  8
型材断面
  6
CONTINUOUS
 10
20.96534
 20
58.288903
 11
20.96534
 21
55.788903
  0
LINE
  8
型材断面
  6
CONTINUOUS
 10
-11.617995
 20
58.288903
 11
-11.617995
 21
55.788903
  0
LINE
  8
型材断面
  6
CONTINUOUS
 10
-12.451328
 20
58.288903
 11
-12.451328
 21
55.788903
  0
LINE
  8
型材断面
  6
CONTINUOUS
 10
-45.03466
 20
58.288903
 11
-45.03466
 21
55.788903
  0
LINE
  8
型材断面
  6
CONTINUOUS
 10
-45.867993
 20
58.288903
 11
-45.867993
 21
55.788903
  0
LINE
  8
型材断面
  6
CONTINUOUS
 10
-78.451325
 20
58.288903
 11
-78.451325
 21
55.788903
  0
LINE
  8
型材断面
  6
CONTINUOUS
 10
-79.284657
 20
58.288903
 11
-79.284657
 21
55.788903
  0
LINE
  8
型材断面
  6
CONTINUOUS
 10
-112.576328
 20
58.288903
 11
-112.576328
 21
55.788903
  0
LINE
  8
型材断面
  6
CONTINUOUS
 10
-111.742993
 20
58.288903
 11
-111.742993
 21
55.788903
  0
LINE
  8
型材断面
  6
CONTINUOUS
 10
21.798673
 20
55.788903
 11
54.257007
 21
55.788903
  0
LINE
  8
型材断面
  6
CONTINUOUS
 10
-11.617995
 20
14.342527
 11
20.96534
 21
14.342527
  0
LINE
  8
型材断面
  6
CONTINUOUS
 10
-11.617995
 20
55.788903
 11
20.96534
 21
55.788903
  0
LINE
  8
型材断面
  6
CONTINUOUS
 10
-45.03466
 20
55.788903
 11
-12.451328
 21
55.788903
  0
LINE
  8
型材断面
  6
CONTINUOUS
 10
-45.03466
 20
14.342527
 11
-12.451328
 21
14.342527
  0
LINE
  8
型材断面
  6
CONTINUOUS
 10
-78.451325
 20
14.342527
 11
-45.867993
 21
14.342527
  0
LINE
  8
型材断面
  6
CONTINUOUS
 10
-78.451325
 20
55.788903
 11
-45.867993
 21
55.788903
  0
LINE
  8
型材断面
  6
CONTINUOUS
 10
-111.742993
 20
55.788903
 11
-79.284657
 21
55.788903
  0
LINE
  8
型材断面
  6
CONTINUOUS
 10
-111.742993
 20
14.342527
 11
-79.284657
 21
14.342527
  0
LINE
  8
型材断面
  6
CONTINUOUS
 10
72.813528
 20
35.48238
 11
70.313528
 21
35.48238
  0
LINE
  8
型材断面
  6
CONTINUOUS
 10
72.813528
 20
34.649048
 11
70.313528
 21
34.649048
  0
LINE
  8
型材断面
  6
CONTINUOUS
 10
72.57783
 20
11.842527
 11
72.813528
 21
12.078235
  0
LINE
  8
型材断面
  6
CONTINUOUS
 10
70.313528
 20
34.649048
 11
70.313528
 21
14.57823
  0
LINE
  8
型材断面
  6
CONTINUOUS
 10
70.313528
 20
14.57823
 11
70.077825
 21
14.342527
  0
LINE
  8
型材断面
  6
CONTINUOUS
 10
55.090343
 20
14.342527
 11
70.077825
 21
14.342527
  0
LINE
  8
型材断面
  6
CONTINUOUS
 10
70.077825
 20
14.342527
 11
72.57783
 21
11.842527
  0
LINE
  8
型材断面
  6
CONTINUOUS
 10
70.313528
 20
14.57823
 11
72.813528
 21
12.078235
  0
LINE
  8
型材断面
  6
CONTINUOUS
 10
73.240193
 20
11.41587
 11
72.69568
 21
11.960383
  0
LINE
  8
型材断面
  6
CONTINUOUS
 10
72.57783
 20
58.288903
 11
72.813528
 21
58.053195
  0
LINE
  8
型材断面
  6
CONTINUOUS
 10
70.313528
 20
55.5532
 11
70.077825
 21
55.788903
  0
LINE
  8
型材断面
  6
CONTINUOUS
 10
73.240193
 20
58.71556
 11
72.69568
 21
58.171047
  0
LINE
  8
型材断面
  6
CONTINUOUS
 10
70.313528
 20
35.48238
 11
70.313528
 21
55.5532
  0
LINE
  8
型材断面
  6
CONTINUOUS
 10
55.090343
 20
55.788903
 11
70.077825
 21
55.788903
  0
LINE
  8
型材断面
  6
CONTINUOUS
 10
70.313528
 20
55.5532
 11
72.813528
 21
58.053195
  0
LINE
  8
型材断面
  6
CONTINUOUS
 10
72.813528
 20
12.078235
 11
72.813528
 21
58.053195
  0
LINE
  8
型材断面
  6
CONTINUOUS
 10
70.077825
 20
55.788903
 11
72.57783
 21
58.288903
  0
LINE
  8
型材断面
  6
CONTINUOUS
 10
-130.726178
 20
11.41587
 11
-130.726178
 21
35.065715
  0
LINE
  8
型材断面
  6
CONTINUOUS
 10
-130.726178
 20
58.71556
 11
-130.726178
 21
35.065715
  0
LINE
  8
型材断面
  6
CONTINUOUS
 10
-130.299513
 20
35.48238
 11
-127.799513
 21
35.48238
  0
LINE
  8
型材断面
  6
CONTINUOUS
 10
-130.299513
 20
34.649048
 11
-127.799513
 21
34.649048
  0
LINE
  8
型材断面
  6
CONTINUOUS
 10
-130.063815
 20
11.842527
 11
-130.299513
 21
12.078235
  0
LINE
  8
型材断面
  6
CONTINUOUS
 10
-127.799513
 20
34.649048
 11
-127.799513
 21
14.57823
  0
LINE
  8
型材断面
  6
CONTINUOUS
 10
-127.799513
 20
14.57823
 11
-127.56381
 21
14.342527
  0
LINE
  8
型材断面
  6
CONTINUOUS
 10
-127.56381
 20
14.342527
 11
-130.063815
 21
11.842527
  0
LINE
  8
型材断面
  6
CONTINUOUS
 10
-127.799513
 20
14.57823
 11
-130.299513
 21
12.078235
  0
LINE
  8
型材断面
  6
CONTINUOUS
 10
-130.726178
 20
11.41587
 11
-130.181665
 21
11.960383
  0
LINE
  8
型材断面
  6
CONTINUOUS
 10
-130.063815
 20
58.288903
 11
-130.299513
 21
58.053195
  0
LINE
  8
型材断面
  6
CONTINUOUS
 10
-127.799513
 20
55.5532
 11
-127.56381
 21
55.788903
  0
LINE
  8
型材断面
  6
CONTINUOUS
 10
-130.726178
 20
58.71556
 11
-130.181665
 21
58.171047
  0
LINE
  8
型材断面
  6
CONTINUOUS
 10
-127.799513
 20
35.48238
 11
-127.799513
 21
55.5532
  0
LINE
  8
型材断面
  6
CONTINUOUS
 10
-127.799513
 20
55.5532
 11
-130.299513
 21
58.053195
  0
LINE
  8
型材断面
  6
CONTINUOUS
 10
-130.299513
 20
12.078235
 11
-130.299513
 21
58.053195
  0
LINE
  8
型材断面
  6
CONTINUOUS
 10
-127.56381
 20
55.788903
 11
-130.063815
 21
58.288903
  0
LINE
  8
型材断面
  6
CONTINUOUS
 10
-112.576328
 20
55.788903
 11
-127.56381
 21
55.788903
  0
LINE
  8
型材断面
  6
CONTINUOUS
 10
72.57783
 20
58.288903
 11
-130.063815
 21
58.288903
  0
LINE
  8
型材断面
  6
CONTINUOUS
 10
-112.576328
 20
14.342527
 11
-127.56381
 21
14.342527
  0
LINE
  8
型材断面
  6
CONTINUOUS
 10
72.57783
 20
11.842527
 11
-130.063815
 21
11.842527
  0
LINE
  8
型材断面
  6
CONTINUOUS
 10
39.34034
 20
54.95557
 11
36.84034
 21
54.95557
  0
LINE
  8
型材断面
  6
CONTINUOUS
 10
39.34034
 20
54.95557
 11
39.34034
 21
15.17586
  0
LINE
  8
型材断面
  6
CONTINUOUS
 10
39.34034
 20
15.17586
 11
36.84034
 21
15.17586
  0
LINE
  8
型材断面
  6
CONTINUOUS
 10
36.84034
 20
54.95557
 11
36.84034
 21
15.17586
  0
LINE
  8
型材断面
  6
CONTINUOUS
 10
5.923673
 20
54.95557
 11
3.423673
 21
54.95557
  0
LINE
  8
型材断面
  6
CONTINUOUS
 10
5.923673
 20
54.95557
 11
5.923673
 21
15.17586
  0
LINE
  8
型材断面
  6
CONTINUOUS
 10
5.923673
 20
15.17586
 11
3.423673
 21
15.17586
  0
LINE
  8
型材断面
  6
CONTINUOUS
 10
3.423673
 20
54.95557
 11
3.423673
 21
15.17586
  0
LINE
  8
型材断面
  6
CONTINUOUS
 10
-27.492993
 20
54.95557
 11
-29.992993
 21
54.95557
  0
LINE
  8
型材断面
  6
CONTINUOUS
 10
-27.492993
 20
54.95557
 11
-27.492993
 21
15.17586
  0
LINE
  8
型材断面
  6
CONTINUOUS
 10
-27.492993
 20
15.17586
 11
-29.992993
 21
15.17586
  0
LINE
  8
型材断面
  6
CONTINUOUS
 10
-29.992993
 20
54.95557
 11
-29.992993
 21
15.17586
  0
LINE
  8
型材断面
  6
CONTINUOUS
 10
-60.909657
 20
54.95557
 11
-63.409657
 21
54.95557
  0
LINE
  8
型材断面
  6
CONTINUOUS
 10
-60.909657
 20
54.95557
 11
-60.909657
 21
15.17586
  0
LINE
  8
型材断面
  6
CONTINUOUS
 10
-60.909657
 20
15.17586
 11
-63.409657
 21
15.17586
  0
LINE
  8
型材断面
  6
CONTINUOUS
 10
-63.409657
 20
54.95557
 11
-63.409657
 21
15.17586
  0
LINE
  8
型材断面
  6
CONTINUOUS
 10
-94.326325
 20
54.95557
 11
-96.826325
 21
54.95557
  0
LINE
  8
型材断面
  6
CONTINUOUS
 10
-94.326325
 20
54.95557
 11
-94.326325
 21
15.17586
  0
LINE
  8
型材断面
  6
CONTINUOUS
 10
-94.326325
 20
15.17586
 11
-96.826325
 21
15.17586
  0
LINE
  8
型材断面
  6
CONTINUOUS
 10
-96.826325
 20
54.95557
 11
-96.826325
 21
15.17586
  0
TEXT
  7
TextStyle03
  8
文字
  6
CONTINUOUS
 10
-37.025
 20
67.2
  1
可動装置側
 40
3.0
 72
     5
 11
-20.525
 21
67.2
  0
TEXT
  7
TextStyle03
  8
文字
  6
CONTINUOUS
 10
-37.025
 20
-0.075
  1
可動装置側
 40
3.0
 72
     5
 11
-20.525
 21
-0.075
  0
TEXT
  7
TextStyle03
  8
文字
  6
CONTINUOUS
 10
147.775
 20
-86.1
  1
網入り6.8t
 40
3.0
 72
     5
 11
164.4625
 21
-86.1
  0
TEXT
  7
TextStyle03
  8
文字
  6
CONTINUOUS
 10
154.45
 20
-90.775
  1
×６枚
 40
3.0
 72
     5
 11
164.2
 21
-90.775
  0
TEXT
  7
TextStyle03
  8
文字
  6
CONTINUOUS
 10
-166.775
 20
93.325
  1
はケーシング位置を示す
 40
3.0
 72
     5
 11
-130.025
 21
93.325
  0
TEXT
  7
TextStyle03
  8
文字
  6
CONTINUOUS
 10
-166.775
 20
89.95
  1
４ヶ所中1ヶ所に設定
 40
3.0
 72
     5
 11
-135.0875
 21
89.95
  0
TEXT
  7
TextStyle03
  8
文字
  6
CONTINUOUS
 10
-166.775
 20
98.85
  1
は排水穴位置を示す
 40
3.0
 72
     5
 11
-136.775
 21
98.85
  0
TEXT
  7
TextStyle03
  8
文字
  6
CONTINUOUS
 10
-166.275
 20
23.975
  1
アンカーピッチ
 40
3.0
 50
90.0
 72
     5
 11
-166.275
 21
47.225
  0
TEXT
  7
TextStyle03
  8
文字
  6
CONTINUOUS
 10
-115.3
 20
93.875
  1
アンカーピッチ
 40
3.0
 72
     5
 11
-92.05
 21
93.875
  0
TEXT
  7
TextStyle03
  8
文字
  6
CONTINUOUS
 10
-170.5
 20
83.975
  1
アンカー数量　２２ヶ所
 40
3.0
 72
     5
 11
-133.75
 21
83.975
  0
TEXT
  7
TextStyle03
  8
文字
  6
CONTINUOUS
 10
-175.5
 20
73.25
  1
※重量に依るのでご相談ください
 40
3.0
 72
     5
 11
-125.25
 21
73.25
  0
TEXT
  7
TextStyle03
  8
文字
  6
CONTINUOUS
 10
-175.5
 20
78.2
  1
アームユニット数　※６～８ヶ所
 40
3.0
 72
     5
 11
-125.25
 21
78.2
  0
LINE
  8
文字
  6
CONTINUOUS
 10
159.983633
 20
70.502383
 11
159.983633
 21
59.952418
  0
LINE
  8
文字
  6
CONTINUOUS
 10
167.633683
 20
70.502383
 11
167.633683
 21
60.0175
  0
LINE
  8
文字
  6
CONTINUOUS
 10
84.492252
 20
-77.301747
 11
73.94229
 21
-77.301747
  0
LINE
  8
文字
  6
CONTINUOUS
 10
84.492252
 20
-84.951797
 11
74.007373
 21
-84.951797
  0
LINE
  8
文字
  6
CONTINUOUS
 10
84.492252
 20
-60.63508
 11
73.94229
 21
-60.63508
  0
LINE
  8
文字
  6
CONTINUOUS
 10
166.343563
 20
-40.788363
 11
166.343563
 21
-48.216648
  0
LINE
  8
文字
  6
CONTINUOUS
 10
134.093563
 20
-40.788363
 11
134.093563
 21
-48.216648
  0
TEXT
  7
TextStyle03
  8
文字
  6
CONTINUOUS
 10
59.75
 20
125.25
  1
シリーズ：ＴＦ２ＦＬ
 40
5.0
 72
     5
 11
115.375
 21
125.25
  0
TEXT
  7
TextStyle03
  8
文字
  6
CONTINUOUS
 10
59.75
 20
119.625
  1
　　　　　（上下可動）1300×6000タイプ
 40
5.0
 72
     5
 11
166.0
 21
119.625
  0
TEXT
  7
TextStyle03
  8
文字
  6
CONTINUOUS
 10
59.75
 20
114.0
  1
図面名　：外観姿図
 40
5.0
 72
     5
 11
109.75
 21
114.0
  0
TEXT
  7
TextStyle03
  8
文字
  6
CONTINUOUS
 10
59.75
 20
108.375
  1
　　　　　　
 40
5.0
 72
     5
 11
92.875
 21
108.375
  0
TEXT
  7
TextStyle03
  8
文字
  6
CONTINUOUS
 10
59.9
 20
104.525
  1
ＮＳコード：ＮＳＦＺＬ
 40
5.0
 72
     5
 11
121.15
 21
104.525
  0
INSERT
  2
*DIM_0002
  8
寸法
  6
CONTINUOUS
 10
0.0
 20
0.0
  0
INSERT
  2
*DIM_0003
  8
寸法
  6
CONTINUOUS
 10
0.0
 20
0.0
  0
INSERT
  2
*DIM_0004
  8
寸法
  6
CONTINUOUS
 10
0.0
 20
0.0
  0
INSERT
  2
*DIM_0005
  8
寸法
  6
CONTINUOUS
 10
0.0
 20
0.0
  0
INSERT
  2
*DIM_0006
  8
寸法
  6
CONTINUOUS
 10
0.0
 20
0.0
  0
INSERT
  2
*DIM_0007
  8
寸法
  6
CONTINUOUS
 10
0.0
 20
0.0
  0
INSERT
  2
*DIM_0008
  8
寸法
  6
CONTINUOUS
 10
0.0
 20
0.0
  0
INSERT
  2
*DIM_0009
  8
寸法
  6
CONTINUOUS
 10
0.0
 20
0.0
  0
INSERT
  2
*DIM_0010
  8
寸法
  6
CONTINUOUS
 10
0.0
 20
0.0
  0
INSERT
  2
*DIM_0011
  8
寸法
  6
CONTINUOUS
 10
0.0
 20
0.0
  0
INSERT
  2
*DIM_0012
  8
寸法
  6
CONTINUOUS
 10
0.0
 20
0.0
  0
INSERT
  2
*DIM_0013
  8
寸法
  6
CONTINUOUS
 10
0.0
 20
0.0
  0
INSERT
  2
*DIM_0014
  8
寸法
  6
CONTINUOUS
 10
0.0
 20
0.0
  0
INSERT
  2
*DIM_0015
  8
寸法
  6
CONTINUOUS
 10
0.0
 20
0.0
  0
INSERT
  2
*DIM_0016
  8
寸法
  6
CONTINUOUS
 10
0.0
 20
0.0
  0
INSERT
  2
*DIM_0017
  8
寸法
  6
CONTINUOUS
 10
0.0
 20
0.0
  0
INSERT
  2
*DIM_0018
  8
寸法
  6
CONTINUOUS
 10
0.0
 20
0.0
  0
INSERT
  2
*DIM_0019
  8
寸法
  6
CONTINUOUS
 10
0.0
 20
0.0
  0
INSERT
  2
*DIM_0020
  8
寸法
  6
CONTINUOUS
 10
0.0
 20
0.0
  0
INSERT
  2
*DIM_0021
  8
寸法
  6
CONTINUOUS
 10
0.0
 20
0.0
  0
INSERT
  2
*DIM_0022
  8
寸法
  6
CONTINUOUS
 10
0.0
 20
0.0
  0
INSERT
  2
*DIM_0029
  8
寸法
  6
CONTINUOUS
 10
0.0
 20
0.0
  0
INSERT
  2
*DIM_0030
  8
寸法
  6
CONTINUOUS
 10
0.0
 20
0.0
  0
INSERT
  2
*DIM_0031
  8
寸法
  6
CONTINUOUS
 10
0.0
 20
0.0
  0
LINE
  8
別途部材
  6
CONTINUOUS
 62
    47
 10
160.083633
 20
11.842527
 11
160.1503
 21
11.842527
  0
ARC
  8
別途部材
  6
CONTINUOUS
 62
    47
 10
160.083637
 20
11.942526
 40
0.1
 50
180.0
 51
270.0
  0
LINE
  8
別途部材
  6
CONTINUOUS
 62
    47
 10
159.983633
 20
11.942527
 11
159.983633
 21
14.309193
  0
LINE
  8
別途部材
  6
CONTINUOUS
 62
    47
 10
161.6503
 20
11.999048
 11
160.1503
 21
11.999048
  0
LINE
  8
別途部材
  6
CONTINUOUS
 62
    47
 10
160.083633
 20
58.2889
 11
160.1503
 21
58.2889
  0
ARC
  8
別途部材
  6
CONTINUOUS
 62
    47
 10
160.083637
 20
58.188901
 40
0.1
 50
90.0
 51
180.0
  0
LINE
  8
別途部材
  6
CONTINUOUS
 62
    47
 10
159.983633
 20
58.1889
 11
159.983633
 21
55.822233
  0
LINE
  8
別途部材
  6
CONTINUOUS
 62
    47
 10
161.6503
 20
58.132378
 11
160.1503
 21
58.132378
  0
LINE
  8
別途部材
  6
CONTINUOUS
 62
    47
 10
-130.299513
 20
-77.401747
 11
-130.299513
 21
-77.468415
  0
ARC
  8
別途部材
  6
CONTINUOUS
 62
    47
 10
-130.199513
 20
-77.401749
 40
0.1
 50
90.0
 51
180.0
  0
LINE
  8
別途部材
  6
CONTINUOUS
 62
    47
 10
-130.199513
 20
-77.301747
 11
-127.832845
 21
-77.301747
  0
LINE
  8
別途部材
  6
CONTINUOUS
 62
    47
 10
-130.14299
 20
-78.968415
 11
-130.14299
 21
-77.468415
  0
LINE
  8
別途部材
  6
CONTINUOUS
 62
    47
 10
72.813528
 20
-77.401747
 11
72.813528
 21
-77.468415
  0
ARC
  8
別途部材
  6
CONTINUOUS
 62
    47
 10
72.713529
 20
-77.401749
 40
0.1
 50
0.0
 51
90.0
  0
LINE
  8
別途部材
  6
CONTINUOUS
 62
    47
 10
72.713528
 20
-77.301747
 11
70.346862
 21
-77.301747
  0
LINE
  8
別途部材
  6
CONTINUOUS
 62
    47
 10
72.657007
 20
-78.968415
 11
72.657007
 21
-77.468415
  0
LINE
  8
別途部材
  6
DOT
 62
    47
 10
-130.299513
 20
-60.73508
 11
-130.299513
 21
-60.801747
  0
ARC
  8
別途部材
  6
DOT
 62
    47
 10
-130.199513
 20
-60.735082
 40
0.1
 50
90.0
 51
180.0
  0
LINE
  8
別途部材
  6
DOT
 62
    47
 10
-130.199513
 20
-60.63508
 11
-127.832845
 21
-60.63508
  0
LINE
  8
別途部材
  6
DOT
 62
    47
 10
-130.14299
 20
-62.301747
 11
-130.14299
 21
-60.801747
  0
LINE
  8
別途部材
  6
DOT
 62
    47
 10
72.813528
 20
-60.73508
 11
72.813528
 21
-60.801747
  0
ARC
  8
別途部材
  6
DOT
 62
    47
 10
72.713529
 20
-60.735082
 40
0.1
 50
0.0
 51
90.0
  0
LINE
  8
別途部材
  6
DOT
 62
    47
 10
72.713528
 20
-60.63508
 11
70.346862
 21
-60.63508
  0
LINE
  8
別途部材
  6
DOT
 62
    47
 10
72.657007
 20
-62.301747
 11
72.657007
 21
-60.801747
  0
LINE
  8
曲げ物
  6
CONTINUOUS
 10
166.343563
 20
-92.533713
 11
166.343563
 21
-49.867045
  0
LINE
  8
曲げ物
  6
CONTINUOUS
 10
55.982738
 20
37.022003
 11
52.287425
 21
33.32669
  0
LINE
  8
曲げ物
  6
CONTINUOUS
 10
55.279268
 20
35.485893
 11
53.823538
 21
34.030163
  0
LINE
  8
曲げ物
  6
CONTINUOUS
 10
54.446628
 20
36.318533
 11
52.990898
 21
34.862803
  0
LINE
  8
曲げ物
  6
CONTINUOUS
 10
23.701115
 20
37.022003
 11
20.005803
 21
33.32669
  0
LINE
  8
曲げ物
  6
CONTINUOUS
 10
22.997645
 20
35.485893
 11
21.541915
 21
34.030163
  0
LINE
  8
曲げ物
  6
CONTINUOUS
 10
22.165005
 20
36.318533
 11
20.709275
 21
34.862803
  0
LINE
  8
曲げ物
  6
CONTINUOUS
 10
-9.110125
 20
37.022003
 11
-12.805437
 21
33.32669
  0
LINE
  8
曲げ物
  6
CONTINUOUS
 10
-9.813595
 20
35.485893
 11
-11.269325
 21
34.030163
  0
LINE
  8
曲げ物
  6
CONTINUOUS
 10
-10.646235
 20
36.318533
 11
-12.101965
 21
34.862803
  0
LINE
  8
曲げ物
  6
CONTINUOUS
 10
-42.918483
 20
37.022003
 11
-46.613795
 21
33.32669
  0
LINE
  8
曲げ物
  6
CONTINUOUS
 10
-43.621953
 20
35.485893
 11
-45.077682
 21
34.030163
  0
LINE
  8
曲げ物
  6
CONTINUOUS
 10
-44.454593
 20
36.318533
 11
-45.910322
 21
34.862803
  0
LINE
  8
曲げ物
  6
CONTINUOUS
 10
-76.439232
 20
37.022003
 11
-80.134545
 21
33.32669
  0
LINE
  8
曲げ物
  6
CONTINUOUS
 10
-77.142702
 20
35.485893
 11
-78.598433
 21
34.030163
  0
LINE
  8
曲げ物
  6
CONTINUOUS
 10
-77.975342
 20
36.318533
 11
-79.431073
 21
34.862803
  0
LINE
  8
曲げ物
  6
CONTINUOUS
 10
-110.960845
 20
37.022003
 11
-114.656157
 21
33.32669
  0
LINE
  8
曲げ物
  6
CONTINUOUS
 10
-111.664315
 20
35.485893
 11
-113.120045
 21
34.030163
  0
LINE
  8
曲げ物
  6
CONTINUOUS
 10
-112.496955
 20
36.318533
 11
-113.952685
 21
34.862803
  0
LINE
  8
曲げ物
  6
CONTINUOUS
 10
134.093563
 20
-49.867045
 11
134.093563
 21
-92.533713
  0
LINE
  8
曲げ物
  6
CONTINUOUS
 10
166.343563
 20
-49.867045
 11
134.093563
 21
-49.867045
  0
LINE
  8
曲げ物
  6
CONTINUOUS
 10
166.343563
 20
-92.533713
 11
134.093563
 21
-92.533713
  0
ENDSEC
  0
EOF
