  0
SECTION
  2
HEADER
  9
$EXTMIN
 10
-210.0
 20
-148.5
  9
$EXTMAX
 10
210.0
 20
148.5
  9
$PDMODE
 70
    32
  9
$PDSIZE
 40
1.5
  9
$LTSCALE
 40
10.0
  0
ENDSEC
  0
SECTION
  2
TABLES
  0
TABLE
  2
LTYPE
 70
    15
  0
LTYPE
  2
CONTINUOUS
 70
    64
  3
実線
 72
    65
 73
     0
 40
0.0
  0
LTYPE
  2
DASHED
 70
    64
  3
破線A
 72
    65
 73
     2
 40
0.6
 49
0.4
 49
-0.2
  0
LTYPE
  2
DASHEDX2
 70
    64
  3
破線B
 72
    65
 73
     2
 40
1.3
 49
0.9
 49
-0.4
  0
LTYPE
  2
DASHDOT
 70
    64
  3
１点鎖線A
 72
    65
 73
     4
 40
0.5375
 49
0.375
 49
-0.05
 49
0.0625
 49
-0.05
  0
LTYPE
  2
DASHDOTX2
 70
    64
  3
１点鎖線B
 72
    65
 73
     4
 40
1.075
 49
0.75
 49
-0.1
 49
0.125
 49
-0.1
  0
LTYPE
  2
DIVIDE2
 70
    64
  3
２点鎖線A
 72
    65
 73
     6
 40
0.5125
 49
0.3
 49
-0.0375
 49
0.05
 49
-0.0375
 49
0.05
 49
-0.0375
  0
LTYPE
  2
DIVIDE
 70
    64
  3
２点鎖線B
 72
    65
 73
     6
 40
1.05
 49
0.55
 49
-0.1
 49
0.1
 49
-0.1
 49
0.1
 49
-0.1
  0
LTYPE
  2
DOT
 70
    64
  3
点線A
 72
    65
 73
     2
 40
0.1125
 49
0.0625
 49
-0.05
  0
LTYPE
  2
DOTX2
 70
    64
  3
点線B
 72
    65
 73
     2
 40
0.275
 49
0.15
 49
-0.125
  0
LTYPE
  2
CONTINUOUS
 70
    64
  3
実線
 72
    65
 73
     0
 40
0.0
  0
LTYPE
  2
CONTINUOUS
 70
    64
  3
実線
 72
    65
 73
     0
 40
0.0
  0
LTYPE
  2
CONTINUOUS
 70
    64
  3
実線
 72
    65
 73
     0
 40
0.0
  0
LTYPE
  2
CONTINUOUS
 70
    64
  3
実線
 72
    65
 73
     0
 40
0.0
  0
LTYPE
  2
CONTINUOUS
 70
    64
  3
実線
 72
    65
 73
     0
 40
0.0
  0
LTYPE
  2
CONTINUOUS
 70
    64
  3
実線
 72
    65
 73
     0
 40
0.0
  0
ENDTAB
  0
TABLE
  2
LAYER
 70
    34
  0
LAYER
  2
通り芯
 70
     0
 62
    15
  6
CONTINUOUS
  0
LAYER
  2
補助線
 70
     0
 62
    16
  6
DOT
  0
LAYER
  2
躯体
 70
     0
 62
    31
  6
CONTINUOUS
  0
LAYER
  2
型材
 70
     0
 62
    32
  6
CONTINUOUS
  0
LAYER
  2
型材断面
 70
     0
 62
    47
  6
CONTINUOUS
  0
LAYER
  2
ガラス
 70
     0
 62
    48
  6
CONTINUOUS
  0
LAYER
  2
ゴム等
 70
     0
 62
    63
  6
CONTINUOUS
  0
LAYER
  2
ボルト／ビス
 70
     0
 62
    64
  6
CONTINUOUS
  0
LAYER
  2
文字
 70
     0
 62
    79
  6
CONTINUOUS
  0
LAYER
  2
寸法
 70
     0
 62
    80
  6
CONTINUOUS
  0
LAYER
  2
ﾊｯﾁﾝｸﾞ
 70
     0
 62
    95
  6
CONTINUOUS
  0
LAYER
  2
別途部材
 70
     0
 62
    96
  6
CONTINUOUS
  0
LAYER
  2
曲げ物
 70
     0
 62
   111
  6
CONTINUOUS
  0
LAYER
  2
鉄骨等
 70
     0
 62
   112
  6
CONTINUOUS
  0
LAYER
  2
St
 70
     0
 62
   127
  6
CONTINUOUS
  0
LAYER
  2
その他部品等
 70
     0
 62
   128
  6
CONTINUOUS
  0
LAYER
  2
ｶﾞｽｹｯﾄ
 70
     0
 62
   143
  6
CONTINUOUS
  0
LAYER
  2
ｽｹｯﾁ
 70
     0
 62
    14
  6
CONTINUOUS
  0
LAYER
  2
0
 70
     0
 62
    17
  6
CONTINUOUS
  0
LAYER
  2
1
 70
     0
 62
    30
  6
CONTINUOUS
  0
LAYER
  2
4
 70
     0
 62
    33
  6
CONTINUOUS
  0
LAYER
  2
ﾚｲﾔ3
 70
     0
 62
    46
  6
CONTINUOUS
  0
LAYER
  2
外形線
 70
     0
 62
    49
  6
CONTINUOUS
  0
LAYER
  2
部品
 70
     0
 62
    14
  6
CONTINUOUS
  0
LAYER
  2
サッシ芯
 70
     0
 62
    17
  6
DASHDOTX2
  0
LAYER
  2
寸法線
 70
     0
 62
    62
  6
CONTINUOUS
  0
LAYER
  2
姿図外形線
 70
     0
 62
    65
  6
CONTINUOUS
  0
LAYER
  2
姿補助線
 70
     0
 62
    30
  6
CONTINUOUS
  0
LAYER
  2
透視線
 70
     0
 62
    78
  6
DOT
  0
LAYER
  2
用紙
 70
     0
 62
    81
  6
CONTINUOUS
  0
LAYER
  2
実線図枠
 70
     0
 62
    94
  6
CONTINUOUS
  0
LAYER
  2
補助図枠
 70
     0
 62
    97
  6
CONTINUOUS
  0
LAYER
  2
建具記号
 70
     0
 62
   110
  6
CONTINUOUS
  0
LAYER
  2
補助文字
 70
     0
 62
   113
  6
CONTINUOUS
  0
ENDTAB
  0
TABLE
  2
STYLE
 70
    10
  0
STYLE
  2
STANDARD
 70
     0
 40
1.0
 41
1.0
 42
1.0
 50
0.0
 71
     0
  3
TXT
  4
BIGFONT
  0
STYLE
  2
TATE
 70
     4
 40
1.0
 41
1.0
 42
1.0
 50
0.0
 71
     0
  3
TXT
  4
BIGFONT
  0
STYLE
  2
TextStyle03
 70
     0
 40
1.0
 41
1.0
 42
1.0
 50
0.0
 71
     0
  3
MONOTXT
  4
BIGFONT
  0
STYLE
  2
TextStyle04
 70
     0
 40
1.0
 41
1.0
 42
1.0
 50
0.0
 71
     0
  3
MONOTXT
  4
BIGFONT
  0
STYLE
  2
TextStyle05
 70
     0
 40
1.0
 41
1.0
 42
1.0
 50
0.0
 71
     0
  3
MONOTXT
  4
BIGFONT
  0
STYLE
  2
TextStyle06
 70
     0
 40
1.0
 41
1.0
 42
1.0
 50
0.0
 71
     0
  3
MONOTXT
  4
BIGFONT
  0
STYLE
  2
TextStyle07
 70
     0
 40
1.0
 41
1.0
 42
1.0
 50
0.0
 71
     0
  3
MONOTXT
  4
BIGFONT
  0
STYLE
  2
TextStyle08
 70
     0
 40
1.0
 41
1.0
 42
1.0
 50
0.0
 71
     0
  3
MONOTXT
  4
BIGFONT
  0
STYLE
  2
TextStyle09
 70
     0
 40
1.0
 41
1.0
 42
1.0
 50
0.0
 71
     0
  3
MONOTXT
  4
BIGFONT
  0
STYLE
  2
TextStyle10
 70
     0
 40
1.0
 41
1.0
 42
1.0
 50
0.0
 71
     0
  3
MONOTXT
  4
BIGFONT
  0
ENDTAB
  0
ENDSEC
  0
SECTION
  2
BLOCKS
  0
BLOCK
  2
*GRP_0001
 70
    65
 10
0.0
 20
0.0
  0
LINE
  8
型材断面
  6
CONTINUOUS
 10
195.0
 20
133.5
 11
195.0
 21
-133.5
  0
LINE
  8
型材断面
  6
CONTINUOUS
 10
195.0
 20
-133.5
 11
-185.0
 21
-133.5
  0
LINE
  8
型材断面
  6
CONTINUOUS
 10
-185.0
 20
-133.5
 11
-185.0
 21
133.5
  0
LINE
  8
型材断面
  6
CONTINUOUS
 10
195.0
 20
133.5
 11
-185.0
 21
133.5
  0
LINE
  8
型材断面
  6
CONTINUOUS
 10
145.0
 20
-133.5
 11
145.0
 21
-118.5
  0
LINE
  8
型材断面
  6
CONTINUOUS
 10
195.0
 20
-118.5
 11
145.0
 21
-118.5
  0
ENDBLK
  0
BLOCK
  2
*DIM_0002
 70
    65
 10
0.0
 20
0.0
  0
LINE
  8
寸法
  6
BYBLOCK
 62
     0
 10
149.3695
 20
-49.867045
 11
157.804348
 21
-49.867045
  0
LINE
  8
寸法
  6
BYBLOCK
 62
     0
 10
149.3695
 20
-92.533713
 11
157.804348
 21
-92.533713
  0
LINE
  8
寸法
  6
BYBLOCK
 62
     0
 10
157.804348
 20
-49.867045
 11
157.804348
 21
-92.533713
  0
POINT
  8
寸法
 62
     0
 10
157.804348
 20
-49.867045
  0
POINT
  8
寸法
 62
     0
 10
157.804348
 20
-92.533713
  0
TEXT
  7
TextStyle03
  8
寸法
  6
CONTINUOUS
 62
     0
 10
157.45
 20
-74.48125
  1
1280
 40
3.0
 50
90.0
 72
     5
 11
157.45
 21
-67.91875
  0
ENDBLK
  0
BLOCK
  2
*DIM_0003
 70
    65
 10
0.0
 20
0.0
  0
LINE
  8
寸法
  6
BYBLOCK
 62
     0
 10
53.282945
 20
-22.536362
 11
-96.717055
 21
-22.536362
  0
POINT
  8
寸法
 62
     0
 10
53.282945
 20
-22.536362
  0
POINT
  8
寸法
 62
     0
 10
-96.717055
 20
-22.536362
  0
TEXT
  7
TextStyle03
  8
寸法
  6
CONTINUOUS
 62
     0
 10
-33.44375
 20
-22.175
  1
呼称寸法　4500
 40
3.0
 72
     5
 11
-10.00625
 21
-22.175
  0
ENDBLK
  0
BLOCK
  2
*DIM_0004
 70
    65
 10
0.0
 20
0.0
  0
LINE
  8
寸法
  6
BYBLOCK
 62
     0
 10
54.282945
 20
56.732382
 11
64.007228
 21
56.732382
  0
LINE
  8
寸法
  6
BYBLOCK
 62
     0
 10
56.913075
 20
53.032382
 11
64.007228
 21
53.032382
  0
LINE
  8
寸法
  6
BYBLOCK
 62
     0
 10
64.007228
 20
56.732382
 11
64.007228
 21
53.032382
  0
POINT
  8
寸法
 62
     0
 10
64.007228
 20
56.732382
  0
POINT
  8
寸法
 62
     0
 10
64.007228
 20
53.032382
  0
TEXT
  7
TextStyle03
  8
寸法
  6
CONTINUOUS
 62
     0
 10
63.675
 20
57.7125
  1
111
 40
3.0
 50
90.0
 72
     5
 11
63.675
 21
62.5875
  0
ENDBLK
  0
BLOCK
  2
*DIM_0005
 70
    65
 10
0.0
 20
0.0
  0
LINE
  8
寸法
  6
BYBLOCK
 62
     0
 10
54.282945
 20
13.399048
 11
64.007228
 21
13.399045
  0
LINE
  8
寸法
  6
BYBLOCK
 62
     0
 10
56.913075
 20
17.099048
 11
64.007228
 21
17.099045
  0
LINE
  8
寸法
  6
BYBLOCK
 62
     0
 10
64.007228
 20
13.399045
 11
64.007228
 21
17.099045
  0
POINT
  8
寸法
 62
     0
 10
64.007228
 20
13.399045
  0
POINT
  8
寸法
 62
     0
 10
64.007228
 20
17.099045
  0
TEXT
  7
TextStyle03
  8
寸法
  6
CONTINUOUS
 62
     0
 10
63.65
 20
7.5375
  1
111
 40
3.0
 50
90.0
 72
     5
 11
63.65
 21
12.4125
  0
ENDBLK
  0
BLOCK
  2
*DIM_0006
 70
    65
 10
0.0
 20
0.0
  0
LINE
  8
寸法
  6
BYBLOCK
 62
     0
 10
-80.050388
 20
9.76892
 11
-80.050388
 21
4.855835
  0
LINE
  8
寸法
  6
BYBLOCK
 62
     0
 10
-21.717055
 20
9.76892
 11
-21.717055
 21
4.855835
  0
LINE
  8
寸法
  6
BYBLOCK
 62
     0
 10
-80.050388
 20
4.855835
 11
-21.717055
 21
4.855835
  0
POINT
  8
寸法
 62
     0
 10
-80.050388
 20
4.855835
  0
POINT
  8
寸法
 62
     0
 10
-21.717055
 20
4.855835
  0
TEXT
  7
TextStyle03
  8
寸法
  6
CONTINUOUS
 62
     0
 10
-54.18125
 20
5.225
  1
1750
 40
3.0
 72
     5
 11
-47.61875
 21
5.225
  0
ENDBLK
  0
BLOCK
  2
*DIM_0007
 70
    65
 10
0.0
 20
0.0
  0
LINE
  8
寸法
  6
BYBLOCK
 62
     0
 10
36.616278
 20
9.76892
 11
36.616278
 21
4.855835
  0
LINE
  8
寸法
  6
BYBLOCK
 62
     0
 10
-21.717055
 20
4.855835
 11
36.616278
 21
4.855835
  0
POINT
  8
寸法
 62
     0
 10
36.616278
 20
4.855835
  0
TEXT
  7
TextStyle03
  8
寸法
  6
CONTINUOUS
 62
     0
 10
4.14375
 20
5.225
  1
1750
 40
3.0
 72
     5
 11
10.70625
 21
5.225
  0
ENDBLK
  0
BLOCK
  2
*DIM_0008
 70
    65
 10
0.0
 20
0.0
  0
LINE
  8
寸法
  6
BYBLOCK
 62
     0
 10
87.302595
 20
13.399048
 11
87.302595
 21
56.73238
  0
POINT
  8
寸法
 62
     0
 10
87.302595
 20
13.399048
  0
POINT
  8
寸法
 62
     0
 10
87.302595
 20
56.73238
  0
TEXT
  7
TextStyle03
  8
寸法
  6
CONTINUOUS
 62
     0
 10
86.95
 20
23.33125
  1
呼称寸法　1300
 40
3.0
 50
90.0
 72
     5
 11
86.95
 21
46.76875
  0
ENDBLK
  0
BLOCK
  2
*DIM_0009
 70
    65
 10
0.0
 20
0.0
  0
LINE
  8
寸法
  6
BYBLOCK
 62
     0
 10
141.19299
 20
58.715712
 11
87.302595
 21
58.715712
  0
LINE
  8
寸法
  6
BYBLOCK
 62
     0
 10
87.302595
 20
56.73238
 11
87.302595
 21
58.715712
  0
POINT
  8
寸法
 62
     0
 10
87.302595
 20
56.73238
  0
POINT
  8
寸法
 62
     0
 10
87.302595
 20
58.715712
  0
TEXT
  7
TextStyle03
  8
寸法
  6
CONTINUOUS
 62
     0
 10
86.9
 20
61.16875
  1
59.5
 40
3.0
 50
90.0
 72
     5
 11
86.9
 21
67.73125
  0
ENDBLK
  0
BLOCK
  2
*DIM_0010
 70
    65
 10
0.0
 20
0.0
  0
LINE
  8
寸法
  6
BYBLOCK
 62
     0
 10
141.19299
 20
11.415712
 11
87.302595
 21
11.415712
  0
LINE
  8
寸法
  6
BYBLOCK
 62
     0
 10
87.302595
 20
13.399048
 11
87.302595
 21
11.415712
  0
POINT
  8
寸法
 62
     0
 10
87.302595
 20
13.399048
  0
POINT
  8
寸法
 62
     0
 10
87.302595
 20
11.415712
  0
TEXT
  7
TextStyle03
  8
寸法
  6
CONTINUOUS
 62
     0
 10
86.9
 20
2.36875
  1
59.5
 40
3.0
 50
90.0
 72
     5
 11
86.9
 21
8.93125
  0
ENDBLK
  0
BLOCK
  2
*DIM_0011
 70
    65
 10
0.0
 20
0.0
  0
LINE
  8
寸法
  6
BYBLOCK
 62
     0
 10
55.266278
 20
-61.334713
 11
55.266278
 21
-22.536362
  0
LINE
  8
寸法
  6
BYBLOCK
 62
     0
 10
53.282945
 20
-22.536362
 11
55.266278
 21
-22.536362
  0
POINT
  8
寸法
 62
     0
 10
53.282945
 20
-22.536362
  0
POINT
  8
寸法
 62
     0
 10
55.266278
 20
-22.536362
  0
TEXT
  7
TextStyle03
  8
寸法
  6
CONTINUOUS
 62
     0
 10
57.71875
 20
-22.175
  1
59.5
 40
3.0
 72
     5
 11
64.28125
 21
-22.175
  0
ENDBLK
  0
BLOCK
  2
*DIM_0012
 70
    65
 10
0.0
 20
0.0
  0
LINE
  8
寸法
  6
BYBLOCK
 62
     0
 10
-98.700388
 20
-61.334713
 11
-98.700388
 21
-22.536362
  0
LINE
  8
寸法
  6
BYBLOCK
 62
     0
 10
-96.717055
 20
-22.536362
 11
-98.700388
 21
-22.536362
  0
POINT
  8
寸法
 62
     0
 10
-96.717055
 20
-22.536362
  0
POINT
  8
寸法
 62
     0
 10
-98.700388
 20
-22.536362
  0
TEXT
  7
TextStyle03
  8
寸法
  6
CONTINUOUS
 62
     0
 10
-107.75625
 20
-22.175
  1
59.5
 40
3.0
 72
     5
 11
-101.19375
 21
-22.175
  0
ENDBLK
  0
BLOCK
  2
*DIM_0013
 70
    65
 10
0.0
 20
0.0
  0
LINE
  8
寸法
  6
BYBLOCK
 62
     0
 10
-99.717055
 20
23.399048
 11
-128.66222
 21
23.399048
  0
LINE
  8
寸法
  6
BYBLOCK
 62
     0
 10
-99.717055
 20
46.732382
 11
-128.66222
 21
46.732382
  0
LINE
  8
寸法
  6
BYBLOCK
 62
     0
 10
-128.66222
 20
23.399048
 11
-128.66222
 21
46.732382
  0
POINT
  8
寸法
 62
     0
 10
-128.66222
 20
23.399048
  0
POINT
  8
寸法
 62
     0
 10
-128.66222
 20
46.732382
  0
TEXT
  7
TextStyle03
  8
寸法
  6
CONTINUOUS
 62
     0
 10
-129.075
 20
32.6125
  1
700
 40
3.0
 50
90.0
 72
     5
 11
-129.075
 21
37.4875
  0
ENDBLK
  0
BLOCK
  2
*DIM_0014
 70
    65
 10
0.0
 20
0.0
  0
LINE
  8
寸法
  6
BYBLOCK
 62
     0
 10
-88.383723
 20
59.73238
 11
-88.383723
 21
88.840452
  0
LINE
  8
寸法
  6
BYBLOCK
 62
     0
 10
-61.717055
 20
59.73238
 11
-61.717055
 21
88.840452
  0
LINE
  8
寸法
  6
BYBLOCK
 62
     0
 10
-88.383723
 20
88.840452
 11
-61.717055
 21
88.840452
  0
POINT
  8
寸法
 62
     0
 10
-88.383723
 20
88.840452
  0
POINT
  8
寸法
 62
     0
 10
-61.717055
 20
88.840452
  0
TEXT
  7
TextStyle03
  8
寸法
  6
CONTINUOUS
 62
     0
 10
-77.5125
 20
89.2
  1
800
 40
3.0
 72
     5
 11
-72.6375
 21
89.2
  0
ENDBLK
  0
BLOCK
  2
*DIM_0015
 70
    65
 10
0.0
 20
0.0
  0
LINE
  8
寸法
  6
BYBLOCK
 62
     0
 10
-35.050388
 20
59.73238
 11
-35.050388
 21
88.840452
  0
LINE
  8
寸法
  6
BYBLOCK
 62
     0
 10
-61.717055
 20
88.840452
 11
-35.050388
 21
88.840452
  0
POINT
  8
寸法
 62
     0
 10
-35.050388
 20
88.840452
  0
TEXT
  7
TextStyle03
  8
寸法
  6
CONTINUOUS
 62
     0
 10
-50.8375
 20
89.2
  1
800
 40
3.0
 72
     5
 11
-45.9625
 21
89.2
  0
ENDBLK
  0
BLOCK
  2
*DIM_0016
 70
    65
 10
0.0
 20
0.0
  0
LINE
  8
寸法
  6
BYBLOCK
 62
     0
 10
-8.383723
 20
59.73238
 11
-8.383723
 21
88.840452
  0
LINE
  8
寸法
  6
BYBLOCK
 62
     0
 10
-35.050388
 20
88.840452
 11
-8.383723
 21
88.840452
  0
POINT
  8
寸法
 62
     0
 10
-8.383723
 20
88.840452
  0
TEXT
  7
TextStyle03
  8
寸法
  6
CONTINUOUS
 62
     0
 10
-24.1625
 20
89.2
  1
800
 40
3.0
 72
     5
 11
-19.2875
 21
89.2
  0
ENDBLK
  0
BLOCK
  2
*DIM_0017
 70
    65
 10
0.0
 20
0.0
  0
LINE
  8
寸法
  6
BYBLOCK
 62
     0
 10
18.282945
 20
59.73238
 11
18.282945
 21
88.840452
  0
LINE
  8
寸法
  6
BYBLOCK
 62
     0
 10
-8.383723
 20
88.840452
 11
18.282945
 21
88.840452
  0
POINT
  8
寸法
 62
     0
 10
18.282945
 20
88.840452
  0
TEXT
  7
TextStyle03
  8
寸法
  6
CONTINUOUS
 62
     0
 10
2.4875
 20
89.2
  1
800
 40
3.0
 72
     5
 11
7.3625
 21
89.2
  0
ENDBLK
  0
BLOCK
  2
*DIM_0018
 70
    65
 10
0.0
 20
0.0
  0
LINE
  8
寸法
  6
BYBLOCK
 62
     0
 10
44.949612
 20
59.73238
 11
44.949612
 21
88.840452
  0
LINE
  8
寸法
  6
BYBLOCK
 62
     0
 10
18.282945
 20
88.840452
 11
44.949612
 21
88.840452
  0
POINT
  8
寸法
 62
     0
 10
44.949612
 20
88.840452
  0
TEXT
  7
TextStyle03
  8
寸法
  6
CONTINUOUS
 62
     0
 10
29.1625
 20
89.2
  1
800
 40
3.0
 72
     5
 11
34.0375
 21
89.2
  0
ENDBLK
  0
BLOCK
  2
*DIM_0019
 70
    65
 10
0.0
 20
0.0
  0
LINE
  8
寸法
  6
CONTINUOUS
 10
141.957653
 20
70.502383
 11
149.607703
 21
70.502383
  0
POINT
  8
寸法
 10
141.957653
 20
70.502383
  0
POINT
  8
寸法
 10
149.607703
 20
70.502383
  0
TEXT
  7
TextStyle03
  8
寸法
  6
CONTINUOUS
 10
141.65
 20
70.85
  1
229.5
 40
3.0
 72
     5
 11
149.9
 21
70.85
  0
ENDBLK
  0
BLOCK
  2
*GRP_0020
 70
    65
 10
0.0
 20
0.0
  0
LINE
  8
補助線
  6
BYBLOCK
 62
    64
 10
-76.655127
 20
-82.267198
 11
-76.778972
 21
-82.378733
  0
LINE
  8
補助線
  6
BYBLOCK
 62
    64
 10
-76.77282
 20
-82.26104
 11
-76.661283
 21
-82.384887
  0
LINE
  8
補助線
  6
BYBLOCK
 62
    64
 10
-65.940025
 20
-72.617173
 11
-66.06387
 21
-72.728708
  0
LINE
  8
補助線
  6
BYBLOCK
 62
    64
 10
-66.057715
 20
-72.611015
 11
-65.94618
 21
-72.734862
  0
LINE
  8
補助線
  6
BYBLOCK
 62
    64
 10
-55.348768
 20
-63.078683
 11
-55.224925
 21
-62.967148
  0
LINE
  8
補助線
  6
BYBLOCK
 62
    64
 10
-55.342615
 20
-62.96099
 11
-55.231077
 21
-63.084837
  0
LINE
  8
型材断面
  6
CONTINUOUS
 10
-77.522418
 20
-81.92681
 11
-77.559345
 21
-82.63295
  0
LINE
  8
型材断面
  6
CONTINUOUS
 10
-77.559345
 20
-82.63295
 11
-77.113205
 21
-83.128333
  0
LINE
  8
型材断面
  6
CONTINUOUS
 10
-77.113205
 20
-83.128333
 11
-76.407063
 21
-83.165262
  0
LINE
  8
型材断面
  6
CONTINUOUS
 10
-55.59683
 20
-62.18062
 11
-54.89069
 21
-62.21755
  0
LINE
  8
型材断面
  6
CONTINUOUS
 10
-54.89069
 20
-62.21755
 11
-54.444548
 21
-62.71293
  0
LINE
  8
型材断面
  6
CONTINUOUS
 10
-54.444548
 20
-62.71293
 11
-54.481477
 21
-63.419075
  0
LINE
  8
型材断面
  6
CONTINUOUS
 10
-76.407063
 20
-83.165262
 11
-54.481477
 21
-63.419075
  0
LINE
  8
型材断面
  6
CONTINUOUS
 10
-77.522418
 20
-81.92681
 11
-55.59683
 21
-62.18062
  0
CIRCLE
  8
ボルト／ビス
  6
CONTINUOUS
 10
-76.71705
 20
-82.322965
 40
0.250185
  0
CIRCLE
  8
ボルト／ビス
  6
CONTINUOUS
 10
-76.71705
 20
-82.322965
 40
0.301025
  0
LINE
  8
ボルト／ビス
  6
CONTINUOUS
 62
    64
 10
-76.961762
 20
-82.37501
 11
-76.884477
 21
-82.13706
  0
LINE
  8
ボルト／ビス
  6
CONTINUOUS
 62
    64
 10
-76.639765
 20
-82.085015
 11
-76.884477
 21
-82.13706
  0
LINE
  8
ボルト／ビス
  6
CONTINUOUS
 62
    64
 10
-76.794335
 20
-82.560915
 11
-76.549622
 21
-82.50887
  0
LINE
  8
ボルト／ビス
  6
CONTINUOUS
 62
    64
 10
-76.472337
 20
-82.27092
 11
-76.549622
 21
-82.50887
  0
LINE
  8
ボルト／ビス
  6
CONTINUOUS
 62
    64
 10
-76.961762
 20
-82.37501
 11
-76.794335
 21
-82.560915
  0
LINE
  8
ボルト／ビス
  6
CONTINUOUS
 62
    64
 10
-76.639765
 20
-82.085015
 11
-76.472337
 21
-82.27092
  0
CIRCLE
  8
ボルト／ビス
  6
CONTINUOUS
 62
    64
 10
-76.71705
 20
-82.322965
 40
0.216668
  0
CIRCLE
  8
ボルト／ビス
  6
CONTINUOUS
 10
-66.001948
 20
-72.672943
 40
0.250185
  0
CIRCLE
  8
ボルト／ビス
  6
CONTINUOUS
 10
-66.001948
 20
-72.672943
 40
0.301025
  0
LINE
  8
ボルト／ビス
  6
CONTINUOUS
 62
    64
 10
-66.246662
 20
-72.724985
 11
-66.169375
 21
-72.487035
  0
LINE
  8
ボルト／ビス
  6
CONTINUOUS
 62
    64
 10
-65.924662
 20
-72.434993
 11
-66.169375
 21
-72.487035
  0
LINE
  8
ボルト／ビス
  6
CONTINUOUS
 62
    64
 10
-66.079235
 20
-72.91089
 11
-65.834523
 21
-72.858845
  0
LINE
  8
ボルト／ビス
  6
CONTINUOUS
 62
    64
 10
-65.757235
 20
-72.620897
 11
-65.834523
 21
-72.858845
  0
LINE
  8
ボルト／ビス
  6
CONTINUOUS
 62
    64
 10
-66.246662
 20
-72.724985
 11
-66.079235
 21
-72.91089
  0
LINE
  8
ボルト／ビス
  6
CONTINUOUS
 62
    64
 10
-65.924662
 20
-72.434993
 11
-65.757235
 21
-72.620897
  0
CIRCLE
  8
ボルト／ビス
  6
CONTINUOUS
 62
    64
 10
-66.001948
 20
-72.672943
 40
0.216668
  0
CIRCLE
  8
ボルト／ビス
  6
CONTINUOUS
 10
-55.286848
 20
-63.022915
 40
0.250185
  0
CIRCLE
  8
ボルト／ビス
  6
CONTINUOUS
 10
-55.286848
 20
-63.022915
 40
0.301025
  0
LINE
  8
ボルト／ビス
  6
CONTINUOUS
 62
    64
 10
-55.20956
 20
-62.784965
 11
-55.454273
 21
-62.83701
  0
LINE
  8
ボルト／ビス
  6
CONTINUOUS
 62
    64
 10
-55.531557
 20
-63.07496
 11
-55.454273
 21
-62.83701
  0
LINE
  8
ボルト／ビス
  6
CONTINUOUS
 62
    64
 10
-55.042133
 20
-62.97087
 11
-55.11942
 21
-63.20882
  0
LINE
  8
ボルト／ビス
  6
CONTINUOUS
 62
    64
 10
-55.364132
 20
-63.260865
 11
-55.11942
 21
-63.20882
  0
LINE
  8
ボルト／ビス
  6
CONTINUOUS
 62
    64
 10
-55.20956
 20
-62.784965
 11
-55.042133
 21
-62.97087
  0
LINE
  8
ボルト／ビス
  6
CONTINUOUS
 62
    64
 10
-55.531557
 20
-63.07496
 11
-55.364132
 21
-63.260865
  0
CIRCLE
  8
ボルト／ビス
  6
CONTINUOUS
 62
    64
 10
-55.286848
 20
-63.022915
 40
0.216668
  0
ENDBLK
  0
BLOCK
  2
*GRP_0021
 70
    65
 10
0.0
 20
0.0
  0
LINE
  8
補助線
  6
BYBLOCK
 62
    64
 10
-55.348768
 20
-82.267198
 11
-55.224922
 21
-82.378733
  0
LINE
  8
補助線
  6
BYBLOCK
 62
    64
 10
-55.231075
 20
-82.26104
 11
-55.342612
 21
-82.384887
  0
LINE
  8
補助線
  6
BYBLOCK
 62
    64
 10
-66.06387
 20
-72.617173
 11
-65.940025
 21
-72.728708
  0
LINE
  8
補助線
  6
BYBLOCK
 62
    64
 10
-65.94618
 20
-72.611015
 11
-66.057715
 21
-72.734862
  0
LINE
  8
補助線
  6
BYBLOCK
 62
    64
 10
-76.655127
 20
-63.078683
 11
-76.77897
 21
-62.967148
  0
LINE
  8
補助線
  6
BYBLOCK
 62
    64
 10
-76.66128
 20
-62.96099
 11
-76.772818
 21
-63.084837
  0
LINE
  8
型材断面
  6
CONTINUOUS
 10
-54.481477
 20
-81.92681
 11
-54.44455
 21
-82.63295
  0
LINE
  8
型材断面
  6
CONTINUOUS
 10
-54.44455
 20
-82.63295
 11
-54.89069
 21
-83.128333
  0
LINE
  8
型材断面
  6
CONTINUOUS
 10
-54.89069
 20
-83.128333
 11
-55.596832
 21
-83.165262
  0
LINE
  8
型材断面
  6
CONTINUOUS
 10
-76.407065
 20
-62.18062
 11
-77.113205
 21
-62.21755
  0
LINE
  8
型材断面
  6
CONTINUOUS
 10
-77.113205
 20
-62.21755
 11
-77.559347
 21
-62.71293
  0
LINE
  8
型材断面
  6
CONTINUOUS
 10
-77.559347
 20
-62.71293
 11
-77.522418
 21
-63.419075
  0
LINE
  8
型材断面
  6
CONTINUOUS
 10
-55.596832
 20
-83.165262
 11
-77.522418
 21
-63.419075
  0
LINE
  8
型材断面
  6
CONTINUOUS
 10
-54.481477
 20
-81.92681
 11
-76.407065
 21
-62.18062
  0
CIRCLE
  8
ボルト／ビス
  6
CONTINUOUS
 10
-55.286845
 20
-82.322965
 40
0.250185
  0
CIRCLE
  8
ボルト／ビス
  6
CONTINUOUS
 10
-55.286845
 20
-82.322965
 40
0.301025
  0
LINE
  8
ボルト／ビス
  6
CONTINUOUS
 62
    64
 10
-55.042133
 20
-82.37501
 11
-55.119417
 21
-82.13706
  0
LINE
  8
ボルト／ビス
  6
CONTINUOUS
 62
    64
 10
-55.36413
 20
-82.085015
 11
-55.119417
 21
-82.13706
  0
LINE
  8
ボルト／ビス
  6
CONTINUOUS
 62
    64
 10
-55.20956
 20
-82.560915
 11
-55.454273
 21
-82.50887
  0
LINE
  8
ボルト／ビス
  6
CONTINUOUS
 62
    64
 10
-55.531557
 20
-82.27092
 11
-55.454273
 21
-82.50887
  0
LINE
  8
ボルト／ビス
  6
CONTINUOUS
 62
    64
 10
-55.042133
 20
-82.37501
 11
-55.20956
 21
-82.560915
  0
LINE
  8
ボルト／ビス
  6
CONTINUOUS
 62
    64
 10
-55.36413
 20
-82.085015
 11
-55.531557
 21
-82.27092
  0
CIRCLE
  8
ボルト／ビス
  6
CONTINUOUS
 62
    64
 10
-55.286845
 20
-82.322965
 40
0.216668
  0
CIRCLE
  8
ボルト／ビス
  6
CONTINUOUS
 10
-66.001948
 20
-72.672943
 40
0.250185
  0
CIRCLE
  8
ボルト／ビス
  6
CONTINUOUS
 10
-66.001948
 20
-72.672943
 40
0.301025
  0
LINE
  8
ボルト／ビス
  6
CONTINUOUS
 62
    64
 10
-65.757233
 20
-72.724985
 11
-65.83452
 21
-72.487035
  0
LINE
  8
ボルト／ビス
  6
CONTINUOUS
 62
    64
 10
-66.079233
 20
-72.434993
 11
-65.83452
 21
-72.487035
  0
LINE
  8
ボルト／ビス
  6
CONTINUOUS
 62
    64
 10
-65.92466
 20
-72.91089
 11
-66.169373
 21
-72.858845
  0
LINE
  8
ボルト／ビス
  6
CONTINUOUS
 62
    64
 10
-66.24666
 20
-72.620897
 11
-66.169373
 21
-72.858845
  0
LINE
  8
ボルト／ビス
  6
CONTINUOUS
 62
    64
 10
-65.757233
 20
-72.724985
 11
-65.92466
 21
-72.91089
  0
LINE
  8
ボルト／ビス
  6
CONTINUOUS
 62
    64
 10
-66.079233
 20
-72.434993
 11
-66.24666
 21
-72.620897
  0
CIRCLE
  8
ボルト／ビス
  6
CONTINUOUS
 62
    64
 10
-66.001948
 20
-72.672943
 40
0.216668
  0
CIRCLE
  8
ボルト／ビス
  6
CONTINUOUS
 10
-76.717047
 20
-63.022915
 40
0.250185
  0
CIRCLE
  8
ボルト／ビス
  6
CONTINUOUS
 10
-76.717047
 20
-63.022915
 40
0.301025
  0
LINE
  8
ボルト／ビス
  6
CONTINUOUS
 62
    64
 10
-76.794335
 20
-62.784965
 11
-76.549622
 21
-62.83701
  0
LINE
  8
ボルト／ビス
  6
CONTINUOUS
 62
    64
 10
-76.472337
 20
-63.07496
 11
-76.549622
 21
-62.83701
  0
LINE
  8
ボルト／ビス
  6
CONTINUOUS
 62
    64
 10
-76.961762
 20
-62.97087
 11
-76.884475
 21
-63.20882
  0
LINE
  8
ボルト／ビス
  6
CONTINUOUS
 62
    64
 10
-76.639762
 20
-63.260865
 11
-76.884475
 21
-63.20882
  0
LINE
  8
ボルト／ビス
  6
CONTINUOUS
 62
    64
 10
-76.794335
 20
-62.784965
 11
-76.961762
 21
-62.97087
  0
LINE
  8
ボルト／ビス
  6
CONTINUOUS
 62
    64
 10
-76.472337
 20
-63.07496
 11
-76.639762
 21
-63.260865
  0
CIRCLE
  8
ボルト／ビス
  6
CONTINUOUS
 62
    64
 10
-76.717047
 20
-63.022915
 40
0.216668
  0
ENDBLK
  0
BLOCK
  2
*GRP_0022
 70
    65
 10
0.0
 20
0.0
  0
LINE
  8
補助線
  6
BYBLOCK
 62
    64
 10
33.221027
 20
-82.267198
 11
33.344873
 21
-82.378733
  0
LINE
  8
補助線
  6
BYBLOCK
 62
    64
 10
33.33872
 20
-82.26104
 11
33.227182
 21
-82.384887
  0
LINE
  8
補助線
  6
BYBLOCK
 62
    64
 10
22.505925
 20
-72.617173
 11
22.62977
 21
-72.728708
  0
LINE
  8
補助線
  6
BYBLOCK
 62
    64
 10
22.623615
 20
-72.611015
 11
22.51208
 21
-72.734862
  0
LINE
  8
補助線
  6
BYBLOCK
 62
    64
 10
11.914667
 20
-63.078683
 11
11.790825
 21
-62.967148
  0
LINE
  8
補助線
  6
BYBLOCK
 62
    64
 10
11.908515
 20
-62.96099
 11
11.796977
 21
-63.084837
  0
LINE
  8
型材断面
  6
CONTINUOUS
 10
34.088318
 20
-81.92681
 11
34.125245
 21
-82.63295
  0
LINE
  8
型材断面
  6
CONTINUOUS
 10
34.125245
 20
-82.63295
 11
33.679105
 21
-83.128333
  0
LINE
  8
型材断面
  6
CONTINUOUS
 10
33.679105
 20
-83.128333
 11
32.972962
 21
-83.165262
  0
LINE
  8
型材断面
  6
CONTINUOUS
 10
12.16273
 20
-62.18062
 11
11.45659
 21
-62.21755
  0
LINE
  8
型材断面
  6
CONTINUOUS
 10
11.45659
 20
-62.21755
 11
11.010448
 21
-62.71293
  0
LINE
  8
型材断面
  6
CONTINUOUS
 10
11.010448
 20
-62.71293
 11
11.047378
 21
-63.419075
  0
LINE
  8
型材断面
  6
CONTINUOUS
 10
32.972962
 20
-83.165262
 11
11.047378
 21
-63.419075
  0
LINE
  8
型材断面
  6
CONTINUOUS
 10
34.088318
 20
-81.92681
 11
12.16273
 21
-62.18062
  0
CIRCLE
  8
ボルト／ビス
  6
CONTINUOUS
 10
33.28295
 20
-82.322965
 40
0.250185
  0
CIRCLE
  8
ボルト／ビス
  6
CONTINUOUS
 10
33.28295
 20
-82.322965
 40
0.301025
  0
LINE
  8
ボルト／ビス
  6
CONTINUOUS
 62
    64
 10
33.527663
 20
-82.37501
 11
33.450377
 21
-82.13706
  0
LINE
  8
ボルト／ビス
  6
CONTINUOUS
 62
    64
 10
33.205665
 20
-82.085015
 11
33.450377
 21
-82.13706
  0
LINE
  8
ボルト／ビス
  6
CONTINUOUS
 62
    64
 10
33.360235
 20
-82.560915
 11
33.115523
 21
-82.50887
  0
LINE
  8
ボルト／ビス
  6
CONTINUOUS
 62
    64
 10
33.038237
 20
-82.27092
 11
33.115523
 21
-82.50887
  0
LINE
  8
ボルト／ビス
  6
CONTINUOUS
 62
    64
 10
33.527663
 20
-82.37501
 11
33.360235
 21
-82.560915
  0
LINE
  8
ボルト／ビス
  6
CONTINUOUS
 62
    64
 10
33.205665
 20
-82.085015
 11
33.038237
 21
-82.27092
  0
CIRCLE
  8
ボルト／ビス
  6
CONTINUOUS
 62
    64
 10
33.28295
 20
-82.322965
 40
0.216668
  0
CIRCLE
  8
ボルト／ビス
  6
CONTINUOUS
 10
22.567848
 20
-72.672943
 40
0.250185
  0
CIRCLE
  8
ボルト／ビス
  6
CONTINUOUS
 10
22.567848
 20
-72.672943
 40
0.301025
  0
LINE
  8
ボルト／ビス
  6
CONTINUOUS
 62
    64
 10
22.812563
 20
-72.724985
 11
22.735275
 21
-72.487035
  0
LINE
  8
ボルト／ビス
  6
CONTINUOUS
 62
    64
 10
22.490562
 20
-72.434993
 11
22.735275
 21
-72.487035
  0
LINE
  8
ボルト／ビス
  6
CONTINUOUS
 62
    64
 10
22.645135
 20
-72.91089
 11
22.400423
 21
-72.858845
  0
LINE
  8
ボルト／ビス
  6
CONTINUOUS
 62
    64
 10
22.323135
 20
-72.620897
 11
22.400423
 21
-72.858845
  0
LINE
  8
ボルト／ビス
  6
CONTINUOUS
 62
    64
 10
22.812563
 20
-72.724985
 11
22.645135
 21
-72.91089
  0
LINE
  8
ボルト／ビス
  6
CONTINUOUS
 62
    64
 10
22.490562
 20
-72.434993
 11
22.323135
 21
-72.620897
  0
CIRCLE
  8
ボルト／ビス
  6
CONTINUOUS
 62
    64
 10
22.567848
 20
-72.672943
 40
0.216668
  0
CIRCLE
  8
ボルト／ビス
  6
CONTINUOUS
 10
11.852748
 20
-63.022915
 40
0.250185
  0
CIRCLE
  8
ボルト／ビス
  6
CONTINUOUS
 10
11.852748
 20
-63.022915
 40
0.301025
  0
LINE
  8
ボルト／ビス
  6
CONTINUOUS
 62
    64
 10
11.77546
 20
-62.784965
 11
12.020173
 21
-62.83701
  0
LINE
  8
ボルト／ビス
  6
CONTINUOUS
 62
    64
 10
12.097458
 20
-63.07496
 11
12.020173
 21
-62.83701
  0
LINE
  8
ボルト／ビス
  6
CONTINUOUS
 62
    64
 10
11.608033
 20
-62.97087
 11
11.68532
 21
-63.20882
  0
LINE
  8
ボルト／ビス
  6
CONTINUOUS
 62
    64
 10
11.930033
 20
-63.260865
 11
11.68532
 21
-63.20882
  0
LINE
  8
ボルト／ビス
  6
CONTINUOUS
 62
    64
 10
11.77546
 20
-62.784965
 11
11.608033
 21
-62.97087
  0
LINE
  8
ボルト／ビス
  6
CONTINUOUS
 62
    64
 10
12.097458
 20
-63.07496
 11
11.930033
 21
-63.260865
  0
CIRCLE
  8
ボルト／ビス
  6
CONTINUOUS
 62
    64
 10
11.852748
 20
-63.022915
 40
0.216668
  0
ENDBLK
  0
BLOCK
  2
*GRP_0023
 70
    65
 10
0.0
 20
0.0
  0
LINE
  8
補助線
  6
BYBLOCK
 62
    64
 10
11.914667
 20
-82.267198
 11
11.790822
 21
-82.378733
  0
LINE
  8
補助線
  6
BYBLOCK
 62
    64
 10
11.796975
 20
-82.26104
 11
11.908512
 21
-82.384887
  0
LINE
  8
補助線
  6
BYBLOCK
 62
    64
 10
22.62977
 20
-72.617173
 11
22.505925
 21
-72.728708
  0
LINE
  8
補助線
  6
BYBLOCK
 62
    64
 10
22.51208
 20
-72.611015
 11
22.623615
 21
-72.734862
  0
LINE
  8
補助線
  6
BYBLOCK
 62
    64
 10
33.221027
 20
-63.078683
 11
33.34487
 21
-62.967148
  0
LINE
  8
補助線
  6
BYBLOCK
 62
    64
 10
33.22718
 20
-62.96099
 11
33.338717
 21
-63.084837
  0
LINE
  8
型材断面
  6
CONTINUOUS
 10
11.047378
 20
-81.92681
 11
11.01045
 21
-82.63295
  0
LINE
  8
型材断面
  6
CONTINUOUS
 10
11.01045
 20
-82.63295
 11
11.45659
 21
-83.128333
  0
LINE
  8
型材断面
  6
CONTINUOUS
 10
11.45659
 20
-83.128333
 11
12.162732
 21
-83.165262
  0
LINE
  8
型材断面
  6
CONTINUOUS
 10
32.972965
 20
-62.18062
 11
33.679105
 21
-62.21755
  0
LINE
  8
型材断面
  6
CONTINUOUS
 10
33.679105
 20
-62.21755
 11
34.125247
 21
-62.71293
  0
LINE
  8
型材断面
  6
CONTINUOUS
 10
34.125247
 20
-62.71293
 11
34.088318
 21
-63.419075
  0
LINE
  8
型材断面
  6
CONTINUOUS
 10
12.162732
 20
-83.165262
 11
34.088318
 21
-63.419075
  0
LINE
  8
型材断面
  6
CONTINUOUS
 10
11.047378
 20
-81.92681
 11
32.972965
 21
-62.18062
  0
CIRCLE
  8
ボルト／ビス
  6
CONTINUOUS
 10
11.852745
 20
-82.322965
 40
0.250185
  0
CIRCLE
  8
ボルト／ビス
  6
CONTINUOUS
 10
11.852745
 20
-82.322965
 40
0.301025
  0
LINE
  8
ボルト／ビス
  6
CONTINUOUS
 62
    64
 10
11.608033
 20
-82.37501
 11
11.685318
 21
-82.13706
  0
LINE
  8
ボルト／ビス
  6
CONTINUOUS
 62
    64
 10
11.93003
 20
-82.085015
 11
11.685318
 21
-82.13706
  0
LINE
  8
ボルト／ビス
  6
CONTINUOUS
 62
    64
 10
11.77546
 20
-82.560915
 11
12.020173
 21
-82.50887
  0
LINE
  8
ボルト／ビス
  6
CONTINUOUS
 62
    64
 10
12.097458
 20
-82.27092
 11
12.020173
 21
-82.50887
  0
LINE
  8
ボルト／ビス
  6
CONTINUOUS
 62
    64
 10
11.608033
 20
-82.37501
 11
11.77546
 21
-82.560915
  0
LINE
  8
ボルト／ビス
  6
CONTINUOUS
 62
    64
 10
11.93003
 20
-82.085015
 11
12.097458
 21
-82.27092
  0
CIRCLE
  8
ボルト／ビス
  6
CONTINUOUS
 62
    64
 10
11.852745
 20
-82.322965
 40
0.216668
  0
CIRCLE
  8
ボルト／ビス
  6
CONTINUOUS
 10
22.567848
 20
-72.672943
 40
0.250185
  0
CIRCLE
  8
ボルト／ビス
  6
CONTINUOUS
 10
22.567848
 20
-72.672943
 40
0.301025
  0
LINE
  8
ボルト／ビス
  6
CONTINUOUS
 62
    64
 10
22.323133
 20
-72.724985
 11
22.40042
 21
-72.487035
  0
LINE
  8
ボルト／ビス
  6
CONTINUOUS
 62
    64
 10
22.645132
 20
-72.434993
 11
22.40042
 21
-72.487035
  0
LINE
  8
ボルト／ビス
  6
CONTINUOUS
 62
    64
 10
22.49056
 20
-72.91089
 11
22.735273
 21
-72.858845
  0
LINE
  8
ボルト／ビス
  6
CONTINUOUS
 62
    64
 10
22.81256
 20
-72.620897
 11
22.735273
 21
-72.858845
  0
LINE
  8
ボルト／ビス
  6
CONTINUOUS
 62
    64
 10
22.323133
 20
-72.724985
 11
22.49056
 21
-72.91089
  0
LINE
  8
ボルト／ビス
  6
CONTINUOUS
 62
    64
 10
22.645132
 20
-72.434993
 11
22.81256
 21
-72.620897
  0
CIRCLE
  8
ボルト／ビス
  6
CONTINUOUS
 62
    64
 10
22.567848
 20
-72.672943
 40
0.216668
  0
CIRCLE
  8
ボルト／ビス
  6
CONTINUOUS
 10
33.282948
 20
-63.022915
 40
0.250185
  0
CIRCLE
  8
ボルト／ビス
  6
CONTINUOUS
 10
33.282948
 20
-63.022915
 40
0.301025
  0
LINE
  8
ボルト／ビス
  6
CONTINUOUS
 62
    64
 10
33.360235
 20
-62.784965
 11
33.115523
 21
-62.83701
  0
LINE
  8
ボルト／ビス
  6
CONTINUOUS
 62
    64
 10
33.038237
 20
-63.07496
 11
33.115523
 21
-62.83701
  0
LINE
  8
ボルト／ビス
  6
CONTINUOUS
 62
    64
 10
33.527663
 20
-62.97087
 11
33.450375
 21
-63.20882
  0
LINE
  8
ボルト／ビス
  6
CONTINUOUS
 62
    64
 10
33.205662
 20
-63.260865
 11
33.450375
 21
-63.20882
  0
LINE
  8
ボルト／ビス
  6
CONTINUOUS
 62
    64
 10
33.360235
 20
-62.784965
 11
33.527663
 21
-62.97087
  0
LINE
  8
ボルト／ビス
  6
CONTINUOUS
 62
    64
 10
33.038237
 20
-63.07496
 11
33.205662
 21
-63.260865
  0
CIRCLE
  8
ボルト／ビス
  6
CONTINUOUS
 62
    64
 10
33.282948
 20
-63.022915
 40
0.216668
  0
ENDBLK
  0
BLOCK
  2
*DIM_0024
 70
    65
 10
0.0
 20
0.0
  0
LINE
  8
寸法
  6
CONTINUOUS
 10
66.51819
 20
-76.746248
 11
66.51819
 21
-84.396298
  0
POINT
  8
寸法
 10
66.51819
 20
-76.746248
  0
POINT
  8
寸法
 10
66.51819
 20
-84.396298
  0
TEXT
  7
TextStyle03
  8
寸法
  6
CONTINUOUS
 10
70.775
 20
-84.7
  1
229.5
 40
3.0
 50
90.0
 72
     5
 11
70.775
 21
-76.45
  0
ENDBLK
  0
BLOCK
  2
*DIM_0025
 70
    65
 10
0.0
 20
0.0
  0
LINE
  8
寸法
  6
CONTINUOUS
 10
148.3695
 20
-41.172475
 11
111.9095
 21
-41.172475
  0
POINT
  8
寸法
 10
148.3695
 20
-41.172475
  0
POINT
  8
寸法
 10
111.9095
 20
-41.172475
  0
TEXT
  7
TextStyle03
  8
寸法
  6
CONTINUOUS
 10
125.15625
 20
-40.825
  1
1093.8
 40
3.0
 72
     5
 11
135.09375
 21
-40.825
  0
ENDBLK
  0
BLOCK
  2
*DIM_0026
 70
    65
 10
0.0
 20
0.0
  0
LINE
  8
寸法
  6
BYBLOCK
 62
     0
 10
66.51819
 20
-76.746248
 11
66.51819
 21
-60.07958
  0
POINT
  8
寸法
 62
     0
 10
66.51819
 20
-76.746248
  0
POINT
  8
寸法
 62
     0
 10
66.51819
 20
-60.07958
  0
TEXT
  7
TextStyle03
  8
寸法
  6
CONTINUOUS
 62
     0
 10
66.1
 20
-58.19375
  1
上昇440以上
 40
3.0
 50
90.0
 72
     5
 11
66.1
 21
-40.00625
  0
ENDBLK
  0
ENDSEC
  0
SECTION
  2
ENTITIES
  0
POLYLINE
  8
通り芯
  6
CONTINUOUS
 66
     1
 70
     1
  0
VERTEX
  8
通り芯
 10
-210.0
 20
-148.5
  0
VERTEX
  8
通り芯
 10
210.0
 20
-148.5
  0
VERTEX
  8
通り芯
 10
210.0
 20
148.5
  0
VERTEX
  8
通り芯
 10
-210.0
 20
148.5
  0
SEQEND
  0
INSERT
  2
*GRP_0001
  8
型材断面
  6
CONTINUOUS
 10
0.0
 20
0.0
  0
LINE
  8
型材断面
  6
DASHDOT
 10
53.282945
 20
-87.251428
 11
53.282945
 21
56.73238
  0
LINE
  8
型材断面
  6
DASHDOT
 10
-21.717055
 20
-87.251428
 11
-21.717055
 21
56.73238
  0
LINE
  8
型材断面
  6
DASHDOT
 10
-96.717055
 20
-87.251428
 11
-96.717055
 21
56.73238
  0
POLYLINE
  8
型材断面
  6
CONTINUOUS
 66
     1
 70
     1
  0
VERTEX
  8
型材断面
 10
-12.226177
 20
66.508305
  0
VERTEX
  8
型材断面
 10
-30.998107
 20
66.508305
  0
VERTEX
  8
型材断面
 10
-30.998107
 20
71.245147
  0
VERTEX
  8
型材断面
 10
-12.226177
 20
71.245147
  0
SEQEND
  0
POLYLINE
  8
型材断面
  6
CONTINUOUS
 66
     1
 70
     1
  0
VERTEX
  8
型材断面
 10
-12.226177
 20
3.623125
  0
VERTEX
  8
型材断面
 10
-30.998107
 20
3.623125
  0
VERTEX
  8
型材断面
 10
-30.998107
 20
-1.113717
  0
VERTEX
  8
型材断面
 10
-12.226177
 20
-1.113717
  0
SEQEND
  0
LINE
  8
型材断面
  6
DASHDOT
 10
150.959707
 20
13.399048
 11
-96.717055
 21
13.399048
  0
LINE
  8
型材断面
  6
DASHDOT
 10
150.959707
 20
35.065715
 11
-96.717055
 21
35.065715
  0
LINE
  8
型材断面
  6
DASHDOT
 10
150.959707
 20
56.73238
 11
-96.717055
 21
56.73238
  0
LINE
  8
型材断面
  6
DASHDOT
 10
-21.717055
 20
13.399048
 11
-21.717055
 21
56.73238
  0
LINE
  8
型材断面
  6
CONTINUOUS
 10
-99.347185
 20
35.065715
 11
-101.937692
 21
36.561345
  0
LINE
  8
型材断面
  6
CONTINUOUS
 10
-99.347185
 20
35.065715
 11
-101.937692
 21
33.570085
  0
LINE
  8
型材断面
  6
CONTINUOUS
 10
-101.937692
 20
33.570085
 11
-101.937692
 21
36.561345
  0
LINE
  8
型材断面
  6
CONTINUOUS
 10
-80.050388
 20
59.36251
 11
-81.546018
 21
61.953017
  0
LINE
  8
型材断面
  6
CONTINUOUS
 10
-80.050388
 20
59.36251
 11
-78.554757
 21
61.953017
  0
LINE
  8
型材断面
  6
CONTINUOUS
 10
-78.554757
 20
61.953017
 11
-81.546018
 21
61.953017
  0
LINE
  8
型材断面
  6
CONTINUOUS
 10
-137.569262
 20
94.709852
 11
-136.973208
 21
92.119345
  0
LINE
  8
型材断面
  6
CONTINUOUS
 10
-137.569262
 20
94.709852
 11
-138.16532
 21
92.119345
  0
LINE
  8
型材断面
  6
CONTINUOUS
 10
-138.16532
 20
92.119345
 11
-136.973208
 21
92.119345
  0
LINE
  8
型材断面
  6
CONTINUOUS
 10
-143.59185
 20
88.840452
 11
-97.350072
 21
88.840452
  0
LINE
  8
型材断面
  6
CONTINUOUS
 10
-137.569262
 20
101.239727
 11
-139.064893
 21
98.64922
  0
LINE
  8
型材断面
  6
CONTINUOUS
 10
-137.569262
 20
101.239727
 11
-136.073632
 21
98.64922
  0
LINE
  8
型材断面
  6
CONTINUOUS
 10
-136.073632
 20
98.64922
 11
-139.064893
 21
98.64922
  0
LINE
  8
型材断面
  6
CONTINUOUS
 10
-143.59185
 20
97.710625
 11
-97.350072
 21
97.710625
  0
LINE
  8
型材断面
  6
CONTINUOUS
 10
-143.59185
 20
83.05242
 11
-97.350072
 21
83.05242
  0
LINE
  8
型材断面
  6
CONTINUOUS
 10
-80.050388
 20
10.76892
 11
-81.546018
 21
8.178413
  0
LINE
  8
型材断面
  6
CONTINUOUS
 10
-80.050388
 20
10.76892
 11
-78.554757
 21
8.178413
  0
LINE
  8
型材断面
  6
CONTINUOUS
 10
-78.554757
 20
8.178413
 11
-81.546018
 21
8.178413
  0
LINE
  8
型材断面
  6
CONTINUOUS
 10
55.913075
 20
35.065715
 11
58.503583
 21
36.561345
  0
LINE
  8
型材断面
  6
CONTINUOUS
 10
55.913075
 20
35.065715
 11
58.503583
 21
33.570085
  0
LINE
  8
型材断面
  6
CONTINUOUS
 10
58.503583
 20
33.570085
 11
58.503583
 21
36.561345
  0
LINE
  8
型材断面
  6
CONTINUOUS
 10
36.616278
 20
59.36251
 11
38.111908
 21
61.953017
  0
LINE
  8
型材断面
  6
CONTINUOUS
 10
36.616278
 20
59.36251
 11
35.120648
 21
61.953017
  0
LINE
  8
型材断面
  6
CONTINUOUS
 10
35.120648
 20
61.953017
 11
38.111908
 21
61.953017
  0
LINE
  8
型材断面
  6
CONTINUOUS
 10
36.616278
 20
10.76892
 11
38.111908
 21
8.178413
  0
LINE
  8
型材断面
  6
CONTINUOUS
 10
36.616278
 20
10.76892
 11
35.120648
 21
8.178413
  0
LINE
  8
型材断面
  6
CONTINUOUS
 10
35.120648
 20
8.178413
 11
38.111908
 21
8.178413
  0
LINE
  8
型材断面
  6
CONTINUOUS
 10
-21.717055
 20
59.36251
 11
-20.221425
 21
61.953017
  0
LINE
  8
型材断面
  6
CONTINUOUS
 10
-21.717055
 20
59.36251
 11
-23.212685
 21
61.953017
  0
LINE
  8
型材断面
  6
CONTINUOUS
 10
-23.212685
 20
61.953017
 11
-20.221425
 21
61.953017
  0
LINE
  8
型材断面
  6
CONTINUOUS
 10
-21.717055
 20
10.76892
 11
-20.221425
 21
8.178413
  0
LINE
  8
型材断面
  6
CONTINUOUS
 10
-21.717055
 20
10.76892
 11
-23.212685
 21
8.178413
  0
LINE
  8
型材断面
  6
CONTINUOUS
 10
-23.212685
 20
8.178413
 11
-20.221425
 21
8.178413
  0
LINE
  8
型材断面
  6
CONTINUOUS
 10
55.913075
 20
53.032382
 11
58.503585
 21
52.43633
  0
LINE
  8
型材断面
  6
CONTINUOUS
 10
55.913075
 20
53.032382
 11
58.503583
 21
53.628442
  0
LINE
  8
型材断面
  6
CONTINUOUS
 10
58.503583
 20
53.628442
 11
58.503585
 21
52.43633
  0
LINE
  8
型材断面
  6
CONTINUOUS
 10
55.913075
 20
17.099048
 11
58.503585
 21
17.6951
  0
LINE
  8
型材断面
  6
CONTINUOUS
 10
55.913075
 20
17.099048
 11
58.503583
 21
16.502988
  0
LINE
  8
型材断面
  6
CONTINUOUS
 10
58.503583
 20
16.502988
 11
58.503585
 21
17.6951
  0
LINE
  8
型材断面
  6
CONTINUOUS
 10
-99.347185
 20
53.032382
 11
-101.937695
 21
52.43633
  0
LINE
  8
型材断面
  6
CONTINUOUS
 10
-99.347185
 20
53.032382
 11
-101.937692
 21
53.628442
  0
LINE
  8
型材断面
  6
CONTINUOUS
 10
-101.937692
 20
53.628442
 11
-101.937695
 21
52.43633
  0
LINE
  8
型材断面
  6
CONTINUOUS
 10
-99.347185
 20
17.099048
 11
-101.937695
 21
17.6951
  0
LINE
  8
型材断面
  6
CONTINUOUS
 10
-99.347185
 20
17.099048
 11
-101.937692
 21
16.502988
  0
LINE
  8
型材断面
  6
CONTINUOUS
 10
-101.937692
 20
16.502988
 11
-101.937695
 21
17.6951
  0
LINE
  8
型材断面
  6
CONTINUOUS
 10
-98.70024
 20
11.41587
 11
-21.717055
 21
11.41587
  0
LINE
  8
型材断面
  6
CONTINUOUS
 10
-98.70024
 20
58.71556
 11
-21.717055
 21
58.71556
  0
LINE
  8
型材断面
  6
CONTINUOUS
 10
55.26613
 20
58.71556
 11
-21.717055
 21
58.71556
  0
LINE
  8
型材断面
  6
CONTINUOUS
 10
55.26613
 20
11.41587
 11
-21.717055
 21
11.41587
  0
LINE
  8
型材断面
  6
CONTINUOUS
 10
-143.59185
 20
77.264387
 11
-97.350072
 21
77.264387
  0
ARC
  8
型材断面
  6
CONTINUOUS
 62
    47
 10
146.074314
 20
11.415711
 40
0.016668
 50
179.999123
 51
270.0
  0
ARC
  8
型材断面
  6
CONTINUOUS
 62
    47
 10
146.114316
 20
11.409045
 40
0.010002
 50
270.0
 51
359.791626
  0
LINE
  8
型材断面
  6
CONTINUOUS
 62
    47
 10
146.291037
 20
11.449048
 11
146.291037
 21
12.299195
  0
LINE
  8
型材断面
  6
CONTINUOUS
 62
    47
 10
146.057647
 20
11.41571
 11
143.950987
 21
11.41571
  0
LINE
  8
型材断面
  6
CONTINUOUS
 62
    47
 10
146.291037
 20
11.415715
 11
149.607703
 21
11.415715
  0
LINE
  8
型材断面
  6
CONTINUOUS
 62
    47
 10
150.107703
 20
11.915715
 11
149.607703
 21
11.915715
  0
LINE
  8
型材断面
  6
CONTINUOUS
 62
    47
 10
143.950987
 20
12.29905
 11
143.62432
 21
12.29905
  0
LINE
  8
型材断面
  6
CONTINUOUS
 62
    47
 10
146.074315
 20
11.399048
 11
146.113975
 21
11.399048
  0
ARC
  8
型材断面
  6
CONTINUOUS
 62
    47
 10
146.074314
 20
58.715717
 40
0.016668
 50
90.0
 51
180.000877
  0
ARC
  8
型材断面
  6
CONTINUOUS
 62
    47
 10
146.114316
 20
58.722383
 40
0.010002
 50
0.208374
 51
90.0
  0
LINE
  8
型材断面
  6
CONTINUOUS
 62
    47
 10
146.291037
 20
58.682378
 11
146.291037
 21
57.832232
  0
LINE
  8
型材断面
  6
CONTINUOUS
 62
    47
 10
146.057647
 20
58.715718
 11
143.950987
 21
58.715718
  0
LINE
  8
型材断面
  6
CONTINUOUS
 62
    47
 10
146.291037
 20
58.715712
 11
149.607703
 21
58.715712
  0
LINE
  8
型材断面
  6
CONTINUOUS
 62
    47
 10
150.107703
 20
58.215712
 11
149.607703
 21
58.215712
  0
LINE
  8
型材断面
  6
CONTINUOUS
 62
    47
 10
143.950987
 20
57.832378
 11
143.62432
 21
57.832378
  0
LINE
  8
型材断面
  6
CONTINUOUS
 62
    47
 10
146.074315
 20
58.732378
 11
146.113975
 21
58.732378
  0
LINE
  8
型材断面
  6
CONTINUOUS
 10
143.950987
 20
11.41571
 11
143.950987
 21
35.065712
  0
LINE
  8
型材断面
  6
CONTINUOUS
 10
143.62432
 20
11.999048
 11
143.62432
 21
35.065712
  0
LINE
  8
型材断面
  6
CONTINUOUS
 10
141.957653
 20
11.999048
 11
141.957653
 21
35.065712
  0
LINE
  8
型材断面
  6
CONTINUOUS
 10
142.12432
 20
11.842527
 11
142.12432
 21
35.065712
  0
LINE
  8
型材断面
  6
CONTINUOUS
 10
146.291037
 20
11.415715
 11
146.291037
 21
35.065712
  0
LINE
  8
型材断面
  6
CONTINUOUS
 10
146.12432
 20
11.409045
 11
146.12432
 21
35.065712
  0
LINE
  8
型材断面
  6
CONTINUOUS
 10
149.607703
 20
11.415715
 11
149.607703
 21
35.065712
  0
LINE
  8
型材断面
  6
CONTINUOUS
 10
150.107703
 20
11.915715
 11
150.107703
 21
35.065712
  0
LINE
  8
型材断面
  6
CONTINUOUS
 10
150.107703
 20
58.215712
 11
150.107703
 21
35.065712
  0
LINE
  8
型材断面
  6
CONTINUOUS
 10
149.607703
 20
58.715712
 11
149.607703
 21
35.065712
  0
LINE
  8
型材断面
  6
CONTINUOUS
 10
146.12432
 20
58.722382
 11
146.12432
 21
35.065712
  0
LINE
  8
型材断面
  6
CONTINUOUS
 10
146.291037
 20
58.715712
 11
146.291037
 21
35.065712
  0
LINE
  8
型材断面
  6
CONTINUOUS
 10
143.950987
 20
58.715718
 11
143.950987
 21
35.065712
  0
LINE
  8
型材断面
  6
CONTINUOUS
 10
143.62432
 20
58.132378
 11
143.62432
 21
35.065712
  0
LINE
  8
型材断面
  6
CONTINUOUS
 10
141.957653
 20
58.132378
 11
141.957653
 21
35.065712
  0
LINE
  8
型材断面
  6
CONTINUOUS
 10
142.12432
 20
58.2889
 11
142.12432
 21
35.065712
  0
ARC
  8
型材断面
  6
CONTINUOUS
 62
    47
 10
-98.70039
 20
-80.86291
 40
0.016668
 50
89.999123
 51
180.0
  0
ARC
  8
型材断面
  6
CONTINUOUS
 62
    47
 10
-98.707056
 20
-80.902912
 40
0.010002
 50
180.0
 51
269.791626
  0
LINE
  8
型材断面
  6
CONTINUOUS
 62
    47
 10
-98.667053
 20
-81.079633
 11
-97.816905
 21
-81.079633
  0
LINE
  8
型材断面
  6
CONTINUOUS
 62
    47
 10
-98.70039
 20
-80.846242
 11
-98.70039
 21
-78.739582
  0
LINE
  8
型材断面
  6
CONTINUOUS
 62
    47
 10
-98.700385
 20
-81.079633
 11
-98.700385
 21
-84.396298
  0
LINE
  8
型材断面
  6
CONTINUOUS
 62
    47
 10
-98.200385
 20
-84.896298
 11
-98.200385
 21
-84.396298
  0
LINE
  8
型材断面
  6
CONTINUOUS
 62
    47
 10
-97.81705
 20
-78.739582
 11
-97.81705
 21
-78.412915
  0
LINE
  8
型材断面
  6
CONTINUOUS
 62
    47
 10
-98.717053
 20
-80.86291
 11
-98.717053
 21
-80.90257
  0
ARC
  8
型材断面
  6
CONTINUOUS
 62
    47
 10
55.266282
 20
-80.86291
 40
0.016668
 50
0.0
 51
90.000877
  0
ARC
  8
型材断面
  6
CONTINUOUS
 62
    47
 10
55.272948
 20
-80.902912
 40
0.010002
 50
270.208374
 51
360.0
  0
LINE
  8
型材断面
  6
CONTINUOUS
 62
    47
 10
55.232945
 20
-81.079633
 11
54.382798
 21
-81.079633
  0
LINE
  8
型材断面
  6
CONTINUOUS
 62
    47
 10
55.266282
 20
-80.846242
 11
55.266282
 21
-78.739582
  0
LINE
  8
型材断面
  6
CONTINUOUS
 62
    47
 10
55.266278
 20
-81.079633
 11
55.266278
 21
-84.396298
  0
LINE
  8
型材断面
  6
CONTINUOUS
 62
    47
 10
54.766278
 20
-84.896298
 11
54.766278
 21
-84.396298
  0
LINE
  8
型材断面
  6
CONTINUOUS
 62
    47
 10
54.382942
 20
-78.739582
 11
54.382942
 21
-78.412915
  0
LINE
  8
型材断面
  6
CONTINUOUS
 62
    47
 10
55.282945
 20
-80.86291
 11
55.282945
 21
-80.90257
  0
LINE
  8
型材断面
  6
CONTINUOUS
 10
-98.273575
 20
-76.912915
 11
-21.717055
 21
-76.912915
  0
LINE
  8
型材断面
  6
CONTINUOUS
 10
-98.117053
 20
-76.746248
 11
-21.717055
 21
-76.746248
  0
LINE
  8
型材断面
  6
CONTINUOUS
 10
-98.117053
 20
-78.412915
 11
-21.717055
 21
-78.412915
  0
LINE
  8
型材断面
  6
CONTINUOUS
 10
-98.70039
 20
-78.739582
 11
-21.717055
 21
-78.739582
  0
LINE
  8
型材断面
  6
CONTINUOUS
 10
-98.700385
 20
-81.079633
 11
-21.717055
 21
-81.079633
  0
LINE
  8
型材断面
  6
CONTINUOUS
 10
-98.707055
 20
-80.912915
 11
-21.717055
 21
-80.912915
  0
LINE
  8
型材断面
  6
CONTINUOUS
 10
-98.200385
 20
-84.896298
 11
-21.717055
 21
-84.896298
  0
LINE
  8
型材断面
  6
CONTINUOUS
 10
-98.700385
 20
-84.396298
 11
-21.717055
 21
-84.396298
  0
LINE
  8
型材断面
  6
CONTINUOUS
 10
54.766278
 20
-84.896298
 11
-21.717055
 21
-84.896298
  0
LINE
  8
型材断面
  6
CONTINUOUS
 10
55.266278
 20
-84.396298
 11
-21.717055
 21
-84.396298
  0
LINE
  8
型材断面
  6
CONTINUOUS
 10
55.272948
 20
-80.912915
 11
-21.717055
 21
-80.912915
  0
LINE
  8
型材断面
  6
CONTINUOUS
 10
55.266278
 20
-81.079633
 11
-21.717055
 21
-81.079633
  0
LINE
  8
型材断面
  6
CONTINUOUS
 10
55.266282
 20
-78.739582
 11
-21.717055
 21
-78.739582
  0
LINE
  8
型材断面
  6
CONTINUOUS
 10
54.839465
 20
-76.912915
 11
-21.717055
 21
-76.912915
  0
LINE
  8
型材断面
  6
CONTINUOUS
 10
54.682945
 20
-78.412915
 11
-21.717055
 21
-78.412915
  0
LINE
  8
型材断面
  6
CONTINUOUS
 10
54.682945
 20
-76.746248
 11
-21.717055
 21
-76.746248
  0
ARC
  8
型材断面
  6
DOT
 62
    47
 10
-98.70039
 20
-64.196244
 40
0.016668
 50
89.999123
 51
180.0
  0
ARC
  8
型材断面
  6
DOT
 62
    47
 10
-98.707056
 20
-64.236245
 40
0.010002
 50
180.0
 51
269.791626
  0
LINE
  8
型材断面
  6
DOT
 62
    47
 10
-98.70039
 20
-64.179575
 11
-98.70039
 21
-62.072915
  0
LINE
  8
型材断面
  6
DOT
 62
    47
 10
-97.81705
 20
-62.072915
 11
-97.81705
 21
-61.746248
  0
LINE
  8
型材断面
  6
DOT
 62
    47
 10
-98.717053
 20
-64.196242
 11
-98.717053
 21
-64.235902
  0
ARC
  8
型材断面
  6
DOT
 62
    47
 10
55.266282
 20
-64.196244
 40
0.016668
 50
0.0
 51
90.000877
  0
ARC
  8
型材断面
  6
DOT
 62
    47
 10
55.272948
 20
-64.236245
 40
0.010002
 50
270.208374
 51
360.0
  0
LINE
  8
型材断面
  6
DOT
 62
    47
 10
55.266282
 20
-64.179575
 11
55.266282
 21
-62.072915
  0
LINE
  8
型材断面
  6
DOT
 62
    47
 10
54.382942
 20
-62.072915
 11
54.382942
 21
-61.746248
  0
LINE
  8
型材断面
  6
DOT
 62
    47
 10
55.282945
 20
-64.196242
 11
55.282945
 21
-64.235902
  0
LINE
  8
型材断面
  6
DOT
 10
-98.117053
 20
-60.07958
 11
-21.717055
 21
-60.07958
  0
LINE
  8
型材断面
  6
DOT
 10
-98.273575
 20
-60.246248
 11
-21.717055
 21
-60.246248
  0
LINE
  8
型材断面
  6
DOT
 10
-98.70039
 20
-62.072915
 11
-21.717055
 21
-62.072915
  0
LINE
  8
型材断面
  6
DOT
 10
-98.117053
 20
-61.746248
 11
-21.717055
 21
-61.746248
  0
LINE
  8
型材断面
  6
DOT
 10
-98.707055
 20
-64.246248
 11
-21.717055
 21
-64.246248
  0
LINE
  8
型材断面
  6
DOT
 10
55.272948
 20
-64.246248
 11
-21.717055
 21
-64.246248
  0
LINE
  8
型材断面
  6
DOT
 10
55.266282
 20
-62.072915
 11
-21.717055
 21
-62.072915
  0
LINE
  8
型材断面
  6
DOT
 10
54.682945
 20
-61.746248
 11
-21.717055
 21
-61.746248
  0
LINE
  8
型材断面
  6
DOT
 10
54.682945
 20
-60.07958
 11
-21.717055
 21
-60.07958
  0
LINE
  8
型材断面
  6
DOT
 10
54.839465
 20
-60.246248
 11
-21.717055
 21
-60.246248
  0
INSERT
  2
*GRP_0020
  8
型材断面
  6
CONTINUOUS
 10
0.0
 20
0.0
  0
INSERT
  2
*GRP_0021
  8
型材断面
  6
CONTINUOUS
 10
0.0
 20
0.0
  0
INSERT
  2
*GRP_0022
  8
型材断面
  6
CONTINUOUS
 10
0.0
 20
0.0
  0
INSERT
  2
*GRP_0023
  8
型材断面
  6
CONTINUOUS
 10
0.0
 20
0.0
  0
LINE
  8
型材断面
  6
DASHDOT
 10
-59.342055
 20
13.399048
 11
-59.342055
 21
56.73238
  0
LINE
  8
型材断面
  6
DASHDOT
 10
15.907945
 20
13.399048
 11
15.907945
 21
56.73238
  0
LINE
  8
型材断面
  6
CONTINUOUS
 10
35.012112
 20
14.342527
 11
35.012112
 21
11.842527
  0
LINE
  8
型材断面
  6
CONTINUOUS
 10
34.178778
 20
14.342527
 11
34.178778
 21
11.842527
  0
LINE
  8
型材断面
  6
CONTINUOUS
 10
-2.487888
 20
14.342527
 11
-2.487888
 21
11.842527
  0
LINE
  8
型材断面
  6
CONTINUOUS
 10
-3.321223
 20
14.342527
 11
-3.321223
 21
11.842527
  0
LINE
  8
型材断面
  6
CONTINUOUS
 10
-78.446223
 20
14.342527
 11
-78.446223
 21
11.842527
  0
LINE
  8
型材断面
  6
CONTINUOUS
 10
-77.612888
 20
14.342527
 11
-77.612888
 21
11.842527
  0
LINE
  8
型材断面
  6
CONTINUOUS
 10
-40.946223
 20
14.342527
 11
-40.946223
 21
11.842527
  0
LINE
  8
型材断面
  6
CONTINUOUS
 10
-40.112888
 20
14.342527
 11
-40.112888
 21
11.842527
  0
LINE
  8
型材断面
  6
CONTINUOUS
 10
35.012112
 20
55.788903
 11
35.012112
 21
58.288903
  0
LINE
  8
型材断面
  6
CONTINUOUS
 10
34.178778
 20
55.788903
 11
34.178778
 21
58.288903
  0
LINE
  8
型材断面
  6
CONTINUOUS
 10
-2.487888
 20
55.788903
 11
-2.487888
 21
58.288903
  0
LINE
  8
型材断面
  6
CONTINUOUS
 10
-3.321223
 20
55.788903
 11
-3.321223
 21
58.288903
  0
LINE
  8
型材断面
  6
CONTINUOUS
 10
-78.446223
 20
55.788903
 11
-78.446223
 21
58.288903
  0
LINE
  8
型材断面
  6
CONTINUOUS
 10
-77.612888
 20
55.788903
 11
-77.612888
 21
58.288903
  0
LINE
  8
型材断面
  6
CONTINUOUS
 10
-40.946223
 20
55.788903
 11
-40.946223
 21
58.288903
  0
LINE
  8
型材断面
  6
CONTINUOUS
 10
-40.112888
 20
55.788903
 11
-40.112888
 21
58.288903
  0
LINE
  8
型材断面
  6
CONTINUOUS
 10
-2.487888
 20
14.342527
 11
34.178778
 21
14.342527
  0
LINE
  8
型材断面
  6
CONTINUOUS
 10
-2.487888
 20
55.788903
 11
34.178778
 21
55.788903
  0
LINE
  8
型材断面
  6
CONTINUOUS
 10
-40.112888
 20
55.788903
 11
-3.321223
 21
55.788903
  0
LINE
  8
型材断面
  6
CONTINUOUS
 10
-40.112888
 20
14.342527
 11
-3.321223
 21
14.342527
  0
LINE
  8
型材断面
  6
CONTINUOUS
 10
-77.612888
 20
14.342527
 11
-40.946223
 21
14.342527
  0
LINE
  8
型材断面
  6
CONTINUOUS
 10
-77.612888
 20
55.788903
 11
-40.946223
 21
55.788903
  0
LINE
  8
型材断面
  6
CONTINUOUS
 10
17.157945
 20
15.17586
 11
14.657945
 21
15.17586
  0
LINE
  8
型材断面
  6
CONTINUOUS
 10
17.157945
 20
54.95557
 11
14.657945
 21
54.95557
  0
LINE
  8
型材断面
  6
CONTINUOUS
 10
17.157945
 20
15.17586
 11
17.157945
 21
54.95557
  0
LINE
  8
型材断面
  6
CONTINUOUS
 10
14.657945
 20
15.17586
 11
14.657945
 21
54.95557
  0
LINE
  8
型材断面
  6
CONTINUOUS
 10
-20.467055
 20
15.17586
 11
-22.967055
 21
15.17586
  0
LINE
  8
型材断面
  6
CONTINUOUS
 10
-20.467055
 20
54.95557
 11
-22.967055
 21
54.95557
  0
LINE
  8
型材断面
  6
CONTINUOUS
 10
-20.467055
 20
15.17586
 11
-20.467055
 21
54.95557
  0
LINE
  8
型材断面
  6
CONTINUOUS
 10
-22.967055
 20
15.17586
 11
-22.967055
 21
54.95557
  0
LINE
  8
型材断面
  6
CONTINUOUS
 10
-58.092055
 20
15.17586
 11
-60.592055
 21
15.17586
  0
LINE
  8
型材断面
  6
CONTINUOUS
 10
-58.092055
 20
54.95557
 11
-60.592055
 21
54.95557
  0
LINE
  8
型材断面
  6
CONTINUOUS
 10
-58.092055
 20
15.17586
 11
-58.092055
 21
54.95557
  0
LINE
  8
型材断面
  6
CONTINUOUS
 10
-60.592055
 20
15.17586
 11
-60.592055
 21
54.95557
  0
LINE
  8
型材断面
  6
CONTINUOUS
 10
55.26613
 20
11.41587
 11
55.26613
 21
35.065715
  0
LINE
  8
型材断面
  6
CONTINUOUS
 10
55.26613
 20
58.71556
 11
55.26613
 21
35.065715
  0
LINE
  8
型材断面
  6
CONTINUOUS
 10
54.839465
 20
35.48238
 11
52.339465
 21
35.48238
  0
LINE
  8
型材断面
  6
CONTINUOUS
 10
54.839465
 20
34.649048
 11
52.339465
 21
34.649048
  0
LINE
  8
型材断面
  6
CONTINUOUS
 10
54.603767
 20
11.842527
 11
54.839465
 21
12.078235
  0
LINE
  8
型材断面
  6
CONTINUOUS
 10
52.339465
 20
34.649048
 11
52.339465
 21
14.57823
  0
LINE
  8
型材断面
  6
CONTINUOUS
 10
52.339465
 20
14.57823
 11
52.103763
 21
14.342527
  0
LINE
  8
型材断面
  6
CONTINUOUS
 10
52.103763
 20
14.342527
 11
54.603767
 21
11.842527
  0
LINE
  8
型材断面
  6
CONTINUOUS
 10
52.339465
 20
14.57823
 11
54.839465
 21
12.078235
  0
LINE
  8
型材断面
  6
CONTINUOUS
 10
55.26613
 20
11.41587
 11
54.721617
 21
11.960383
  0
LINE
  8
型材断面
  6
CONTINUOUS
 10
54.603767
 20
58.288903
 11
54.839465
 21
58.053195
  0
LINE
  8
型材断面
  6
CONTINUOUS
 10
52.339465
 20
55.5532
 11
52.103763
 21
55.788903
  0
LINE
  8
型材断面
  6
CONTINUOUS
 10
55.26613
 20
58.71556
 11
54.721617
 21
58.171047
  0
LINE
  8
型材断面
  6
CONTINUOUS
 10
52.339465
 20
35.48238
 11
52.339465
 21
55.5532
  0
LINE
  8
型材断面
  6
CONTINUOUS
 10
52.339465
 20
55.5532
 11
54.839465
 21
58.053195
  0
LINE
  8
型材断面
  6
CONTINUOUS
 10
54.839465
 20
12.078235
 11
54.839465
 21
58.053195
  0
LINE
  8
型材断面
  6
CONTINUOUS
 10
52.103763
 20
55.788903
 11
54.603767
 21
58.288903
  0
LINE
  8
型材断面
  6
CONTINUOUS
 10
-98.70024
 20
11.41587
 11
-98.70024
 21
35.065715
  0
LINE
  8
型材断面
  6
CONTINUOUS
 10
-98.70024
 20
58.71556
 11
-98.70024
 21
35.065715
  0
LINE
  8
型材断面
  6
CONTINUOUS
 10
-98.273575
 20
35.48238
 11
-95.773575
 21
35.48238
  0
LINE
  8
型材断面
  6
CONTINUOUS
 10
-98.273575
 20
34.649048
 11
-95.773575
 21
34.649048
  0
LINE
  8
型材断面
  6
CONTINUOUS
 10
-98.037878
 20
11.842527
 11
-98.273575
 21
12.078235
  0
LINE
  8
型材断面
  6
CONTINUOUS
 10
-95.773575
 20
34.649048
 11
-95.773575
 21
14.57823
  0
LINE
  8
型材断面
  6
CONTINUOUS
 10
-95.773575
 20
14.57823
 11
-95.537872
 21
14.342527
  0
LINE
  8
型材断面
  6
CONTINUOUS
 10
-95.537872
 20
14.342527
 11
-98.037878
 21
11.842527
  0
LINE
  8
型材断面
  6
CONTINUOUS
 10
-95.773575
 20
14.57823
 11
-98.273575
 21
12.078235
  0
LINE
  8
型材断面
  6
CONTINUOUS
 10
-98.70024
 20
11.41587
 11
-98.155728
 21
11.960383
  0
LINE
  8
型材断面
  6
CONTINUOUS
 10
-98.037878
 20
58.288903
 11
-98.273575
 21
58.053195
  0
LINE
  8
型材断面
  6
CONTINUOUS
 10
-95.773575
 20
55.5532
 11
-95.537872
 21
55.788903
  0
LINE
  8
型材断面
  6
CONTINUOUS
 10
-98.70024
 20
58.71556
 11
-98.155728
 21
58.171047
  0
LINE
  8
型材断面
  6
CONTINUOUS
 10
-95.773575
 20
35.48238
 11
-95.773575
 21
55.5532
  0
LINE
  8
型材断面
  6
CONTINUOUS
 10
-95.773575
 20
55.5532
 11
-98.273575
 21
58.053195
  0
LINE
  8
型材断面
  6
CONTINUOUS
 10
-98.273575
 20
12.078235
 11
-98.273575
 21
58.053195
  0
LINE
  8
型材断面
  6
CONTINUOUS
 10
-95.537872
 20
55.788903
 11
-98.037878
 21
58.288903
  0
LINE
  8
型材断面
  6
CONTINUOUS
 10
-78.446223
 20
14.342527
 11
-95.537872
 21
14.342527
  0
LINE
  8
型材断面
  6
CONTINUOUS
 10
-78.446223
 20
55.788903
 11
-95.537872
 21
55.788903
  0
LINE
  8
型材断面
  6
CONTINUOUS
 10
35.012112
 20
55.788903
 11
52.103763
 21
55.788903
  0
LINE
  8
型材断面
  6
CONTINUOUS
 10
-98.037878
 20
58.288903
 11
54.603767
 21
58.288903
  0
LINE
  8
型材断面
  6
CONTINUOUS
 10
35.012112
 20
14.342527
 11
52.103763
 21
14.342527
  0
LINE
  8
型材断面
  6
CONTINUOUS
 10
-98.037878
 20
11.842527
 11
54.603767
 21
11.842527
  0
TEXT
  7
TextStyle03
  8
文字
  6
CONTINUOUS
 10
129.825
 20
-86.1
  1
網入り6.8t
 40
3.0
 72
     5
 11
146.5125
 21
-86.1
  0
TEXT
  7
TextStyle03
  8
文字
  6
CONTINUOUS
 10
-29.925
 20
67.2
  1
可動装置側
 40
3.0
 72
     5
 11
-13.425
 21
67.2
  0
TEXT
  7
TextStyle03
  8
文字
  6
CONTINUOUS
 10
-29.925
 20
-0.075
  1
可動装置側
 40
3.0
 72
     5
 11
-13.425
 21
-0.075
  0
TEXT
  7
TextStyle03
  8
文字
  6
CONTINUOUS
 10
136.5
 20
-90.775
  1
×４枚
 40
3.0
 72
     5
 11
146.25
 21
-90.775
  0
TEXT
  7
TextStyle03
  8
文字
  6
CONTINUOUS
 10
-134.775
 20
93.325
  1
はケーシング位置を示す
 40
3.0
 72
     5
 11
-98.025
 21
93.325
  0
TEXT
  7
TextStyle03
  8
文字
  6
CONTINUOUS
 10
-134.775
 20
89.95
  1
４ヶ所中1ヶ所に設定
 40
3.0
 72
     5
 11
-103.0875
 21
89.95
  0
TEXT
  7
TextStyle03
  8
文字
  6
CONTINUOUS
 10
-134.775
 20
98.85
  1
は排水穴位置を示す
 40
3.0
 72
     5
 11
-104.775
 21
98.85
  0
TEXT
  7
TextStyle03
  8
文字
  6
CONTINUOUS
 10
-134.275
 20
23.975
  1
アンカーピッチ
 40
3.0
 50
90.0
 72
     5
 11
-134.275
 21
47.225
  0
TEXT
  7
TextStyle03
  8
文字
  6
CONTINUOUS
 10
-81.775
 20
93.8
  1
アンカーピッチ
 40
3.0
 72
     5
 11
-58.525
 21
93.8
  0
TEXT
  7
TextStyle03
  8
文字
  6
CONTINUOUS
 10
-138.5
 20
83.975
  1
アンカー数量　１６ヶ所
 40
3.0
 72
     5
 11
-101.75
 21
83.975
  0
TEXT
  7
TextStyle03
  8
文字
  6
CONTINUOUS
 10
-143.5
 20
78.2
  1
アームユニット数　※４～６ヶ所
 40
3.0
 72
     5
 11
-93.25
 21
78.2
  0
TEXT
  7
TextStyle03
  8
文字
  6
CONTINUOUS
 10
-143.5
 20
73.25
  1
※重量に依るのでご相談ください
 40
3.0
 72
     5
 11
-93.25
 21
73.25
  0
LINE
  8
文字
  6
CONTINUOUS
 10
141.957653
 20
70.502383
 11
141.957653
 21
59.952418
  0
LINE
  8
文字
  6
CONTINUOUS
 10
149.607703
 20
70.502383
 11
149.607703
 21
60.0175
  0
LINE
  8
文字
  6
CONTINUOUS
 10
66.51819
 20
-76.746248
 11
55.968227
 21
-76.746248
  0
LINE
  8
文字
  6
CONTINUOUS
 10
66.51819
 20
-84.396298
 11
56.03331
 21
-84.396298
  0
LINE
  8
文字
  6
CONTINUOUS
 10
66.51819
 20
-60.07958
 11
55.968227
 21
-60.07958
  0
LINE
  8
文字
  6
CONTINUOUS
 10
148.3695
 20
-41.172475
 11
148.3695
 21
-48.55272
  0
LINE
  8
文字
  6
CONTINUOUS
 10
111.9095
 20
-41.172475
 11
111.9095
 21
-48.55272
  0
TEXT
  7
TextStyle03
  8
文字
  6
CONTINUOUS
 10
60.05
 20
125.25
  1
シリーズ：ＴＦ２ＦＬ
 40
5.0
 72
     5
 11
115.675
 21
125.25
  0
TEXT
  7
TextStyle03
  8
文字
  6
CONTINUOUS
 10
60.05
 20
119.625
  1
　　　　　（上下可動）1300×4500タイプ
 40
5.0
 72
     5
 11
166.3
 21
119.625
  0
TEXT
  7
TextStyle03
  8
文字
  6
CONTINUOUS
 10
60.05
 20
114.0
  1
図面名　：外観姿図
 40
5.0
 72
     5
 11
110.05
 21
114.0
  0
TEXT
  7
TextStyle03
  8
文字
  6
CONTINUOUS
 10
60.05
 20
108.375
  1
　　　　　　
 40
5.0
 72
     5
 11
93.175
 21
108.375
  0
TEXT
  7
TextStyle03
  8
文字
  6
CONTINUOUS
 10
60.2
 20
104.525
  1
ＮＳコード：ＮＳＦＺＬ
 40
5.0
 72
     5
 11
121.45
 21
104.525
  0
INSERT
  2
*DIM_0002
  8
寸法
  6
CONTINUOUS
 10
0.0
 20
0.0
  0
INSERT
  2
*DIM_0003
  8
寸法
  6
CONTINUOUS
 10
0.0
 20
0.0
  0
INSERT
  2
*DIM_0004
  8
寸法
  6
CONTINUOUS
 10
0.0
 20
0.0
  0
INSERT
  2
*DIM_0005
  8
寸法
  6
CONTINUOUS
 10
0.0
 20
0.0
  0
INSERT
  2
*DIM_0006
  8
寸法
  6
CONTINUOUS
 10
0.0
 20
0.0
  0
INSERT
  2
*DIM_0007
  8
寸法
  6
CONTINUOUS
 10
0.0
 20
0.0
  0
INSERT
  2
*DIM_0008
  8
寸法
  6
CONTINUOUS
 10
0.0
 20
0.0
  0
INSERT
  2
*DIM_0009
  8
寸法
  6
CONTINUOUS
 10
0.0
 20
0.0
  0
INSERT
  2
*DIM_0010
  8
寸法
  6
CONTINUOUS
 10
0.0
 20
0.0
  0
INSERT
  2
*DIM_0011
  8
寸法
  6
CONTINUOUS
 10
0.0
 20
0.0
  0
INSERT
  2
*DIM_0012
  8
寸法
  6
CONTINUOUS
 10
0.0
 20
0.0
  0
INSERT
  2
*DIM_0013
  8
寸法
  6
CONTINUOUS
 10
0.0
 20
0.0
  0
INSERT
  2
*DIM_0014
  8
寸法
  6
CONTINUOUS
 10
0.0
 20
0.0
  0
INSERT
  2
*DIM_0015
  8
寸法
  6
CONTINUOUS
 10
0.0
 20
0.0
  0
INSERT
  2
*DIM_0016
  8
寸法
  6
CONTINUOUS
 10
0.0
 20
0.0
  0
INSERT
  2
*DIM_0017
  8
寸法
  6
CONTINUOUS
 10
0.0
 20
0.0
  0
INSERT
  2
*DIM_0018
  8
寸法
  6
CONTINUOUS
 10
0.0
 20
0.0
  0
INSERT
  2
*DIM_0019
  8
寸法
  6
CONTINUOUS
 10
0.0
 20
0.0
  0
INSERT
  2
*DIM_0024
  8
寸法
  6
CONTINUOUS
 10
0.0
 20
0.0
  0
INSERT
  2
*DIM_0025
  8
寸法
  6
CONTINUOUS
 10
0.0
 20
0.0
  0
INSERT
  2
*DIM_0026
  8
寸法
  6
CONTINUOUS
 10
0.0
 20
0.0
  0
LINE
  8
別途部材
  6
CONTINUOUS
 62
    47
 10
142.057653
 20
11.842527
 11
142.12432
 21
11.842527
  0
ARC
  8
別途部材
  6
CONTINUOUS
 62
    47
 10
142.057652
 20
11.942526
 40
0.1
 50
180.0
 51
270.0
  0
LINE
  8
別途部材
  6
CONTINUOUS
 62
    47
 10
141.957653
 20
11.942527
 11
141.957653
 21
14.309193
  0
LINE
  8
別途部材
  6
CONTINUOUS
 62
    47
 10
143.62432
 20
11.999048
 11
142.12432
 21
11.999048
  0
LINE
  8
別途部材
  6
CONTINUOUS
 62
    47
 10
142.057653
 20
58.2889
 11
142.12432
 21
58.2889
  0
ARC
  8
別途部材
  6
CONTINUOUS
 62
    47
 10
142.057652
 20
58.188901
 40
0.1
 50
90.0
 51
180.0
  0
LINE
  8
別途部材
  6
CONTINUOUS
 62
    47
 10
141.957653
 20
58.1889
 11
141.957653
 21
55.822233
  0
LINE
  8
別途部材
  6
CONTINUOUS
 62
    47
 10
143.62432
 20
58.132378
 11
142.12432
 21
58.132378
  0
LINE
  8
別途部材
  6
CONTINUOUS
 62
    47
 10
-98.273575
 20
-76.846248
 11
-98.273575
 21
-76.912915
  0
ARC
  8
別途部材
  6
CONTINUOUS
 62
    47
 10
-98.173575
 20
-76.846248
 40
0.1
 50
90.0
 51
180.0
  0
LINE
  8
別途部材
  6
CONTINUOUS
 62
    47
 10
-98.173575
 20
-76.746248
 11
-95.806908
 21
-76.746248
  0
LINE
  8
別途部材
  6
CONTINUOUS
 62
    47
 10
-98.117053
 20
-78.412915
 11
-98.117053
 21
-76.912915
  0
LINE
  8
別途部材
  6
CONTINUOUS
 62
    47
 10
54.839465
 20
-76.846248
 11
54.839465
 21
-76.912915
  0
ARC
  8
別途部材
  6
CONTINUOUS
 62
    47
 10
54.739467
 20
-76.846248
 40
0.1
 50
0.0
 51
90.0
  0
LINE
  8
別途部材
  6
CONTINUOUS
 62
    47
 10
54.739465
 20
-76.746248
 11
52.3728
 21
-76.746248
  0
LINE
  8
別途部材
  6
CONTINUOUS
 62
    47
 10
54.682945
 20
-78.412915
 11
54.682945
 21
-76.912915
  0
LINE
  8
別途部材
  6
DOT
 62
    47
 10
-98.273575
 20
-60.17958
 11
-98.273575
 21
-60.246248
  0
ARC
  8
別途部材
  6
DOT
 62
    47
 10
-98.173575
 20
-60.179581
 40
0.1
 50
90.0
 51
180.0
  0
LINE
  8
別途部材
  6
DOT
 62
    47
 10
-98.173575
 20
-60.07958
 11
-95.806908
 21
-60.07958
  0
LINE
  8
別途部材
  6
DOT
 62
    47
 10
-98.117053
 20
-61.746248
 11
-98.117053
 21
-60.246248
  0
LINE
  8
別途部材
  6
DOT
 62
    47
 10
54.839465
 20
-60.17958
 11
54.839465
 21
-60.246248
  0
ARC
  8
別途部材
  6
DOT
 62
    47
 10
54.739467
 20
-60.179581
 40
0.1
 50
0.0
 51
90.0
  0
LINE
  8
別途部材
  6
DOT
 62
    47
 10
54.739465
 20
-60.07958
 11
52.3728
 21
-60.07958
  0
LINE
  8
別途部材
  6
DOT
 62
    47
 10
54.682945
 20
-61.746248
 11
54.682945
 21
-60.246248
  0
LINE
  8
曲げ物
  6
CONTINUOUS
 10
148.3695
 20
-92.533713
 11
148.3695
 21
-49.867045
  0
LINE
  8
曲げ物
  6
CONTINUOUS
 10
38.008675
 20
37.022003
 11
34.313363
 21
33.32669
  0
LINE
  8
曲げ物
  6
CONTINUOUS
 10
37.305205
 20
35.485893
 11
35.849475
 21
34.030163
  0
LINE
  8
曲げ物
  6
CONTINUOUS
 10
36.472565
 20
36.318533
 11
35.016835
 21
34.862803
  0
LINE
  8
曲げ物
  6
CONTINUOUS
 10
0.648378
 20
37.022003
 11
-3.046935
 21
33.32669
  0
LINE
  8
曲げ物
  6
CONTINUOUS
 10
-0.055092
 20
35.485893
 11
-1.510822
 21
34.030163
  0
LINE
  8
曲げ物
  6
CONTINUOUS
 10
-0.887733
 20
36.318533
 11
-2.343462
 21
34.862803
  0
LINE
  8
曲げ物
  6
CONTINUOUS
 10
-38.87158
 20
37.022003
 11
-42.566892
 21
33.32669
  0
LINE
  8
曲げ物
  6
CONTINUOUS
 10
-39.57505
 20
35.485893
 11
-41.03078
 21
34.030163
  0
LINE
  8
曲げ物
  6
CONTINUOUS
 10
-40.40769
 20
36.318533
 11
-41.86342
 21
34.862803
  0
LINE
  8
曲げ物
  6
CONTINUOUS
 10
-77.815385
 20
37.022003
 11
-81.510697
 21
33.32669
  0
LINE
  8
曲げ物
  6
CONTINUOUS
 10
-78.518855
 20
35.485893
 11
-79.974585
 21
34.030163
  0
LINE
  8
曲げ物
  6
CONTINUOUS
 10
-79.351495
 20
36.318533
 11
-80.807225
 21
34.862803
  0
LINE
  8
曲げ物
  6
CONTINUOUS
 10
111.9095
 20
-92.533713
 11
111.9095
 21
-49.867045
  0
LINE
  8
曲げ物
  6
CONTINUOUS
 10
148.3695
 20
-49.867045
 11
111.9095
 21
-49.867045
  0
LINE
  8
曲げ物
  6
CONTINUOUS
 10
148.3695
 20
-92.533713
 11
111.9095
 21
-92.533713
  0
ENDSEC
  0
EOF
