  0
SECTION
  2
HEADER
  9
$EXTMIN
 10
-210.0
 20
-148.5
  9
$EXTMAX
 10
210.0
 20
148.5
  9
$PDMODE
 70
    32
  9
$PDSIZE
 40
1.5
  9
$LTSCALE
 40
10.0
  0
ENDSEC
  0
SECTION
  2
TABLES
  0
TABLE
  2
LTYPE
 70
    15
  0
LTYPE
  2
CONTINUOUS
 70
    64
  3
実線
 72
    65
 73
     0
 40
0.0
  0
LTYPE
  2
DASHED
 70
    64
  3
破線A
 72
    65
 73
     2
 40
0.6
 49
0.4
 49
-0.2
  0
LTYPE
  2
DASHEDX2
 70
    64
  3
破線B
 72
    65
 73
     2
 40
1.3
 49
0.9
 49
-0.4
  0
LTYPE
  2
DASHDOT
 70
    64
  3
１点鎖線A
 72
    65
 73
     4
 40
0.5375
 49
0.375
 49
-0.05
 49
0.0625
 49
-0.05
  0
LTYPE
  2
DASHDOTX2
 70
    64
  3
１点鎖線B
 72
    65
 73
     4
 40
1.075
 49
0.75
 49
-0.1
 49
0.125
 49
-0.1
  0
LTYPE
  2
DIVIDE2
 70
    64
  3
２点鎖線A
 72
    65
 73
     6
 40
0.5125
 49
0.3
 49
-0.0375
 49
0.05
 49
-0.0375
 49
0.05
 49
-0.0375
  0
LTYPE
  2
DIVIDE
 70
    64
  3
２点鎖線B
 72
    65
 73
     6
 40
1.05
 49
0.55
 49
-0.1
 49
0.1
 49
-0.1
 49
0.1
 49
-0.1
  0
LTYPE
  2
DOT
 70
    64
  3
点線A
 72
    65
 73
     2
 40
0.1125
 49
0.0625
 49
-0.05
  0
LTYPE
  2
DOTX2
 70
    64
  3
点線B
 72
    65
 73
     2
 40
0.275
 49
0.15
 49
-0.125
  0
LTYPE
  2
CONTINUOUS
 70
    64
  3
実線
 72
    65
 73
     0
 40
0.0
  0
LTYPE
  2
CONTINUOUS
 70
    64
  3
実線
 72
    65
 73
     0
 40
0.0
  0
LTYPE
  2
CONTINUOUS
 70
    64
  3
実線
 72
    65
 73
     0
 40
0.0
  0
LTYPE
  2
CONTINUOUS
 70
    64
  3
実線
 72
    65
 73
     0
 40
0.0
  0
LTYPE
  2
CONTINUOUS
 70
    64
  3
実線
 72
    65
 73
     0
 40
0.0
  0
LTYPE
  2
CONTINUOUS
 70
    64
  3
実線
 72
    65
 73
     0
 40
0.0
  0
ENDTAB
  0
TABLE
  2
LAYER
 70
    34
  0
LAYER
  2
通り芯
 70
     0
 62
    15
  6
CONTINUOUS
  0
LAYER
  2
補助線
 70
     0
 62
    16
  6
DOT
  0
LAYER
  2
躯体
 70
     0
 62
    31
  6
CONTINUOUS
  0
LAYER
  2
型材
 70
     0
 62
    32
  6
CONTINUOUS
  0
LAYER
  2
型材断面
 70
     0
 62
    47
  6
CONTINUOUS
  0
LAYER
  2
ガラス
 70
     0
 62
    48
  6
CONTINUOUS
  0
LAYER
  2
ゴム等
 70
     0
 62
    63
  6
CONTINUOUS
  0
LAYER
  2
ボルト／ビス
 70
     0
 62
    64
  6
CONTINUOUS
  0
LAYER
  2
文字
 70
     0
 62
    79
  6
CONTINUOUS
  0
LAYER
  2
寸法
 70
     0
 62
    80
  6
CONTINUOUS
  0
LAYER
  2
ﾊｯﾁﾝｸﾞ
 70
     0
 62
    95
  6
CONTINUOUS
  0
LAYER
  2
別途部材
 70
     0
 62
    96
  6
CONTINUOUS
  0
LAYER
  2
曲げ物
 70
     0
 62
   111
  6
CONTINUOUS
  0
LAYER
  2
鉄骨等
 70
     0
 62
   112
  6
CONTINUOUS
  0
LAYER
  2
St
 70
     0
 62
   127
  6
CONTINUOUS
  0
LAYER
  2
その他部品等
 70
     0
 62
   128
  6
CONTINUOUS
  0
LAYER
  2
ｶﾞｽｹｯﾄ
 70
     0
 62
   143
  6
CONTINUOUS
  0
LAYER
  2
ｽｹｯﾁ
 70
     0
 62
    14
  6
CONTINUOUS
  0
LAYER
  2
0
 70
     0
 62
    17
  6
CONTINUOUS
  0
LAYER
  2
1
 70
     0
 62
    30
  6
CONTINUOUS
  0
LAYER
  2
4
 70
     0
 62
    33
  6
CONTINUOUS
  0
LAYER
  2
ﾚｲﾔ3
 70
     0
 62
    46
  6
CONTINUOUS
  0
LAYER
  2
外形線
 70
     0
 62
    49
  6
CONTINUOUS
  0
LAYER
  2
部品
 70
     0
 62
    14
  6
CONTINUOUS
  0
LAYER
  2
サッシ芯
 70
     0
 62
    17
  6
DASHDOTX2
  0
LAYER
  2
寸法線
 70
     0
 62
    62
  6
CONTINUOUS
  0
LAYER
  2
姿図外形線
 70
     0
 62
    65
  6
CONTINUOUS
  0
LAYER
  2
姿補助線
 70
     0
 62
    30
  6
CONTINUOUS
  0
LAYER
  2
透視線
 70
     0
 62
    78
  6
DOT
  0
LAYER
  2
用紙
 70
     0
 62
    81
  6
CONTINUOUS
  0
LAYER
  2
実線図枠
 70
     0
 62
    94
  6
CONTINUOUS
  0
LAYER
  2
補助図枠
 70
     0
 62
    97
  6
CONTINUOUS
  0
LAYER
  2
建具記号
 70
     0
 62
   110
  6
CONTINUOUS
  0
LAYER
  2
補助文字
 70
     0
 62
   113
  6
CONTINUOUS
  0
ENDTAB
  0
TABLE
  2
STYLE
 70
    10
  0
STYLE
  2
STANDARD
 70
     0
 40
1.0
 41
1.0
 42
1.0
 50
0.0
 71
     0
  3
TXT
  4
BIGFONT
  0
STYLE
  2
TATE
 70
     4
 40
1.0
 41
1.0
 42
1.0
 50
0.0
 71
     0
  3
TXT
  4
BIGFONT
  0
STYLE
  2
TextStyle03
 70
     0
 40
1.0
 41
1.0
 42
1.0
 50
0.0
 71
     0
  3
MONOTXT
  4
BIGFONT
  0
STYLE
  2
TextStyle04
 70
     0
 40
1.0
 41
1.0
 42
1.0
 50
0.0
 71
     0
  3
MONOTXT
  4
BIGFONT
  0
STYLE
  2
TextStyle05
 70
     0
 40
1.0
 41
1.0
 42
1.0
 50
0.0
 71
     0
  3
MONOTXT
  4
BIGFONT
  0
STYLE
  2
TextStyle06
 70
     0
 40
1.0
 41
1.0
 42
1.0
 50
0.0
 71
     0
  3
MONOTXT
  4
BIGFONT
  0
STYLE
  2
TextStyle07
 70
     0
 40
1.0
 41
1.0
 42
1.0
 50
0.0
 71
     0
  3
MONOTXT
  4
BIGFONT
  0
STYLE
  2
TextStyle08
 70
     0
 40
1.0
 41
1.0
 42
1.0
 50
0.0
 71
     0
  3
MONOTXT
  4
BIGFONT
  0
STYLE
  2
TextStyle09
 70
     0
 40
1.0
 41
1.0
 42
1.0
 50
0.0
 71
     0
  3
MONOTXT
  4
BIGFONT
  0
STYLE
  2
TextStyle10
 70
     0
 40
1.0
 41
1.0
 42
1.0
 50
0.0
 71
     0
  3
MONOTXT
  4
BIGFONT
  0
ENDTAB
  0
ENDSEC
  0
SECTION
  2
BLOCKS
  0
BLOCK
  2
*GRP_0001
 70
    65
 10
0.0
 20
0.0
  0
LINE
  8
型材断面
  6
CONTINUOUS
 10
195.0
 20
133.5
 11
195.0
 21
-133.5
  0
LINE
  8
型材断面
  6
CONTINUOUS
 10
195.0
 20
-133.5
 11
-185.0
 21
-133.5
  0
LINE
  8
型材断面
  6
CONTINUOUS
 10
-185.0
 20
-133.5
 11
-185.0
 21
133.5
  0
LINE
  8
型材断面
  6
CONTINUOUS
 10
195.0
 20
133.5
 11
-185.0
 21
133.5
  0
LINE
  8
型材断面
  6
CONTINUOUS
 10
145.0
 20
-133.5
 11
145.0
 21
-118.5
  0
LINE
  8
型材断面
  6
CONTINUOUS
 10
195.0
 20
-118.5
 11
145.0
 21
-118.5
  0
ENDBLK
  0
BLOCK
  2
*DIM_0002
 70
    65
 10
0.0
 20
0.0
  0
LINE
  8
寸法
  6
BYBLOCK
 62
     0
 10
117.421445
 20
-49.867045
 11
125.856293
 21
-49.867045
  0
LINE
  8
寸法
  6
BYBLOCK
 62
     0
 10
117.421445
 20
-92.533713
 11
125.856293
 21
-92.533713
  0
LINE
  8
寸法
  6
BYBLOCK
 62
     0
 10
125.856293
 20
-49.867045
 11
125.856293
 21
-92.533713
  0
POINT
  8
寸法
 62
     0
 10
125.856293
 20
-49.867045
  0
POINT
  8
寸法
 62
     0
 10
125.856293
 20
-92.533713
  0
TEXT
  7
TextStyle03
  8
寸法
  6
CONTINUOUS
 62
     0
 10
125.525
 20
-74.48125
  1
1280
 40
3.0
 50
90.0
 72
     5
 11
125.525
 21
-67.91875
  0
ENDBLK
  0
BLOCK
  2
*DIM_0003
 70
    65
 10
0.0
 20
0.0
  0
LINE
  8
寸法
  6
BYBLOCK
 62
     0
 10
21.33489
 20
-22.536362
 11
-61.998442
 21
-22.536362
  0
POINT
  8
寸法
 62
     0
 10
21.33489
 20
-22.536362
  0
POINT
  8
寸法
 62
     0
 10
-61.998442
 20
-22.536362
  0
TEXT
  7
TextStyle03
  8
寸法
  6
CONTINUOUS
 62
     0
 10
-32.06875
 20
-22.175
  1
呼称寸法　2500
 40
3.0
 72
     5
 11
-8.63125
 21
-22.175
  0
ENDBLK
  0
BLOCK
  2
*DIM_0004
 70
    65
 10
0.0
 20
0.0
  0
LINE
  8
寸法
  6
BYBLOCK
 62
     0
 10
-45.331775
 20
9.76892
 11
-45.331775
 21
4.76579
  0
LINE
  8
寸法
  6
BYBLOCK
 62
     0
 10
4.66822
 20
9.76892
 11
4.66822
 21
4.76579
  0
LINE
  8
寸法
  6
BYBLOCK
 62
     0
 10
-45.331775
 20
4.76579
 11
4.66822
 21
4.76579
  0
POINT
  8
寸法
 62
     0
 10
-45.331775
 20
4.76579
  0
POINT
  8
寸法
 62
     0
 10
4.66822
 20
4.76579
  0
TEXT
  7
TextStyle03
  8
寸法
  6
CONTINUOUS
 62
     0
 10
-23.63125
 20
5.125
  1
1500
 40
3.0
 72
     5
 11
-17.06875
 21
5.125
  0
ENDBLK
  0
BLOCK
  2
*DIM_0005
 70
    65
 10
0.0
 20
0.0
  0
LINE
  8
寸法
  6
BYBLOCK
 62
     0
 10
22.33489
 20
56.732382
 11
32.059173
 21
56.732382
  0
LINE
  8
寸法
  6
BYBLOCK
 62
     0
 10
24.96502
 20
53.032382
 11
32.059173
 21
53.032382
  0
LINE
  8
寸法
  6
BYBLOCK
 62
     0
 10
32.059173
 20
56.732382
 11
32.059173
 21
53.032382
  0
POINT
  8
寸法
 62
     0
 10
32.059173
 20
56.732382
  0
POINT
  8
寸法
 62
     0
 10
32.059173
 20
53.032382
  0
TEXT
  7
TextStyle03
  8
寸法
  6
CONTINUOUS
 62
     0
 10
31.75
 20
57.7125
  1
111
 40
3.0
 50
90.0
 72
     5
 11
31.75
 21
62.5875
  0
ENDBLK
  0
BLOCK
  2
*DIM_0006
 70
    65
 10
0.0
 20
0.0
  0
LINE
  8
寸法
  6
BYBLOCK
 62
     0
 10
22.33489
 20
13.399048
 11
32.059173
 21
13.399045
  0
LINE
  8
寸法
  6
BYBLOCK
 62
     0
 10
24.96502
 20
17.099048
 11
32.059173
 21
17.099045
  0
LINE
  8
寸法
  6
BYBLOCK
 62
     0
 10
32.059173
 20
13.399045
 11
32.059173
 21
17.099045
  0
POINT
  8
寸法
 62
     0
 10
32.059173
 20
13.399045
  0
POINT
  8
寸法
 62
     0
 10
32.059173
 20
17.099045
  0
TEXT
  7
TextStyle03
  8
寸法
  6
CONTINUOUS
 62
     0
 10
31.725
 20
7.5375
  1
111
 40
3.0
 50
90.0
 72
     5
 11
31.725
 21
12.4125
  0
ENDBLK
  0
BLOCK
  2
*DIM_0007
 70
    65
 10
0.0
 20
0.0
  0
LINE
  8
寸法
  6
BYBLOCK
 62
     0
 10
55.35454
 20
13.399048
 11
55.35454
 21
56.73238
  0
POINT
  8
寸法
 62
     0
 10
55.35454
 20
13.399048
  0
POINT
  8
寸法
 62
     0
 10
55.35454
 20
56.73238
  0
TEXT
  7
TextStyle03
  8
寸法
  6
CONTINUOUS
 62
     0
 10
55.025
 20
23.33125
  1
呼称寸法　1300
 40
3.0
 50
90.0
 72
     5
 11
55.025
 21
46.76875
  0
ENDBLK
  0
BLOCK
  2
*DIM_0008
 70
    65
 10
0.0
 20
0.0
  0
LINE
  8
寸法
  6
BYBLOCK
 62
     0
 10
109.244935
 20
58.715712
 11
55.35454
 21
58.715712
  0
LINE
  8
寸法
  6
BYBLOCK
 62
     0
 10
55.35454
 20
56.73238
 11
55.35454
 21
58.715712
  0
POINT
  8
寸法
 62
     0
 10
55.35454
 20
56.73238
  0
POINT
  8
寸法
 62
     0
 10
55.35454
 20
58.715712
  0
TEXT
  7
TextStyle03
  8
寸法
  6
CONTINUOUS
 62
     0
 10
54.975
 20
61.16875
  1
59.5
 40
3.0
 50
90.0
 72
     5
 11
54.975
 21
67.73125
  0
ENDBLK
  0
BLOCK
  2
*DIM_0009
 70
    65
 10
0.0
 20
0.0
  0
LINE
  8
寸法
  6
BYBLOCK
 62
     0
 10
109.244935
 20
11.415712
 11
55.35454
 21
11.415712
  0
LINE
  8
寸法
  6
BYBLOCK
 62
     0
 10
55.35454
 20
13.399048
 11
55.35454
 21
11.415712
  0
POINT
  8
寸法
 62
     0
 10
55.35454
 20
13.399048
  0
POINT
  8
寸法
 62
     0
 10
55.35454
 20
11.415712
  0
TEXT
  7
TextStyle03
  8
寸法
  6
CONTINUOUS
 62
     0
 10
54.975
 20
2.36875
  1
59.5
 40
3.0
 50
90.0
 72
     5
 11
54.975
 21
8.93125
  0
ENDBLK
  0
BLOCK
  2
*DIM_0010
 70
    65
 10
0.0
 20
0.0
  0
LINE
  8
寸法
  6
BYBLOCK
 62
     0
 10
23.31822
 20
-64.668048
 11
23.31822
 21
-22.536362
  0
LINE
  8
寸法
  6
BYBLOCK
 62
     0
 10
21.33489
 20
-22.536362
 11
23.31822
 21
-22.536362
  0
POINT
  8
寸法
 62
     0
 10
21.33489
 20
-22.536362
  0
POINT
  8
寸法
 62
     0
 10
23.31822
 20
-22.536362
  0
TEXT
  7
TextStyle03
  8
寸法
  6
CONTINUOUS
 62
     0
 10
25.79375
 20
-22.175
  1
59.5
 40
3.0
 72
     5
 11
32.35625
 21
-22.175
  0
ENDBLK
  0
BLOCK
  2
*DIM_0011
 70
    65
 10
0.0
 20
0.0
  0
LINE
  8
寸法
  6
BYBLOCK
 62
     0
 10
-63.981775
 20
-64.668048
 11
-63.981775
 21
-22.536362
  0
LINE
  8
寸法
  6
BYBLOCK
 62
     0
 10
-61.998442
 20
-22.536362
 11
-63.981775
 21
-22.536362
  0
POINT
  8
寸法
 62
     0
 10
-61.998442
 20
-22.536362
  0
POINT
  8
寸法
 62
     0
 10
-63.981775
 20
-22.536362
  0
TEXT
  7
TextStyle03
  8
寸法
  6
CONTINUOUS
 62
     0
 10
-73.03125
 20
-22.175
  1
59.5
 40
3.0
 72
     5
 11
-66.46875
 21
-22.175
  0
ENDBLK
  0
BLOCK
  2
*DIM_0012
 70
    65
 10
0.0
 20
0.0
  0
LINE
  8
寸法
  6
BYBLOCK
 62
     0
 10
-64.998442
 20
23.399048
 11
-93.943607
 21
23.399048
  0
LINE
  8
寸法
  6
BYBLOCK
 62
     0
 10
-64.998442
 20
46.732382
 11
-93.943607
 21
46.732382
  0
LINE
  8
寸法
  6
BYBLOCK
 62
     0
 10
-93.943607
 20
23.399048
 11
-93.943607
 21
46.732382
  0
POINT
  8
寸法
 62
     0
 10
-93.943607
 20
23.399048
  0
POINT
  8
寸法
 62
     0
 10
-93.943607
 20
46.732382
  0
TEXT
  7
TextStyle03
  8
寸法
  6
CONTINUOUS
 62
     0
 10
-94.4
 20
32.6125
  1
700
 40
3.0
 50
90.0
 72
     5
 11
-94.4
 21
37.4875
  0
ENDBLK
  0
BLOCK
  2
*DIM_0013
 70
    65
 10
0.0
 20
0.0
  0
LINE
  8
寸法
  6
BYBLOCK
 62
     0
 10
-55.331778
 20
59.73238
 11
-55.331778
 21
89.48
  0
LINE
  8
寸法
  6
BYBLOCK
 62
     0
 10
-31.998445
 20
59.73238
 11
-31.998445
 21
89.48
  0
LINE
  8
寸法
  6
BYBLOCK
 62
     0
 10
-55.331778
 20
89.48
 11
-31.998445
 21
89.48
  0
POINT
  8
寸法
 62
     0
 10
-55.331778
 20
89.48
  0
POINT
  8
寸法
 62
     0
 10
-31.998445
 20
89.48
  0
TEXT
  7
TextStyle03
  8
寸法
  6
CONTINUOUS
 62
     0
 10
-46.1125
 20
89.85
  1
700
 40
3.0
 72
     5
 11
-41.2375
 21
89.85
  0
ENDBLK
  0
BLOCK
  2
*DIM_0014
 70
    65
 10
0.0
 20
0.0
  0
LINE
  8
寸法
  6
BYBLOCK
 62
     0
 10
-8.66511
 20
59.73238
 11
-8.66511
 21
89.48
  0
LINE
  8
寸法
  6
BYBLOCK
 62
     0
 10
-31.998445
 20
89.48
 11
-8.66511
 21
89.48
  0
POINT
  8
寸法
 62
     0
 10
-8.66511
 20
89.48
  0
TEXT
  7
TextStyle03
  8
寸法
  6
CONTINUOUS
 62
     0
 10
-22.7875
 20
89.85
  1
700
 40
3.0
 72
     5
 11
-17.9125
 21
89.85
  0
ENDBLK
  0
BLOCK
  2
*DIM_0015
 70
    65
 10
0.0
 20
0.0
  0
LINE
  8
寸法
  6
BYBLOCK
 62
     0
 10
14.668223
 20
59.73238
 11
14.668223
 21
89.48
  0
LINE
  8
寸法
  6
BYBLOCK
 62
     0
 10
-8.66511
 20
89.48
 11
14.668223
 21
89.48
  0
POINT
  8
寸法
 62
     0
 10
14.668223
 20
89.48
  0
TEXT
  7
TextStyle03
  8
寸法
  6
CONTINUOUS
 62
     0
 10
0.5625
 20
89.85
  1
700
 40
3.0
 72
     5
 11
5.4375
 21
89.85
  0
ENDBLK
  0
BLOCK
  2
*DIM_0016
 70
    65
 10
0.0
 20
0.0
  0
LINE
  8
寸法
  6
CONTINUOUS
 10
109.617477
 20
70.502383
 11
117.267527
 21
70.502383
  0
POINT
  8
寸法
 10
109.617477
 20
70.502383
  0
POINT
  8
寸法
 10
117.267527
 20
70.502383
  0
TEXT
  7
TextStyle03
  8
寸法
  6
CONTINUOUS
 10
109.375
 20
70.85
  1
229.5
 40
3.0
 72
     5
 11
117.625
 21
70.85
  0
ENDBLK
  0
BLOCK
  2
*GRP_0017
 70
    65
 10
0.0
 20
0.0
  0
LINE
  8
補助線
  6
BYBLOCK
 62
    64
 10
-58.607208
 20
-83.243328
 11
-58.723002
 21
-83.363198
  0
LINE
  8
補助線
  6
BYBLOCK
 62
    64
 10
-58.725043
 20
-83.245363
 11
-58.60517
 21
-83.36116
  0
LINE
  8
補助線
  6
BYBLOCK
 62
    64
 10
-50.895133
 20
-75.25997
 11
-51.010933
 21
-75.37984
  0
LINE
  8
補助線
  6
BYBLOCK
 62
    64
 10
-51.012968
 20
-75.262005
 11
-50.893098
 21
-75.377802
  0
LINE
  8
補助線
  6
BYBLOCK
 62
    64
 10
-43.29886
 20
-67.396483
 11
-43.183062
 21
-67.276613
  0
LINE
  8
補助線
  6
BYBLOCK
 62
    64
 10
-43.300897
 20
-67.278647
 11
-43.181025
 21
-67.394445
  0
LINE
  8
型材断面
  6
CONTINUOUS
 10
-59.496047
 20
-82.96402
 11
-59.483828
 21
-83.67102
  0
LINE
  8
型材断面
  6
CONTINUOUS
 10
-59.483828
 20
-83.67102
 11
-59.004345
 21
-84.134207
  0
LINE
  8
型材断面
  6
CONTINUOUS
 10
-59.004345
 20
-84.134207
 11
-58.297345
 21
-84.121987
  0
LINE
  8
型材断面
  6
CONTINUOUS
 10
-43.60872
 20
-66.517822
 11
-42.901717
 21
-66.505605
  0
LINE
  8
型材断面
  6
CONTINUOUS
 10
-42.901717
 20
-66.505605
 11
-42.422235
 21
-66.96879
  0
LINE
  8
型材断面
  6
CONTINUOUS
 10
-42.422235
 20
-66.96879
 11
-42.410015
 21
-67.675792
  0
LINE
  8
型材断面
  6
CONTINUOUS
 10
-59.496047
 20
-82.96402
 11
-43.60872
 21
-66.517822
  0
LINE
  8
型材断面
  6
CONTINUOUS
 10
-58.297345
 20
-84.121987
 11
-42.410015
 21
-67.675792
  0
CIRCLE
  8
ボルト／ビス
  6
CONTINUOUS
 10
-58.665105
 20
-83.303262
 40
0.250185
  0
CIRCLE
  8
ボルト／ビス
  6
CONTINUOUS
 10
-58.665105
 20
-83.303262
 40
0.301025
  0
LINE
  8
ボルト／ビス
  6
CONTINUOUS
 62
    64
 10
-58.90561
 20
-83.372182
 11
-58.845042
 21
-83.12944
  0
LINE
  8
ボルト／ビス
  6
CONTINUOUS
 62
    64
 10
-58.604537
 20
-83.060517
 11
-58.845042
 21
-83.12944
  0
LINE
  8
ボルト／ビス
  6
CONTINUOUS
 62
    64
 10
-58.725673
 20
-83.546008
 11
-58.485167
 21
-83.477085
  0
LINE
  8
ボルト／ビス
  6
CONTINUOUS
 62
    64
 10
-58.424597
 20
-83.234342
 11
-58.485167
 21
-83.477085
  0
LINE
  8
ボルト／ビス
  6
CONTINUOUS
 62
    64
 10
-58.90561
 20
-83.372182
 11
-58.725673
 21
-83.546008
  0
LINE
  8
ボルト／ビス
  6
CONTINUOUS
 62
    64
 10
-58.604537
 20
-83.060517
 11
-58.424597
 21
-83.234342
  0
CIRCLE
  8
ボルト／ビス
  6
CONTINUOUS
 62
    64
 10
-58.665105
 20
-83.303262
 40
0.216668
  0
CIRCLE
  8
ボルト／ビス
  6
CONTINUOUS
 10
-50.953032
 20
-75.319905
 40
0.250185
  0
CIRCLE
  8
ボルト／ビス
  6
CONTINUOUS
 10
-50.953032
 20
-75.319905
 40
0.301025
  0
LINE
  8
ボルト／ビス
  6
CONTINUOUS
 62
    64
 10
-51.193538
 20
-75.388822
 11
-51.132972
 21
-75.14608
  0
LINE
  8
ボルト／ビス
  6
CONTINUOUS
 62
    64
 10
-50.892465
 20
-75.07716
 11
-51.132972
 21
-75.14608
  0
LINE
  8
ボルト／ビス
  6
CONTINUOUS
 62
    64
 10
-51.0136
 20
-75.56265
 11
-50.773095
 21
-75.493728
  0
LINE
  8
ボルト／ビス
  6
CONTINUOUS
 62
    64
 10
-50.712525
 20
-75.250985
 11
-50.773095
 21
-75.493728
  0
LINE
  8
ボルト／ビス
  6
CONTINUOUS
 62
    64
 10
-51.193538
 20
-75.388822
 11
-51.0136
 21
-75.56265
  0
LINE
  8
ボルト／ビス
  6
CONTINUOUS
 62
    64
 10
-50.892465
 20
-75.07716
 11
-50.712525
 21
-75.250985
  0
CIRCLE
  8
ボルト／ビス
  6
CONTINUOUS
 62
    64
 10
-50.953032
 20
-75.319905
 40
0.216668
  0
CIRCLE
  8
ボルト／ビス
  6
CONTINUOUS
 10
-43.24096
 20
-67.336547
 40
0.250185
  0
CIRCLE
  8
ボルト／ビス
  6
CONTINUOUS
 10
-43.24096
 20
-67.336547
 40
0.301025
  0
LINE
  8
ボルト／ビス
  6
CONTINUOUS
 62
    64
 10
-43.180393
 20
-67.093803
 11
-43.420897
 21
-67.162725
  0
LINE
  8
ボルト／ビス
  6
CONTINUOUS
 62
    64
 10
-43.481467
 20
-67.405468
 11
-43.420897
 21
-67.162725
  0
LINE
  8
ボルト／ビス
  6
CONTINUOUS
 62
    64
 10
-43.000455
 20
-67.267625
 11
-43.061023
 21
-67.51037
  0
LINE
  8
ボルト／ビス
  6
CONTINUOUS
 62
    64
 10
-43.301527
 20
-67.57929
 11
-43.061023
 21
-67.51037
  0
LINE
  8
ボルト／ビス
  6
CONTINUOUS
 62
    64
 10
-43.180393
 20
-67.093803
 11
-43.000455
 21
-67.267625
  0
LINE
  8
ボルト／ビス
  6
CONTINUOUS
 62
    64
 10
-43.481467
 20
-67.405468
 11
-43.301527
 21
-67.57929
  0
CIRCLE
  8
ボルト／ビス
  6
CONTINUOUS
 62
    64
 10
-43.24096
 20
-67.336547
 40
0.216668
  0
ENDBLK
  0
BLOCK
  2
*GRP_0018
 70
    65
 10
0.0
 20
0.0
  0
LINE
  8
補助線
  6
BYBLOCK
 62
    64
 10
-43.298858
 20
-83.243328
 11
-43.183062
 21
-83.363198
  0
LINE
  8
補助線
  6
BYBLOCK
 62
    64
 10
-43.181023
 20
-83.245363
 11
-43.300895
 21
-83.36116
  0
LINE
  8
補助線
  6
BYBLOCK
 62
    64
 10
-51.010933
 20
-75.25997
 11
-50.895133
 21
-75.37984
  0
LINE
  8
補助線
  6
BYBLOCK
 62
    64
 10
-50.893098
 20
-75.262005
 11
-51.012968
 21
-75.377802
  0
LINE
  8
補助線
  6
BYBLOCK
 62
    64
 10
-58.607205
 20
-67.396483
 11
-58.723002
 21
-67.276613
  0
LINE
  8
補助線
  6
BYBLOCK
 62
    64
 10
-58.605167
 20
-67.278647
 11
-58.72504
 21
-67.394445
  0
LINE
  8
型材断面
  6
CONTINUOUS
 10
-42.410017
 20
-82.96402
 11
-42.422238
 21
-83.67102
  0
LINE
  8
型材断面
  6
CONTINUOUS
 10
-42.422238
 20
-83.67102
 11
-42.90172
 21
-84.134207
  0
LINE
  8
型材断面
  6
CONTINUOUS
 10
-42.90172
 20
-84.134207
 11
-43.60872
 21
-84.121987
  0
LINE
  8
型材断面
  6
CONTINUOUS
 10
-58.297345
 20
-66.517822
 11
-59.004348
 21
-66.505605
  0
LINE
  8
型材断面
  6
CONTINUOUS
 10
-59.004348
 20
-66.505605
 11
-59.48383
 21
-66.96879
  0
LINE
  8
型材断面
  6
CONTINUOUS
 10
-59.48383
 20
-66.96879
 11
-59.49605
 21
-67.675792
  0
LINE
  8
型材断面
  6
CONTINUOUS
 10
-42.410017
 20
-82.96402
 11
-58.297345
 21
-66.517822
  0
LINE
  8
型材断面
  6
CONTINUOUS
 10
-43.60872
 20
-84.121987
 11
-59.49605
 21
-67.675792
  0
CIRCLE
  8
ボルト／ビス
  6
CONTINUOUS
 10
-43.24096
 20
-83.303262
 40
0.250185
  0
CIRCLE
  8
ボルト／ビス
  6
CONTINUOUS
 10
-43.24096
 20
-83.303262
 40
0.301025
  0
LINE
  8
ボルト／ビス
  6
CONTINUOUS
 62
    64
 10
-43.000455
 20
-83.372182
 11
-43.061023
 21
-83.12944
  0
LINE
  8
ボルト／ビス
  6
CONTINUOUS
 62
    64
 10
-43.301527
 20
-83.060517
 11
-43.061023
 21
-83.12944
  0
LINE
  8
ボルト／ビス
  6
CONTINUOUS
 62
    64
 10
-43.180393
 20
-83.546008
 11
-43.420897
 21
-83.477085
  0
LINE
  8
ボルト／ビス
  6
CONTINUOUS
 62
    64
 10
-43.481467
 20
-83.234342
 11
-43.420897
 21
-83.477085
  0
LINE
  8
ボルト／ビス
  6
CONTINUOUS
 62
    64
 10
-43.000455
 20
-83.372182
 11
-43.180393
 21
-83.546008
  0
LINE
  8
ボルト／ビス
  6
CONTINUOUS
 62
    64
 10
-43.301527
 20
-83.060517
 11
-43.481467
 21
-83.234342
  0
CIRCLE
  8
ボルト／ビス
  6
CONTINUOUS
 62
    64
 10
-43.24096
 20
-83.303262
 40
0.216668
  0
CIRCLE
  8
ボルト／ビス
  6
CONTINUOUS
 10
-50.953032
 20
-75.319905
 40
0.250185
  0
CIRCLE
  8
ボルト／ビス
  6
CONTINUOUS
 10
-50.953032
 20
-75.319905
 40
0.301025
  0
LINE
  8
ボルト／ビス
  6
CONTINUOUS
 62
    64
 10
-50.712528
 20
-75.388822
 11
-50.773092
 21
-75.14608
  0
LINE
  8
ボルト／ビス
  6
CONTINUOUS
 62
    64
 10
-51.0136
 20
-75.07716
 11
-50.773092
 21
-75.14608
  0
LINE
  8
ボルト／ビス
  6
CONTINUOUS
 62
    64
 10
-50.892465
 20
-75.56265
 11
-51.13297
 21
-75.493728
  0
LINE
  8
ボルト／ビス
  6
CONTINUOUS
 62
    64
 10
-51.19354
 20
-75.250985
 11
-51.13297
 21
-75.493728
  0
LINE
  8
ボルト／ビス
  6
CONTINUOUS
 62
    64
 10
-50.712528
 20
-75.388822
 11
-50.892465
 21
-75.56265
  0
LINE
  8
ボルト／ビス
  6
CONTINUOUS
 62
    64
 10
-51.0136
 20
-75.07716
 11
-51.19354
 21
-75.250985
  0
CIRCLE
  8
ボルト／ビス
  6
CONTINUOUS
 62
    64
 10
-50.953032
 20
-75.319905
 40
0.216668
  0
CIRCLE
  8
ボルト／ビス
  6
CONTINUOUS
 10
-58.665105
 20
-67.336547
 40
0.250185
  0
CIRCLE
  8
ボルト／ビス
  6
CONTINUOUS
 10
-58.665105
 20
-67.336547
 40
0.301025
  0
LINE
  8
ボルト／ビス
  6
CONTINUOUS
 62
    64
 10
-58.725673
 20
-67.093803
 11
-58.485167
 21
-67.162725
  0
LINE
  8
ボルト／ビス
  6
CONTINUOUS
 62
    64
 10
-58.424597
 20
-67.405468
 11
-58.485167
 21
-67.162725
  0
LINE
  8
ボルト／ビス
  6
CONTINUOUS
 62
    64
 10
-58.90561
 20
-67.267625
 11
-58.845042
 21
-67.51037
  0
LINE
  8
ボルト／ビス
  6
CONTINUOUS
 62
    64
 10
-58.604537
 20
-67.57929
 11
-58.845042
 21
-67.51037
  0
LINE
  8
ボルト／ビス
  6
CONTINUOUS
 62
    64
 10
-58.725673
 20
-67.093803
 11
-58.90561
 21
-67.267625
  0
LINE
  8
ボルト／ビス
  6
CONTINUOUS
 62
    64
 10
-58.424597
 20
-67.405468
 11
-58.604537
 21
-67.57929
  0
CIRCLE
  8
ボルト／ビス
  6
CONTINUOUS
 62
    64
 10
-58.665105
 20
-67.336547
 40
0.216668
  0
ENDBLK
  0
BLOCK
  2
*GRP_0019
 70
    65
 10
0.0
 20
0.0
  0
LINE
  8
補助線
  6
BYBLOCK
 62
    64
 10
17.943668
 20
-83.243328
 11
18.059462
 21
-83.363198
  0
LINE
  8
補助線
  6
BYBLOCK
 62
    64
 10
18.061502
 20
-83.245363
 11
17.94163
 21
-83.36116
  0
LINE
  8
補助線
  6
BYBLOCK
 62
    64
 10
10.231593
 20
-75.25997
 11
10.347393
 21
-75.37984
  0
LINE
  8
補助線
  6
BYBLOCK
 62
    64
 10
10.349427
 20
-75.262005
 11
10.229558
 21
-75.377802
  0
LINE
  8
補助線
  6
BYBLOCK
 62
    64
 10
2.63532
 20
-67.396483
 11
2.519522
 21
-67.276613
  0
LINE
  8
補助線
  6
BYBLOCK
 62
    64
 10
2.637357
 20
-67.278647
 11
2.517485
 21
-67.394445
  0
LINE
  8
型材断面
  6
CONTINUOUS
 10
18.832508
 20
-82.96402
 11
18.820288
 21
-83.67102
  0
LINE
  8
型材断面
  6
CONTINUOUS
 10
18.820288
 20
-83.67102
 11
18.340805
 21
-84.134207
  0
LINE
  8
型材断面
  6
CONTINUOUS
 10
18.340805
 20
-84.134207
 11
17.633805
 21
-84.121987
  0
LINE
  8
型材断面
  6
CONTINUOUS
 10
2.94518
 20
-66.517822
 11
2.238177
 21
-66.505605
  0
LINE
  8
型材断面
  6
CONTINUOUS
 10
2.238177
 20
-66.505605
 11
1.758695
 21
-66.96879
  0
LINE
  8
型材断面
  6
CONTINUOUS
 10
1.758695
 20
-66.96879
 11
1.746475
 21
-67.675792
  0
LINE
  8
型材断面
  6
CONTINUOUS
 10
18.832508
 20
-82.96402
 11
2.94518
 21
-66.517822
  0
LINE
  8
型材断面
  6
CONTINUOUS
 10
17.633805
 20
-84.121987
 11
1.746475
 21
-67.675792
  0
CIRCLE
  8
ボルト／ビス
  6
CONTINUOUS
 10
18.001565
 20
-83.303262
 40
0.250185
  0
CIRCLE
  8
ボルト／ビス
  6
CONTINUOUS
 10
18.001565
 20
-83.303262
 40
0.301025
  0
LINE
  8
ボルト／ビス
  6
CONTINUOUS
 62
    64
 10
18.24207
 20
-83.372182
 11
18.181502
 21
-83.12944
  0
LINE
  8
ボルト／ビス
  6
CONTINUOUS
 62
    64
 10
17.940998
 20
-83.060517
 11
18.181502
 21
-83.12944
  0
LINE
  8
ボルト／ビス
  6
CONTINUOUS
 62
    64
 10
18.062133
 20
-83.546008
 11
17.821628
 21
-83.477085
  0
LINE
  8
ボルト／ビス
  6
CONTINUOUS
 62
    64
 10
17.761058
 20
-83.234342
 11
17.821628
 21
-83.477085
  0
LINE
  8
ボルト／ビス
  6
CONTINUOUS
 62
    64
 10
18.24207
 20
-83.372182
 11
18.062133
 21
-83.546008
  0
LINE
  8
ボルト／ビス
  6
CONTINUOUS
 62
    64
 10
17.940998
 20
-83.060517
 11
17.761058
 21
-83.234342
  0
CIRCLE
  8
ボルト／ビス
  6
CONTINUOUS
 62
    64
 10
18.001565
 20
-83.303262
 40
0.216668
  0
CIRCLE
  8
ボルト／ビス
  6
CONTINUOUS
 10
10.289493
 20
-75.319905
 40
0.250185
  0
CIRCLE
  8
ボルト／ビス
  6
CONTINUOUS
 10
10.289493
 20
-75.319905
 40
0.301025
  0
LINE
  8
ボルト／ビス
  6
CONTINUOUS
 62
    64
 10
10.529997
 20
-75.388822
 11
10.469433
 21
-75.14608
  0
LINE
  8
ボルト／ビス
  6
CONTINUOUS
 62
    64
 10
10.228925
 20
-75.07716
 11
10.469433
 21
-75.14608
  0
LINE
  8
ボルト／ビス
  6
CONTINUOUS
 62
    64
 10
10.35006
 20
-75.56265
 11
10.109555
 21
-75.493728
  0
LINE
  8
ボルト／ビス
  6
CONTINUOUS
 62
    64
 10
10.048985
 20
-75.250985
 11
10.109555
 21
-75.493728
  0
LINE
  8
ボルト／ビス
  6
CONTINUOUS
 62
    64
 10
10.529997
 20
-75.388822
 11
10.35006
 21
-75.56265
  0
LINE
  8
ボルト／ビス
  6
CONTINUOUS
 62
    64
 10
10.228925
 20
-75.07716
 11
10.048985
 21
-75.250985
  0
CIRCLE
  8
ボルト／ビス
  6
CONTINUOUS
 62
    64
 10
10.289493
 20
-75.319905
 40
0.216668
  0
CIRCLE
  8
ボルト／ビス
  6
CONTINUOUS
 10
2.57742
 20
-67.336547
 40
0.250185
  0
CIRCLE
  8
ボルト／ビス
  6
CONTINUOUS
 10
2.57742
 20
-67.336547
 40
0.301025
  0
LINE
  8
ボルト／ビス
  6
CONTINUOUS
 62
    64
 10
2.516852
 20
-67.093803
 11
2.757358
 21
-67.162725
  0
LINE
  8
ボルト／ビス
  6
CONTINUOUS
 62
    64
 10
2.817928
 20
-67.405468
 11
2.757358
 21
-67.162725
  0
LINE
  8
ボルト／ビス
  6
CONTINUOUS
 62
    64
 10
2.336915
 20
-67.267625
 11
2.397482
 21
-67.51037
  0
LINE
  8
ボルト／ビス
  6
CONTINUOUS
 62
    64
 10
2.637988
 20
-67.57929
 11
2.397482
 21
-67.51037
  0
LINE
  8
ボルト／ビス
  6
CONTINUOUS
 62
    64
 10
2.516852
 20
-67.093803
 11
2.336915
 21
-67.267625
  0
LINE
  8
ボルト／ビス
  6
CONTINUOUS
 62
    64
 10
2.817928
 20
-67.405468
 11
2.637988
 21
-67.57929
  0
CIRCLE
  8
ボルト／ビス
  6
CONTINUOUS
 62
    64
 10
2.57742
 20
-67.336547
 40
0.216668
  0
ENDBLK
  0
BLOCK
  2
*GRP_0020
 70
    65
 10
0.0
 20
0.0
  0
LINE
  8
補助線
  6
BYBLOCK
 62
    64
 10
2.635318
 20
-83.243328
 11
2.519522
 21
-83.363198
  0
LINE
  8
補助線
  6
BYBLOCK
 62
    64
 10
2.517483
 20
-83.245363
 11
2.637355
 21
-83.36116
  0
LINE
  8
補助線
  6
BYBLOCK
 62
    64
 10
10.347393
 20
-75.25997
 11
10.231593
 21
-75.37984
  0
LINE
  8
補助線
  6
BYBLOCK
 62
    64
 10
10.229558
 20
-75.262005
 11
10.349427
 21
-75.377802
  0
LINE
  8
補助線
  6
BYBLOCK
 62
    64
 10
17.943665
 20
-67.396483
 11
18.059462
 21
-67.276613
  0
LINE
  8
補助線
  6
BYBLOCK
 62
    64
 10
17.941627
 20
-67.278647
 11
18.0615
 21
-67.394445
  0
LINE
  8
型材断面
  6
CONTINUOUS
 10
1.746478
 20
-82.96402
 11
1.758698
 21
-83.67102
  0
LINE
  8
型材断面
  6
CONTINUOUS
 10
1.758698
 20
-83.67102
 11
2.23818
 21
-84.134207
  0
LINE
  8
型材断面
  6
CONTINUOUS
 10
2.23818
 20
-84.134207
 11
2.94518
 21
-84.121987
  0
LINE
  8
型材断面
  6
CONTINUOUS
 10
17.633805
 20
-66.517822
 11
18.340807
 21
-66.505605
  0
LINE
  8
型材断面
  6
CONTINUOUS
 10
18.340807
 20
-66.505605
 11
18.82029
 21
-66.96879
  0
LINE
  8
型材断面
  6
CONTINUOUS
 10
18.82029
 20
-66.96879
 11
18.83251
 21
-67.675792
  0
LINE
  8
型材断面
  6
CONTINUOUS
 10
1.746478
 20
-82.96402
 11
17.633805
 21
-66.517822
  0
LINE
  8
型材断面
  6
CONTINUOUS
 10
2.94518
 20
-84.121987
 11
18.83251
 21
-67.675792
  0
CIRCLE
  8
ボルト／ビス
  6
CONTINUOUS
 10
2.57742
 20
-83.303262
 40
0.250185
  0
CIRCLE
  8
ボルト／ビス
  6
CONTINUOUS
 10
2.57742
 20
-83.303262
 40
0.301025
  0
LINE
  8
ボルト／ビス
  6
CONTINUOUS
 62
    64
 10
2.336915
 20
-83.372182
 11
2.397482
 21
-83.12944
  0
LINE
  8
ボルト／ビス
  6
CONTINUOUS
 62
    64
 10
2.637988
 20
-83.060517
 11
2.397482
 21
-83.12944
  0
LINE
  8
ボルト／ビス
  6
CONTINUOUS
 62
    64
 10
2.516852
 20
-83.546008
 11
2.757358
 21
-83.477085
  0
LINE
  8
ボルト／ビス
  6
CONTINUOUS
 62
    64
 10
2.817928
 20
-83.234342
 11
2.757358
 21
-83.477085
  0
LINE
  8
ボルト／ビス
  6
CONTINUOUS
 62
    64
 10
2.336915
 20
-83.372182
 11
2.516852
 21
-83.546008
  0
LINE
  8
ボルト／ビス
  6
CONTINUOUS
 62
    64
 10
2.637988
 20
-83.060517
 11
2.817928
 21
-83.234342
  0
CIRCLE
  8
ボルト／ビス
  6
CONTINUOUS
 62
    64
 10
2.57742
 20
-83.303262
 40
0.216668
  0
CIRCLE
  8
ボルト／ビス
  6
CONTINUOUS
 10
10.289493
 20
-75.319905
 40
0.250185
  0
CIRCLE
  8
ボルト／ビス
  6
CONTINUOUS
 10
10.289493
 20
-75.319905
 40
0.301025
  0
LINE
  8
ボルト／ビス
  6
CONTINUOUS
 62
    64
 10
10.048987
 20
-75.388822
 11
10.109553
 21
-75.14608
  0
LINE
  8
ボルト／ビス
  6
CONTINUOUS
 62
    64
 10
10.35006
 20
-75.07716
 11
10.109553
 21
-75.14608
  0
LINE
  8
ボルト／ビス
  6
CONTINUOUS
 62
    64
 10
10.228925
 20
-75.56265
 11
10.46943
 21
-75.493728
  0
LINE
  8
ボルト／ビス
  6
CONTINUOUS
 62
    64
 10
10.53
 20
-75.250985
 11
10.46943
 21
-75.493728
  0
LINE
  8
ボルト／ビス
  6
CONTINUOUS
 62
    64
 10
10.048987
 20
-75.388822
 11
10.228925
 21
-75.56265
  0
LINE
  8
ボルト／ビス
  6
CONTINUOUS
 62
    64
 10
10.35006
 20
-75.07716
 11
10.53
 21
-75.250985
  0
CIRCLE
  8
ボルト／ビス
  6
CONTINUOUS
 62
    64
 10
10.289493
 20
-75.319905
 40
0.216668
  0
CIRCLE
  8
ボルト／ビス
  6
CONTINUOUS
 10
18.001565
 20
-67.336547
 40
0.250185
  0
CIRCLE
  8
ボルト／ビス
  6
CONTINUOUS
 10
18.001565
 20
-67.336547
 40
0.301025
  0
LINE
  8
ボルト／ビス
  6
CONTINUOUS
 62
    64
 10
18.062133
 20
-67.093803
 11
17.821628
 21
-67.162725
  0
LINE
  8
ボルト／ビス
  6
CONTINUOUS
 62
    64
 10
17.761058
 20
-67.405468
 11
17.821628
 21
-67.162725
  0
LINE
  8
ボルト／ビス
  6
CONTINUOUS
 62
    64
 10
18.24207
 20
-67.267625
 11
18.181502
 21
-67.51037
  0
LINE
  8
ボルト／ビス
  6
CONTINUOUS
 62
    64
 10
17.940998
 20
-67.57929
 11
18.181502
 21
-67.51037
  0
LINE
  8
ボルト／ビス
  6
CONTINUOUS
 62
    64
 10
18.062133
 20
-67.093803
 11
18.24207
 21
-67.267625
  0
LINE
  8
ボルト／ビス
  6
CONTINUOUS
 62
    64
 10
17.761058
 20
-67.405468
 11
17.940998
 21
-67.57929
  0
CIRCLE
  8
ボルト／ビス
  6
CONTINUOUS
 62
    64
 10
18.001565
 20
-67.336547
 40
0.216668
  0
ENDBLK
  0
BLOCK
  2
*DIM_0021
 70
    65
 10
0.0
 20
0.0
  0
LINE
  8
寸法
  6
CONTINUOUS
 10
34.570135
 20
-77.726545
 11
34.570135
 21
-85.376595
  0
POINT
  8
寸法
 10
34.570135
 20
-77.726545
  0
POINT
  8
寸法
 10
34.570135
 20
-85.376595
  0
TEXT
  7
TextStyle03
  8
寸法
  6
CONTINUOUS
 10
38.8
 20
-85.4
  1
229.5
 40
3.0
 50
90.0
 72
     5
 11
38.8
 21
-77.15
  0
ENDBLK
  0
BLOCK
  2
*DIM_0022
 70
    65
 10
0.0
 20
0.0
  0
LINE
  8
寸法
  6
CONTINUOUS
 10
116.421445
 20
-41.762375
 11
75.671445
 21
-41.762375
  0
POINT
  8
寸法
 10
116.421445
 20
-41.762375
  0
POINT
  8
寸法
 10
75.671445
 20
-41.762375
  0
TEXT
  7
TextStyle03
  8
寸法
  6
CONTINUOUS
 10
91.05625
 20
-41.425
  1
1222.5
 40
3.0
 72
     5
 11
100.99375
 21
-41.425
  0
ENDBLK
  0
BLOCK
  2
*DIM_0023
 70
    65
 10
0.0
 20
0.0
  0
LINE
  8
寸法
  6
BYBLOCK
 62
     0
 10
34.570135
 20
-64.393213
 11
34.570135
 21
-77.726545
  0
POINT
  8
寸法
 62
     0
 10
34.570135
 20
-64.393213
  0
POINT
  8
寸法
 62
     0
 10
34.570135
 20
-77.726545
  0
TEXT
  7
TextStyle03
  8
寸法
  6
CONTINUOUS
 62
     0
 10
34.125
 20
-62.06875
  1
上昇362以上
 40
3.0
 50
90.0
 72
     5
 11
34.125
 21
-43.88125
  0
ENDBLK
  0
ENDSEC
  0
SECTION
  2
ENTITIES
  0
POLYLINE
  8
通り芯
  6
CONTINUOUS
 66
     1
 70
     1
  0
VERTEX
  8
通り芯
 10
-210.0
 20
-148.5
  0
VERTEX
  8
通り芯
 10
210.0
 20
-148.5
  0
VERTEX
  8
通り芯
 10
210.0
 20
148.5
  0
VERTEX
  8
通り芯
 10
-210.0
 20
148.5
  0
SEQEND
  0
INSERT
  2
*GRP_0001
  8
型材断面
  6
CONTINUOUS
 10
0.0
 20
0.0
  0
LINE
  8
型材断面
  6
DASHDOT
 10
21.33489
 20
-87.251428
 11
21.33489
 21
56.73238
  0
LINE
  8
型材断面
  6
DASHDOT
 10
-20.331778
 20
-87.251428
 11
-20.331778
 21
56.73238
  0
LINE
  8
型材断面
  6
DASHDOT
 10
-61.998442
 20
-87.251428
 11
-61.998442
 21
56.73238
  0
LINE
  8
型材断面
  6
DASHDOT
 10
119.011652
 20
56.73238
 11
-61.998442
 21
56.73238
  0
LINE
  8
型材断面
  6
DASHDOT
 10
119.011652
 20
35.065715
 11
-61.998442
 21
35.065715
  0
LINE
  8
型材断面
  6
DASHDOT
 10
119.011652
 20
13.399048
 11
-61.998442
 21
13.399048
  0
POLYLINE
  8
型材断面
  6
CONTINUOUS
 66
     1
 70
     1
  0
VERTEX
  8
型材断面
 10
-10.768635
 20
66.508305
  0
VERTEX
  8
型材断面
 10
-29.540565
 20
66.508305
  0
VERTEX
  8
型材断面
 10
-29.540565
 20
71.245147
  0
VERTEX
  8
型材断面
 10
-10.768635
 20
71.245147
  0
SEQEND
  0
POLYLINE
  8
型材断面
  6
CONTINUOUS
 66
     1
 70
     1
  0
VERTEX
  8
型材断面
 10
-10.768635
 20
3.623125
  0
VERTEX
  8
型材断面
 10
-29.540565
 20
3.623125
  0
VERTEX
  8
型材断面
 10
-29.540565
 20
-1.113717
  0
VERTEX
  8
型材断面
 10
-10.768635
 20
-1.113717
  0
SEQEND
  0
LINE
  8
型材断面
  6
CONTINUOUS
 10
-64.628572
 20
35.065715
 11
-67.21908
 21
36.561345
  0
LINE
  8
型材断面
  6
CONTINUOUS
 10
-64.628572
 20
35.065715
 11
-67.21908
 21
33.570085
  0
LINE
  8
型材断面
  6
CONTINUOUS
 10
-67.21908
 20
33.570085
 11
-67.21908
 21
36.561345
  0
LINE
  8
型材断面
  6
CONTINUOUS
 10
-45.331775
 20
59.36251
 11
-46.827405
 21
61.953017
  0
LINE
  8
型材断面
  6
CONTINUOUS
 10
-45.331775
 20
59.36251
 11
-43.836145
 21
61.953017
  0
LINE
  8
型材断面
  6
CONTINUOUS
 10
-43.836145
 20
61.953017
 11
-46.827405
 21
61.953017
  0
LINE
  8
型材断面
  6
CONTINUOUS
 10
-102.85065
 20
94.709852
 11
-102.254595
 21
92.119345
  0
LINE
  8
型材断面
  6
CONTINUOUS
 10
-102.85065
 20
94.709852
 11
-103.446707
 21
92.119345
  0
LINE
  8
型材断面
  6
CONTINUOUS
 10
-103.446707
 20
92.119345
 11
-102.254595
 21
92.119345
  0
LINE
  8
型材断面
  6
CONTINUOUS
 10
-108.873237
 20
88.840452
 11
-62.63146
 21
88.840452
  0
LINE
  8
型材断面
  6
CONTINUOUS
 10
-102.85065
 20
101.239727
 11
-104.34628
 21
98.64922
  0
LINE
  8
型材断面
  6
CONTINUOUS
 10
-102.85065
 20
101.239727
 11
-101.35502
 21
98.64922
  0
LINE
  8
型材断面
  6
CONTINUOUS
 10
-101.35502
 20
98.64922
 11
-104.34628
 21
98.64922
  0
LINE
  8
型材断面
  6
CONTINUOUS
 10
-108.873237
 20
97.710625
 11
-62.63146
 21
97.710625
  0
LINE
  8
型材断面
  6
CONTINUOUS
 10
-108.873237
 20
83.05242
 11
-62.63146
 21
83.05242
  0
LINE
  8
型材断面
  6
CONTINUOUS
 10
-45.331775
 20
10.76892
 11
-46.827405
 21
8.178413
  0
LINE
  8
型材断面
  6
CONTINUOUS
 10
-45.331775
 20
10.76892
 11
-43.836145
 21
8.178413
  0
LINE
  8
型材断面
  6
CONTINUOUS
 10
-43.836145
 20
8.178413
 11
-46.827405
 21
8.178413
  0
LINE
  8
型材断面
  6
CONTINUOUS
 10
23.965018
 20
35.065715
 11
26.555525
 21
36.561345
  0
LINE
  8
型材断面
  6
CONTINUOUS
 10
23.965018
 20
35.065715
 11
26.555525
 21
33.570085
  0
LINE
  8
型材断面
  6
CONTINUOUS
 10
26.555525
 20
33.570085
 11
26.555525
 21
36.561345
  0
LINE
  8
型材断面
  6
CONTINUOUS
 10
4.66822
 20
59.36251
 11
6.16385
 21
61.953017
  0
LINE
  8
型材断面
  6
CONTINUOUS
 10
4.66822
 20
59.36251
 11
3.17259
 21
61.953017
  0
LINE
  8
型材断面
  6
CONTINUOUS
 10
3.17259
 20
61.953017
 11
6.16385
 21
61.953017
  0
LINE
  8
型材断面
  6
CONTINUOUS
 10
4.66822
 20
10.76892
 11
6.16385
 21
8.178413
  0
LINE
  8
型材断面
  6
CONTINUOUS
 10
4.66822
 20
10.76892
 11
3.17259
 21
8.178413
  0
LINE
  8
型材断面
  6
CONTINUOUS
 10
3.17259
 20
8.178413
 11
6.16385
 21
8.178413
  0
LINE
  8
型材断面
  6
CONTINUOUS
 10
23.96502
 20
53.032382
 11
26.55553
 21
52.43633
  0
LINE
  8
型材断面
  6
CONTINUOUS
 10
23.96502
 20
53.032382
 11
26.555528
 21
53.628442
  0
LINE
  8
型材断面
  6
CONTINUOUS
 10
26.555528
 20
53.628442
 11
26.55553
 21
52.43633
  0
LINE
  8
型材断面
  6
CONTINUOUS
 10
23.96502
 20
17.099048
 11
26.55553
 21
17.6951
  0
LINE
  8
型材断面
  6
CONTINUOUS
 10
23.96502
 20
17.099048
 11
26.555528
 21
16.502988
  0
LINE
  8
型材断面
  6
CONTINUOUS
 10
26.555528
 20
16.502988
 11
26.55553
 21
17.6951
  0
LINE
  8
型材断面
  6
CONTINUOUS
 10
-64.628575
 20
53.032382
 11
-67.219085
 21
52.43633
  0
LINE
  8
型材断面
  6
CONTINUOUS
 10
-64.628575
 20
53.032382
 11
-67.219082
 21
53.628442
  0
LINE
  8
型材断面
  6
CONTINUOUS
 10
-67.219082
 20
53.628442
 11
-67.219085
 21
52.43633
  0
LINE
  8
型材断面
  6
CONTINUOUS
 10
-64.628575
 20
17.099048
 11
-67.219085
 21
17.6951
  0
LINE
  8
型材断面
  6
CONTINUOUS
 10
-64.628575
 20
17.099048
 11
-67.219082
 21
16.502988
  0
LINE
  8
型材断面
  6
CONTINUOUS
 10
-67.219082
 20
16.502988
 11
-67.219085
 21
17.6951
  0
LINE
  8
型材断面
  6
CONTINUOUS
 10
-63.981628
 20
11.41587
 11
-20.331778
 21
11.41587
  0
LINE
  8
型材断面
  6
CONTINUOUS
 10
-63.981628
 20
58.71556
 11
-20.331778
 21
58.71556
  0
LINE
  8
型材断面
  6
CONTINUOUS
 10
23.318073
 20
58.71556
 11
-20.331778
 21
58.71556
  0
LINE
  8
型材断面
  6
CONTINUOUS
 10
23.318073
 20
11.41587
 11
-20.331778
 21
11.41587
  0
LINE
  8
型材断面
  6
CONTINUOUS
 10
-108.873237
 20
77.264387
 11
-62.63146
 21
77.264387
  0
ARC
  8
型材断面
  6
CONTINUOUS
 62
    47
 10
113.734137
 20
11.415711
 40
0.016668
 50
179.999123
 51
270.0
  0
ARC
  8
型材断面
  6
CONTINUOUS
 62
    47
 10
113.774138
 20
11.409045
 40
0.010002
 50
270.0
 51
359.791626
  0
LINE
  8
型材断面
  6
CONTINUOUS
 62
    47
 10
113.95086
 20
11.44905
 11
113.95086
 21
12.299195
  0
LINE
  8
型材断面
  6
CONTINUOUS
 62
    47
 10
113.717473
 20
11.41571
 11
111.610813
 21
11.41571
  0
LINE
  8
型材断面
  6
CONTINUOUS
 62
    47
 10
113.95086
 20
11.415715
 11
117.267527
 21
11.415715
  0
LINE
  8
型材断面
  6
CONTINUOUS
 62
    47
 10
117.767527
 20
11.915715
 11
117.267527
 21
11.915715
  0
LINE
  8
型材断面
  6
CONTINUOUS
 62
    47
 10
111.610813
 20
12.29905
 11
111.284145
 21
12.29905
  0
LINE
  8
型材断面
  6
CONTINUOUS
 62
    47
 10
113.73414
 20
11.39905
 11
113.7738
 21
11.39905
  0
ARC
  8
型材断面
  6
CONTINUOUS
 62
    47
 10
113.734137
 20
58.715717
 40
0.016668
 50
90.0
 51
180.000877
  0
ARC
  8
型材断面
  6
CONTINUOUS
 62
    47
 10
113.774138
 20
58.722383
 40
0.010002
 50
0.208374
 51
90.0
  0
LINE
  8
型材断面
  6
CONTINUOUS
 62
    47
 10
113.95086
 20
58.68238
 11
113.95086
 21
57.832232
  0
LINE
  8
型材断面
  6
CONTINUOUS
 62
    47
 10
113.717473
 20
58.715718
 11
111.610813
 21
58.715718
  0
LINE
  8
型材断面
  6
CONTINUOUS
 62
    47
 10
113.95086
 20
58.715712
 11
117.267527
 21
58.715712
  0
LINE
  8
型材断面
  6
CONTINUOUS
 62
    47
 10
117.767527
 20
58.215712
 11
117.267527
 21
58.215712
  0
LINE
  8
型材断面
  6
CONTINUOUS
 62
    47
 10
111.610813
 20
57.832378
 11
111.284145
 21
57.832378
  0
LINE
  8
型材断面
  6
CONTINUOUS
 62
    47
 10
113.73414
 20
58.73238
 11
113.7738
 21
58.73238
  0
LINE
  8
型材断面
  6
CONTINUOUS
 10
111.610813
 20
11.41571
 11
111.610813
 21
35.065715
  0
LINE
  8
型材断面
  6
CONTINUOUS
 10
111.284145
 20
11.99905
 11
111.284145
 21
35.065715
  0
LINE
  8
型材断面
  6
CONTINUOUS
 10
109.617477
 20
11.99905
 11
109.617477
 21
35.065715
  0
LINE
  8
型材断面
  6
CONTINUOUS
 10
109.784145
 20
11.842527
 11
109.784145
 21
35.065715
  0
LINE
  8
型材断面
  6
CONTINUOUS
 10
113.95086
 20
11.415715
 11
113.95086
 21
35.065715
  0
LINE
  8
型材断面
  6
CONTINUOUS
 10
113.784145
 20
11.409045
 11
113.784145
 21
35.065715
  0
LINE
  8
型材断面
  6
CONTINUOUS
 10
117.267527
 20
11.415715
 11
117.267527
 21
35.065715
  0
LINE
  8
型材断面
  6
CONTINUOUS
 10
117.767527
 20
11.915715
 11
117.767527
 21
35.065715
  0
LINE
  8
型材断面
  6
CONTINUOUS
 10
117.767527
 20
58.215712
 11
117.767527
 21
35.065715
  0
LINE
  8
型材断面
  6
CONTINUOUS
 10
117.267527
 20
58.715712
 11
117.267527
 21
35.065715
  0
LINE
  8
型材断面
  6
CONTINUOUS
 10
113.784145
 20
58.722382
 11
113.784145
 21
35.065715
  0
LINE
  8
型材断面
  6
CONTINUOUS
 10
113.95086
 20
58.715712
 11
113.95086
 21
35.065715
  0
LINE
  8
型材断面
  6
CONTINUOUS
 10
111.610813
 20
58.715718
 11
111.610813
 21
35.065715
  0
LINE
  8
型材断面
  6
CONTINUOUS
 10
111.284145
 20
58.13238
 11
111.284145
 21
35.065715
  0
LINE
  8
型材断面
  6
CONTINUOUS
 10
109.617477
 20
58.13238
 11
109.617477
 21
35.065715
  0
LINE
  8
型材断面
  6
CONTINUOUS
 10
109.784145
 20
58.2889
 11
109.784145
 21
35.065715
  0
ARC
  8
型材断面
  6
CONTINUOUS
 62
    47
 10
-63.981779
 20
-81.84321
 40
0.016668
 50
89.999123
 51
180.0
  0
ARC
  8
型材断面
  6
CONTINUOUS
 62
    47
 10
-63.988445
 20
-81.883212
 40
0.010002
 50
180.0
 51
269.791626
  0
LINE
  8
型材断面
  6
CONTINUOUS
 62
    47
 10
-63.94844
 20
-82.05993
 11
-63.098295
 21
-82.05993
  0
LINE
  8
型材断面
  6
CONTINUOUS
 62
    47
 10
-63.98178
 20
-81.82654
 11
-63.98178
 21
-79.71988
  0
LINE
  8
型材断面
  6
CONTINUOUS
 62
    47
 10
-63.981775
 20
-82.05993
 11
-63.981775
 21
-85.376595
  0
LINE
  8
型材断面
  6
CONTINUOUS
 62
    47
 10
-63.481775
 20
-85.876595
 11
-63.481775
 21
-85.376595
  0
LINE
  8
型材断面
  6
CONTINUOUS
 62
    47
 10
-63.09844
 20
-79.71988
 11
-63.09844
 21
-79.393213
  0
LINE
  8
型材断面
  6
CONTINUOUS
 62
    47
 10
-63.99844
 20
-81.843207
 11
-63.99844
 21
-81.882867
  0
ARC
  8
型材断面
  6
CONTINUOUS
 62
    47
 10
23.318227
 20
-81.84321
 40
0.016668
 50
0.0
 51
90.000877
  0
ARC
  8
型材断面
  6
CONTINUOUS
 62
    47
 10
23.324893
 20
-81.883212
 40
0.010002
 50
270.208374
 51
360.0
  0
LINE
  8
型材断面
  6
CONTINUOUS
 62
    47
 10
23.28489
 20
-82.05993
 11
22.434742
 21
-82.05993
  0
LINE
  8
型材断面
  6
CONTINUOUS
 62
    47
 10
23.318227
 20
-81.82654
 11
23.318227
 21
-79.71988
  0
LINE
  8
型材断面
  6
CONTINUOUS
 62
    47
 10
23.318223
 20
-82.05993
 11
23.318223
 21
-85.376595
  0
LINE
  8
型材断面
  6
CONTINUOUS
 62
    47
 10
22.818223
 20
-85.876595
 11
22.818223
 21
-85.376595
  0
LINE
  8
型材断面
  6
CONTINUOUS
 62
    47
 10
22.434887
 20
-79.71988
 11
22.434887
 21
-79.393213
  0
LINE
  8
型材断面
  6
CONTINUOUS
 62
    47
 10
23.33489
 20
-81.843207
 11
23.33489
 21
-81.882867
  0
LINE
  8
型材断面
  6
CONTINUOUS
 10
-63.39844
 20
-77.726545
 11
-20.331775
 21
-77.726545
  0
LINE
  8
型材断面
  6
CONTINUOUS
 10
-63.554962
 20
-77.893213
 11
-20.331775
 21
-77.893213
  0
LINE
  8
型材断面
  6
CONTINUOUS
 10
-63.98178
 20
-79.71988
 11
-20.331775
 21
-79.71988
  0
LINE
  8
型材断面
  6
CONTINUOUS
 10
-63.39844
 20
-79.393213
 11
-20.331775
 21
-79.393213
  0
LINE
  8
型材断面
  6
CONTINUOUS
 10
-63.981775
 20
-82.05993
 11
-20.331775
 21
-82.05993
  0
LINE
  8
型材断面
  6
CONTINUOUS
 10
-63.988445
 20
-81.893213
 11
-20.331775
 21
-81.893213
  0
LINE
  8
型材断面
  6
CONTINUOUS
 10
-63.981775
 20
-85.376595
 11
-20.331775
 21
-85.376595
  0
LINE
  8
型材断面
  6
CONTINUOUS
 10
-63.481775
 20
-85.876595
 11
-20.331775
 21
-85.876595
  0
LINE
  8
型材断面
  6
CONTINUOUS
 10
22.818223
 20
-85.876595
 11
-20.331775
 21
-85.876595
  0
LINE
  8
型材断面
  6
CONTINUOUS
 10
23.318223
 20
-85.376595
 11
-20.331775
 21
-85.376595
  0
LINE
  8
型材断面
  6
CONTINUOUS
 10
23.318223
 20
-82.05993
 11
-20.331775
 21
-82.05993
  0
LINE
  8
型材断面
  6
CONTINUOUS
 10
23.324892
 20
-81.893213
 11
-20.331775
 21
-81.893213
  0
LINE
  8
型材断面
  6
CONTINUOUS
 10
23.318227
 20
-79.71988
 11
-20.331775
 21
-79.71988
  0
LINE
  8
型材断面
  6
CONTINUOUS
 10
22.73489
 20
-79.393213
 11
-20.331775
 21
-79.393213
  0
LINE
  8
型材断面
  6
CONTINUOUS
 10
22.73489
 20
-77.726545
 11
-20.331775
 21
-77.726545
  0
LINE
  8
型材断面
  6
CONTINUOUS
 10
22.89141
 20
-77.893213
 11
-20.331775
 21
-77.893213
  0
ARC
  8
型材断面
  6
DOT
 62
    47
 10
-63.981779
 20
-68.509876
 40
0.016668
 50
89.999123
 51
180.0
  0
ARC
  8
型材断面
  6
DOT
 62
    47
 10
-63.988445
 20
-68.549877
 40
0.010002
 50
180.0
 51
269.791626
  0
LINE
  8
型材断面
  6
DOT
 62
    47
 10
-63.98178
 20
-68.493207
 11
-63.98178
 21
-66.386547
  0
LINE
  8
型材断面
  6
DOT
 62
    47
 10
-63.09844
 20
-66.386547
 11
-63.09844
 21
-66.05988
  0
LINE
  8
型材断面
  6
DOT
 62
    47
 10
-63.99844
 20
-68.509875
 11
-63.99844
 21
-68.549535
  0
ARC
  8
型材断面
  6
DOT
 62
    47
 10
23.318227
 20
-68.509876
 40
0.016668
 50
0.0
 51
90.000877
  0
ARC
  8
型材断面
  6
DOT
 62
    47
 10
23.324893
 20
-68.549877
 40
0.010002
 50
270.208374
 51
360.0
  0
LINE
  8
型材断面
  6
DOT
 62
    47
 10
23.318227
 20
-68.493207
 11
23.318227
 21
-66.386547
  0
LINE
  8
型材断面
  6
DOT
 62
    47
 10
22.434887
 20
-66.386547
 11
22.434887
 21
-66.05988
  0
LINE
  8
型材断面
  6
DOT
 62
    47
 10
23.33489
 20
-68.509875
 11
23.33489
 21
-68.549535
  0
LINE
  8
型材断面
  6
DOT
 10
-63.554962
 20
-64.55988
 11
-20.331775
 21
-64.55988
  0
LINE
  8
型材断面
  6
DOT
 10
-63.39844
 20
-64.393213
 11
-20.331775
 21
-64.393213
  0
LINE
  8
型材断面
  6
DOT
 10
-63.98178
 20
-66.386547
 11
-20.331775
 21
-66.386547
  0
LINE
  8
型材断面
  6
DOT
 10
-63.39844
 20
-66.05988
 11
-20.331775
 21
-66.05988
  0
LINE
  8
型材断面
  6
DOT
 10
-63.988445
 20
-68.55988
 11
-20.331775
 21
-68.55988
  0
LINE
  8
型材断面
  6
DOT
 10
23.324892
 20
-68.55988
 11
-20.331775
 21
-68.55988
  0
LINE
  8
型材断面
  6
DOT
 10
22.73489
 20
-66.05988
 11
-20.331775
 21
-66.05988
  0
LINE
  8
型材断面
  6
DOT
 10
23.318227
 20
-66.386547
 11
-20.331775
 21
-66.386547
  0
LINE
  8
型材断面
  6
DOT
 10
22.73489
 20
-64.393213
 11
-20.331775
 21
-64.393213
  0
LINE
  8
型材断面
  6
DOT
 10
22.89141
 20
-64.55988
 11
-20.331775
 21
-64.55988
  0
INSERT
  2
*GRP_0017
  8
型材断面
  6
CONTINUOUS
 10
0.0
 20
0.0
  0
INSERT
  2
*GRP_0018
  8
型材断面
  6
CONTINUOUS
 10
0.0
 20
0.0
  0
INSERT
  2
*GRP_0019
  8
型材断面
  6
CONTINUOUS
 10
0.0
 20
0.0
  0
INSERT
  2
*GRP_0020
  8
型材断面
  6
CONTINUOUS
 10
0.0
 20
0.0
  0
LINE
  8
型材断面
  6
CONTINUOUS
 10
0.918225
 20
14.34253
 11
0.918225
 21
11.84253
  0
LINE
  8
型材断面
  6
CONTINUOUS
 10
0.08489
 20
14.34253
 11
0.08489
 21
11.84253
  0
LINE
  8
型材断面
  6
CONTINUOUS
 10
-41.58178
 20
14.34253
 11
-41.58178
 21
11.84253
  0
LINE
  8
型材断面
  6
CONTINUOUS
 10
-40.748445
 20
14.34253
 11
-40.748445
 21
11.84253
  0
LINE
  8
型材断面
  6
CONTINUOUS
 10
0.918225
 20
55.7889
 11
0.918225
 21
58.2889
  0
LINE
  8
型材断面
  6
CONTINUOUS
 10
0.08489
 20
55.7889
 11
0.08489
 21
58.2889
  0
LINE
  8
型材断面
  6
CONTINUOUS
 10
-41.58178
 20
55.7889
 11
-41.58178
 21
58.2889
  0
LINE
  8
型材断面
  6
CONTINUOUS
 10
-40.748445
 20
55.7889
 11
-40.748445
 21
58.2889
  0
LINE
  8
型材断面
  6
CONTINUOUS
 10
-40.748445
 20
55.7889
 11
0.08489
 21
55.7889
  0
LINE
  8
型材断面
  6
CONTINUOUS
 10
-40.748445
 20
14.34253
 11
0.08489
 21
14.34253
  0
LINE
  8
型材断面
  6
CONTINUOUS
 10
-19.081778
 20
15.175863
 11
-21.581778
 21
15.175863
  0
LINE
  8
型材断面
  6
CONTINUOUS
 10
-19.081778
 20
15.175863
 11
-19.081778
 21
54.955567
  0
LINE
  8
型材断面
  6
CONTINUOUS
 10
-21.581778
 20
15.175863
 11
-21.581778
 21
54.955567
  0
LINE
  8
型材断面
  6
CONTINUOUS
 10
-19.081778
 20
54.955567
 11
-21.581778
 21
54.955567
  0
LINE
  8
型材断面
  6
CONTINUOUS
 10
23.318075
 20
11.41587
 11
23.318075
 21
35.065715
  0
LINE
  8
型材断面
  6
CONTINUOUS
 10
23.318075
 20
58.71556
 11
23.318075
 21
35.065715
  0
LINE
  8
型材断面
  6
CONTINUOUS
 10
22.89141
 20
35.48238
 11
20.39141
 21
35.48238
  0
LINE
  8
型材断面
  6
CONTINUOUS
 10
22.89141
 20
34.649048
 11
20.39141
 21
34.649048
  0
LINE
  8
型材断面
  6
CONTINUOUS
 10
22.655712
 20
11.842527
 11
22.89141
 21
12.078235
  0
LINE
  8
型材断面
  6
CONTINUOUS
 10
20.39141
 20
34.649048
 11
20.39141
 21
14.57823
  0
LINE
  8
型材断面
  6
CONTINUOUS
 10
20.39141
 20
14.57823
 11
20.155708
 21
14.342527
  0
LINE
  8
型材断面
  6
CONTINUOUS
 10
20.155708
 20
14.342527
 11
22.655712
 21
11.842527
  0
LINE
  8
型材断面
  6
CONTINUOUS
 10
20.39141
 20
14.57823
 11
22.89141
 21
12.078235
  0
LINE
  8
型材断面
  6
CONTINUOUS
 10
23.318075
 20
11.41587
 11
22.773562
 21
11.960383
  0
LINE
  8
型材断面
  6
CONTINUOUS
 10
22.655712
 20
58.288903
 11
22.89141
 21
58.053195
  0
LINE
  8
型材断面
  6
CONTINUOUS
 10
20.39141
 20
55.5532
 11
20.155708
 21
55.788903
  0
LINE
  8
型材断面
  6
CONTINUOUS
 10
23.318075
 20
58.71556
 11
22.773562
 21
58.171047
  0
LINE
  8
型材断面
  6
CONTINUOUS
 10
20.39141
 20
35.48238
 11
20.39141
 21
55.5532
  0
LINE
  8
型材断面
  6
CONTINUOUS
 10
20.39141
 20
55.5532
 11
22.89141
 21
58.053195
  0
LINE
  8
型材断面
  6
CONTINUOUS
 10
22.89141
 20
12.078235
 11
22.89141
 21
58.053195
  0
LINE
  8
型材断面
  6
CONTINUOUS
 10
20.155708
 20
55.788903
 11
22.655712
 21
58.288903
  0
LINE
  8
型材断面
  6
CONTINUOUS
 10
-63.98163
 20
11.41587
 11
-63.98163
 21
35.065715
  0
LINE
  8
型材断面
  6
CONTINUOUS
 10
-63.98163
 20
58.71556
 11
-63.98163
 21
35.065715
  0
LINE
  8
型材断面
  6
CONTINUOUS
 10
-63.554965
 20
35.48238
 11
-61.054965
 21
35.48238
  0
LINE
  8
型材断面
  6
CONTINUOUS
 10
-63.554965
 20
34.649048
 11
-61.054965
 21
34.649048
  0
LINE
  8
型材断面
  6
CONTINUOUS
 10
-63.319268
 20
11.842527
 11
-63.554965
 21
12.078235
  0
LINE
  8
型材断面
  6
CONTINUOUS
 10
-61.054965
 20
34.649048
 11
-61.054965
 21
14.57823
  0
LINE
  8
型材断面
  6
CONTINUOUS
 10
-61.054965
 20
14.57823
 11
-60.819262
 21
14.342527
  0
LINE
  8
型材断面
  6
CONTINUOUS
 10
-60.819262
 20
14.342527
 11
-63.319268
 21
11.842527
  0
LINE
  8
型材断面
  6
CONTINUOUS
 10
-61.054965
 20
14.57823
 11
-63.554965
 21
12.078235
  0
LINE
  8
型材断面
  6
CONTINUOUS
 10
-63.98163
 20
11.41587
 11
-63.437118
 21
11.960383
  0
LINE
  8
型材断面
  6
CONTINUOUS
 10
-63.319268
 20
58.288903
 11
-63.554965
 21
58.053195
  0
LINE
  8
型材断面
  6
CONTINUOUS
 10
-61.054965
 20
55.5532
 11
-60.819262
 21
55.788903
  0
LINE
  8
型材断面
  6
CONTINUOUS
 10
-63.98163
 20
58.71556
 11
-63.437118
 21
58.171047
  0
LINE
  8
型材断面
  6
CONTINUOUS
 10
-61.054965
 20
35.48238
 11
-61.054965
 21
55.5532
  0
LINE
  8
型材断面
  6
CONTINUOUS
 10
-61.054965
 20
55.5532
 11
-63.554965
 21
58.053195
  0
LINE
  8
型材断面
  6
CONTINUOUS
 10
-63.554965
 20
12.078235
 11
-63.554965
 21
58.053195
  0
LINE
  8
型材断面
  6
CONTINUOUS
 10
-60.819262
 20
55.788903
 11
-63.319268
 21
58.288903
  0
LINE
  8
型材断面
  6
CONTINUOUS
 10
-41.58178
 20
14.34253
 11
-60.81926
 21
14.34253
  0
LINE
  8
型材断面
  6
CONTINUOUS
 10
-41.58178
 20
55.7889
 11
-60.81926
 21
55.7889
  0
LINE
  8
型材断面
  6
CONTINUOUS
 10
0.918225
 20
55.7889
 11
20.155705
 21
55.7889
  0
LINE
  8
型材断面
  6
CONTINUOUS
 10
-63.319265
 20
58.2889
 11
22.65571
 21
58.2889
  0
LINE
  8
型材断面
  6
CONTINUOUS
 10
0.918225
 20
14.34253
 11
20.155705
 21
14.34253
  0
LINE
  8
型材断面
  6
CONTINUOUS
 10
-63.319265
 20
11.84253
 11
22.65571
 21
11.84253
  0
TEXT
  7
TextStyle03
  8
文字
  6
CONTINUOUS
 10
97.9
 20
-86.1
  1
網入り6.8t
 40
3.0
 72
     5
 11
114.5875
 21
-86.1
  0
TEXT
  7
TextStyle03
  8
文字
  6
CONTINUOUS
 10
-28.5
 20
67.2
  1
可動装置側
 40
3.0
 72
     5
 11
-12.0
 21
67.2
  0
TEXT
  7
TextStyle03
  8
文字
  6
CONTINUOUS
 10
-28.5
 20
-0.075
  1
可動装置側
 40
3.0
 72
     5
 11
-12.0
 21
-0.075
  0
TEXT
  7
TextStyle03
  8
文字
  6
CONTINUOUS
 10
104.575
 20
-90.775
  1
×２枚
 40
3.0
 72
     5
 11
114.325
 21
-90.775
  0
TEXT
  7
TextStyle03
  8
文字
  6
CONTINUOUS
 10
-100.1
 20
93.325
  1
はケーシング位置を示す
 40
3.0
 72
     5
 11
-63.35
 21
93.325
  0
TEXT
  7
TextStyle03
  8
文字
  6
CONTINUOUS
 10
-100.1
 20
89.95
  1
４ヶ所中1ヶ所に設定
 40
3.0
 72
     5
 11
-68.4125
 21
89.95
  0
TEXT
  7
TextStyle03
  8
文字
  6
CONTINUOUS
 10
-100.1
 20
98.85
  1
は排水穴位置を示す
 40
3.0
 72
     5
 11
-70.1
 21
98.85
  0
TEXT
  7
TextStyle03
  8
文字
  6
CONTINUOUS
 10
-103.825
 20
83.975
  1
アンカー数量　１２ヶ所
 40
3.0
 72
     5
 11
-67.075
 21
83.975
  0
TEXT
  7
TextStyle03
  8
文字
  6
CONTINUOUS
 10
-99.6
 20
23.975
  1
アンカーピッチ
 40
3.0
 50
90.0
 72
     5
 11
-99.6
 21
47.225
  0
TEXT
  7
TextStyle03
  8
文字
  6
CONTINUOUS
 10
-55.375
 20
94.75
  1
アンカーピッチ
 40
3.0
 72
     5
 11
-32.125
 21
94.75
  0
TEXT
  7
TextStyle03
  8
文字
  6
CONTINUOUS
 10
-103.825
 20
78.2
  1
アームユニット数　４ヶ所
 40
3.0
 72
     5
 11
-63.7
 21
78.2
  0
LINE
  8
文字
  6
CONTINUOUS
 10
109.617477
 20
70.502383
 11
109.617477
 21
59.95242
  0
LINE
  8
文字
  6
CONTINUOUS
 10
117.267527
 20
70.502383
 11
117.267527
 21
60.0175
  0
LINE
  8
文字
  6
CONTINUOUS
 10
34.570135
 20
-77.726545
 11
24.020173
 21
-77.726545
  0
LINE
  8
文字
  6
CONTINUOUS
 10
34.570135
 20
-85.376595
 11
24.085255
 21
-85.376595
  0
LINE
  8
文字
  6
CONTINUOUS
 10
34.570135
 20
-64.393213
 11
24.020173
 21
-64.393213
  0
LINE
  8
文字
  6
CONTINUOUS
 10
116.421445
 20
-41.762375
 11
116.421445
 21
-48.45924
  0
LINE
  8
文字
  6
CONTINUOUS
 10
75.671445
 20
-41.762375
 11
75.671445
 21
-48.45924
  0
TEXT
  7
TextStyle03
  8
文字
  6
CONTINUOUS
 10
60.05
 20
125.25
  1
シリーズ：ＴＦ２ＦＬ
 40
5.0
 72
     5
 11
115.675
 21
125.25
  0
TEXT
  7
TextStyle03
  8
文字
  6
CONTINUOUS
 10
60.05
 20
119.625
  1
　　　　　（上下可動）1300×2500タイプ
 40
5.0
 72
     5
 11
166.3
 21
119.625
  0
TEXT
  7
TextStyle03
  8
文字
  6
CONTINUOUS
 10
60.05
 20
114.0
  1
図面名　：外観姿図
 40
5.0
 72
     5
 11
110.05
 21
114.0
  0
TEXT
  7
TextStyle03
  8
文字
  6
CONTINUOUS
 10
60.05
 20
108.375
  1
　　　　　　
 40
5.0
 72
     5
 11
93.175
 21
108.375
  0
TEXT
  7
TextStyle03
  8
文字
  6
CONTINUOUS
 10
60.2
 20
104.525
  1
ＮＳコード：ＮＳＦＺＬ
 40
5.0
 72
     5
 11
121.45
 21
104.525
  0
INSERT
  2
*DIM_0002
  8
寸法
  6
CONTINUOUS
 10
0.0
 20
0.0
  0
INSERT
  2
*DIM_0003
  8
寸法
  6
CONTINUOUS
 10
0.0
 20
0.0
  0
INSERT
  2
*DIM_0004
  8
寸法
  6
CONTINUOUS
 10
0.0
 20
0.0
  0
INSERT
  2
*DIM_0005
  8
寸法
  6
CONTINUOUS
 10
0.0
 20
0.0
  0
INSERT
  2
*DIM_0006
  8
寸法
  6
CONTINUOUS
 10
0.0
 20
0.0
  0
INSERT
  2
*DIM_0007
  8
寸法
  6
CONTINUOUS
 10
0.0
 20
0.0
  0
INSERT
  2
*DIM_0008
  8
寸法
  6
CONTINUOUS
 10
0.0
 20
0.0
  0
INSERT
  2
*DIM_0009
  8
寸法
  6
CONTINUOUS
 10
0.0
 20
0.0
  0
INSERT
  2
*DIM_0010
  8
寸法
  6
CONTINUOUS
 10
0.0
 20
0.0
  0
INSERT
  2
*DIM_0011
  8
寸法
  6
CONTINUOUS
 10
0.0
 20
0.0
  0
INSERT
  2
*DIM_0012
  8
寸法
  6
CONTINUOUS
 10
0.0
 20
0.0
  0
INSERT
  2
*DIM_0013
  8
寸法
  6
CONTINUOUS
 10
0.0
 20
0.0
  0
INSERT
  2
*DIM_0014
  8
寸法
  6
CONTINUOUS
 10
0.0
 20
0.0
  0
INSERT
  2
*DIM_0015
  8
寸法
  6
CONTINUOUS
 10
0.0
 20
0.0
  0
INSERT
  2
*DIM_0016
  8
寸法
  6
CONTINUOUS
 10
0.0
 20
0.0
  0
INSERT
  2
*DIM_0021
  8
寸法
  6
CONTINUOUS
 10
0.0
 20
0.0
  0
INSERT
  2
*DIM_0022
  8
寸法
  6
CONTINUOUS
 10
0.0
 20
0.0
  0
INSERT
  2
*DIM_0023
  8
寸法
  6
CONTINUOUS
 10
0.0
 20
0.0
  0
LINE
  8
別途部材
  6
CONTINUOUS
 62
    47
 10
109.717477
 20
11.842527
 11
109.784145
 21
11.842527
  0
ARC
  8
別途部材
  6
CONTINUOUS
 62
    47
 10
109.717474
 20
11.942527
 40
0.1
 50
180.0
 51
270.0
  0
LINE
  8
別途部材
  6
CONTINUOUS
 62
    47
 10
109.617477
 20
11.942527
 11
109.617477
 21
14.309195
  0
LINE
  8
別途部材
  6
CONTINUOUS
 62
    47
 10
111.284145
 20
11.99905
 11
109.784145
 21
11.99905
  0
LINE
  8
別途部材
  6
CONTINUOUS
 62
    47
 10
109.717477
 20
58.2889
 11
109.784145
 21
58.2889
  0
ARC
  8
別途部材
  6
CONTINUOUS
 62
    47
 10
109.717474
 20
58.188902
 40
0.1
 50
90.0
 51
180.0
  0
LINE
  8
別途部材
  6
CONTINUOUS
 62
    47
 10
109.617477
 20
58.1889
 11
109.617477
 21
55.822235
  0
LINE
  8
別途部材
  6
CONTINUOUS
 62
    47
 10
111.284145
 20
58.13238
 11
109.784145
 21
58.13238
  0
LINE
  8
別途部材
  6
CONTINUOUS
 62
    47
 10
-63.554962
 20
-77.826545
 11
-63.554962
 21
-77.893213
  0
ARC
  8
別途部材
  6
CONTINUOUS
 62
    47
 10
-63.454963
 20
-77.826547
 40
0.1
 50
90.0
 51
180.0
  0
LINE
  8
別途部材
  6
CONTINUOUS
 62
    47
 10
-63.454962
 20
-77.726545
 11
-61.088295
 21
-77.726545
  0
LINE
  8
別途部材
  6
CONTINUOUS
 62
    47
 10
-63.39844
 20
-79.393213
 11
-63.39844
 21
-77.893213
  0
LINE
  8
別途部材
  6
CONTINUOUS
 62
    47
 10
22.89141
 20
-77.826545
 11
22.89141
 21
-77.893213
  0
ARC
  8
別途部材
  6
CONTINUOUS
 62
    47
 10
22.791412
 20
-77.826547
 40
0.1
 50
0.0
 51
90.0
  0
LINE
  8
別途部材
  6
CONTINUOUS
 62
    47
 10
22.79141
 20
-77.726545
 11
20.424745
 21
-77.726545
  0
LINE
  8
別途部材
  6
CONTINUOUS
 62
    47
 10
22.73489
 20
-79.393213
 11
22.73489
 21
-77.893213
  0
LINE
  8
別途部材
  6
DOT
 62
    47
 10
-63.554962
 20
-64.493213
 11
-63.554962
 21
-64.55988
  0
ARC
  8
別途部材
  6
DOT
 62
    47
 10
-63.454963
 20
-64.493213
 40
0.1
 50
90.0
 51
180.0
  0
LINE
  8
別途部材
  6
DOT
 62
    47
 10
-63.454962
 20
-64.393213
 11
-61.088295
 21
-64.393213
  0
LINE
  8
別途部材
  6
DOT
 62
    47
 10
-63.39844
 20
-66.05988
 11
-63.39844
 21
-64.55988
  0
LINE
  8
別途部材
  6
DOT
 62
    47
 10
22.89141
 20
-64.493213
 11
22.89141
 21
-64.55988
  0
ARC
  8
別途部材
  6
DOT
 62
    47
 10
22.791412
 20
-64.493213
 40
0.1
 50
0.0
 51
90.0
  0
LINE
  8
別途部材
  6
DOT
 62
    47
 10
22.79141
 20
-64.393213
 11
20.424745
 21
-64.393213
  0
LINE
  8
別途部材
  6
DOT
 62
    47
 10
22.73489
 20
-66.05988
 11
22.73489
 21
-64.55988
  0
LINE
  8
曲げ物
  6
CONTINUOUS
 10
116.421445
 20
-92.533713
 11
116.421445
 21
-49.867045
  0
LINE
  8
曲げ物
  6
CONTINUOUS
 10
2.922293
 20
37.022003
 11
-0.77302
 21
33.32669
  0
LINE
  8
曲げ物
  6
CONTINUOUS
 10
2.218822
 20
35.485893
 11
0.763092
 21
34.030163
  0
LINE
  8
曲げ物
  6
CONTINUOUS
 10
1.386182
 20
36.318533
 11
-0.069548
 21
34.862803
  0
LINE
  8
曲げ物
  6
CONTINUOUS
 10
-38.301623
 20
37.022003
 11
-41.996935
 21
33.32669
  0
LINE
  8
曲げ物
  6
CONTINUOUS
 10
-39.005092
 20
35.485893
 11
-40.460822
 21
34.030163
  0
LINE
  8
曲げ物
  6
CONTINUOUS
 10
-39.837733
 20
36.318533
 11
-41.293462
 21
34.862803
  0
LINE
  8
曲げ物
  6
CONTINUOUS
 10
75.671445
 20
-92.533713
 11
75.671445
 21
-49.867045
  0
LINE
  8
曲げ物
  6
CONTINUOUS
 10
116.421445
 20
-49.867045
 11
75.671445
 21
-49.867045
  0
LINE
  8
曲げ物
  6
CONTINUOUS
 10
116.421445
 20
-92.533713
 11
75.671445
 21
-92.533713
  0
ENDSEC
  0
EOF
