  0
SECTION
  2
HEADER
  9
$EXTMIN
 10
-210.0
 20
-148.5
  9
$EXTMAX
 10
210.0
 20
148.5
  9
$PDMODE
 70
    32
  9
$PDSIZE
 40
1.5
  9
$LTSCALE
 40
10.0
  0
ENDSEC
  0
SECTION
  2
TABLES
  0
TABLE
  2
LTYPE
 70
    15
  0
LTYPE
  2
CONTINUOUS
 70
    64
  3
実線
 72
    65
 73
     0
 40
0.0
  0
LTYPE
  2
DASHED
 70
    64
  3
破線A
 72
    65
 73
     2
 40
0.6
 49
0.4
 49
-0.2
  0
LTYPE
  2
DASHEDX2
 70
    64
  3
破線B
 72
    65
 73
     2
 40
1.3
 49
0.9
 49
-0.4
  0
LTYPE
  2
DASHDOT
 70
    64
  3
１点鎖線A
 72
    65
 73
     4
 40
0.5375
 49
0.375
 49
-0.05
 49
0.0625
 49
-0.05
  0
LTYPE
  2
DASHDOTX2
 70
    64
  3
１点鎖線B
 72
    65
 73
     4
 40
1.075
 49
0.75
 49
-0.1
 49
0.125
 49
-0.1
  0
LTYPE
  2
DIVIDE2
 70
    64
  3
２点鎖線A
 72
    65
 73
     6
 40
0.5125
 49
0.3
 49
-0.0375
 49
0.05
 49
-0.0375
 49
0.05
 49
-0.0375
  0
LTYPE
  2
DIVIDE
 70
    64
  3
２点鎖線B
 72
    65
 73
     6
 40
1.05
 49
0.55
 49
-0.1
 49
0.1
 49
-0.1
 49
0.1
 49
-0.1
  0
LTYPE
  2
DOT
 70
    64
  3
点線A
 72
    65
 73
     2
 40
0.1125
 49
0.0625
 49
-0.05
  0
LTYPE
  2
DOTX2
 70
    64
  3
点線B
 72
    65
 73
     2
 40
0.275
 49
0.15
 49
-0.125
  0
LTYPE
  2
CONTINUOUS
 70
    64
  3
実線
 72
    65
 73
     0
 40
0.0
  0
LTYPE
  2
CONTINUOUS
 70
    64
  3
実線
 72
    65
 73
     0
 40
0.0
  0
LTYPE
  2
CONTINUOUS
 70
    64
  3
実線
 72
    65
 73
     0
 40
0.0
  0
LTYPE
  2
CONTINUOUS
 70
    64
  3
実線
 72
    65
 73
     0
 40
0.0
  0
LTYPE
  2
CONTINUOUS
 70
    64
  3
実線
 72
    65
 73
     0
 40
0.0
  0
LTYPE
  2
CONTINUOUS
 70
    64
  3
実線
 72
    65
 73
     0
 40
0.0
  0
ENDTAB
  0
TABLE
  2
LAYER
 70
    34
  0
LAYER
  2
通り芯
 70
     0
 62
    15
  6
CONTINUOUS
  0
LAYER
  2
補助線
 70
     0
 62
    16
  6
DOT
  0
LAYER
  2
躯体
 70
     0
 62
    31
  6
CONTINUOUS
  0
LAYER
  2
型材
 70
     0
 62
    32
  6
CONTINUOUS
  0
LAYER
  2
型材断面
 70
     0
 62
    47
  6
CONTINUOUS
  0
LAYER
  2
ガラス
 70
     0
 62
    48
  6
CONTINUOUS
  0
LAYER
  2
ゴム等
 70
     0
 62
    63
  6
CONTINUOUS
  0
LAYER
  2
ボルト／ビス
 70
     0
 62
    64
  6
CONTINUOUS
  0
LAYER
  2
文字
 70
     0
 62
    79
  6
CONTINUOUS
  0
LAYER
  2
寸法
 70
     0
 62
    80
  6
CONTINUOUS
  0
LAYER
  2
ﾊｯﾁﾝｸﾞ
 70
     0
 62
    95
  6
CONTINUOUS
  0
LAYER
  2
別途部材
 70
     0
 62
    96
  6
CONTINUOUS
  0
LAYER
  2
曲げ物
 70
     0
 62
   111
  6
CONTINUOUS
  0
LAYER
  2
鉄骨等
 70
     0
 62
   112
  6
CONTINUOUS
  0
LAYER
  2
St
 70
     0
 62
   127
  6
CONTINUOUS
  0
LAYER
  2
その他部品等
 70
     0
 62
   128
  6
CONTINUOUS
  0
LAYER
  2
ｶﾞｽｹｯﾄ
 70
     0
 62
   143
  6
CONTINUOUS
  0
LAYER
  2
ｽｹｯﾁ
 70
     0
 62
    14
  6
CONTINUOUS
  0
LAYER
  2
0
 70
     0
 62
    17
  6
CONTINUOUS
  0
LAYER
  2
1
 70
     0
 62
    30
  6
CONTINUOUS
  0
LAYER
  2
4
 70
     0
 62
    33
  6
CONTINUOUS
  0
LAYER
  2
ﾚｲﾔ3
 70
     0
 62
    46
  6
CONTINUOUS
  0
LAYER
  2
外形線
 70
     0
 62
    49
  6
CONTINUOUS
  0
LAYER
  2
部品
 70
     0
 62
    14
  6
CONTINUOUS
  0
LAYER
  2
サッシ芯
 70
     0
 62
    17
  6
DASHDOTX2
  0
LAYER
  2
寸法線
 70
     0
 62
    62
  6
CONTINUOUS
  0
LAYER
  2
姿図外形線
 70
     0
 62
    65
  6
CONTINUOUS
  0
LAYER
  2
姿補助線
 70
     0
 62
    30
  6
CONTINUOUS
  0
LAYER
  2
透視線
 70
     0
 62
    78
  6
DOT
  0
LAYER
  2
用紙
 70
     0
 62
    81
  6
CONTINUOUS
  0
LAYER
  2
実線図枠
 70
     0
 62
    94
  6
CONTINUOUS
  0
LAYER
  2
補助図枠
 70
     0
 62
    97
  6
CONTINUOUS
  0
LAYER
  2
建具記号
 70
     0
 62
   110
  6
CONTINUOUS
  0
LAYER
  2
補助文字
 70
     0
 62
   113
  6
CONTINUOUS
  0
ENDTAB
  0
TABLE
  2
STYLE
 70
    10
  0
STYLE
  2
STANDARD
 70
     0
 40
1.0
 41
1.0
 42
1.0
 50
0.0
 71
     0
  3
TXT
  4
BIGFONT
  0
STYLE
  2
TATE
 70
     4
 40
1.0
 41
1.0
 42
1.0
 50
0.0
 71
     0
  3
TXT
  4
BIGFONT
  0
STYLE
  2
TextStyle03
 70
     0
 40
1.0
 41
1.0
 42
1.0
 50
0.0
 71
     0
  3
MONOTXT
  4
BIGFONT
  0
STYLE
  2
TextStyle04
 70
     0
 40
1.0
 41
1.0
 42
1.0
 50
0.0
 71
     0
  3
MONOTXT
  4
BIGFONT
  0
STYLE
  2
TextStyle05
 70
     0
 40
1.0
 41
1.0
 42
1.0
 50
0.0
 71
     0
  3
MONOTXT
  4
BIGFONT
  0
STYLE
  2
TextStyle06
 70
     0
 40
1.0
 41
1.0
 42
1.0
 50
0.0
 71
     0
  3
MONOTXT
  4
BIGFONT
  0
STYLE
  2
TextStyle07
 70
     0
 40
1.0
 41
1.0
 42
1.0
 50
0.0
 71
     0
  3
MONOTXT
  4
BIGFONT
  0
STYLE
  2
TextStyle08
 70
     0
 40
1.0
 41
1.0
 42
1.0
 50
0.0
 71
     0
  3
MONOTXT
  4
BIGFONT
  0
STYLE
  2
TextStyle09
 70
     0
 40
1.0
 41
1.0
 42
1.0
 50
0.0
 71
     0
  3
MONOTXT
  4
BIGFONT
  0
STYLE
  2
TextStyle10
 70
     0
 40
1.0
 41
1.0
 42
1.0
 50
0.0
 71
     0
  3
MONOTXT
  4
BIGFONT
  0
ENDTAB
  0
ENDSEC
  0
SECTION
  2
BLOCKS
  0
BLOCK
  2
*GRP_0001
 70
    65
 10
0.0
 20
0.0
  0
LINE
  8
型材断面
  6
CONTINUOUS
 10
195.0
 20
133.5
 11
195.0
 21
-133.5
  0
LINE
  8
型材断面
  6
CONTINUOUS
 10
195.0
 20
-133.5
 11
-185.0
 21
-133.5
  0
LINE
  8
型材断面
  6
CONTINUOUS
 10
-185.0
 20
-133.5
 11
-185.0
 21
133.5
  0
LINE
  8
型材断面
  6
CONTINUOUS
 10
195.0
 20
133.5
 11
-185.0
 21
133.5
  0
LINE
  8
型材断面
  6
CONTINUOUS
 10
145.0
 20
-133.5
 11
145.0
 21
-118.5
  0
LINE
  8
型材断面
  6
CONTINUOUS
 10
195.0
 20
-118.5
 11
145.0
 21
-118.5
  0
ENDBLK
  0
BLOCK
  2
*DIM_0002
 70
    65
 10
0.0
 20
0.0
  0
LINE
  8
寸法
  6
BYBLOCK
 62
     0
 10
117.421445
 20
-49.867045
 11
125.856293
 21
-49.867045
  0
LINE
  8
寸法
  6
BYBLOCK
 62
     0
 10
117.421445
 20
-92.533713
 11
125.856293
 21
-92.533713
  0
LINE
  8
寸法
  6
BYBLOCK
 62
     0
 10
125.856293
 20
-49.867045
 11
125.856293
 21
-92.533713
  0
POINT
  8
寸法
 62
     0
 10
125.856293
 20
-49.867045
  0
POINT
  8
寸法
 62
     0
 10
125.856293
 20
-92.533713
  0
TEXT
  7
TextStyle03
  8
寸法
  6
CONTINUOUS
 62
     0
 10
125.525
 20
-74.48125
  1
1280
 40
3.0
 50
90.0
 72
     5
 11
125.525
 21
-67.91875
  0
ENDBLK
  0
BLOCK
  2
*DIM_0003
 70
    65
 10
0.0
 20
0.0
  0
LINE
  8
寸法
  6
BYBLOCK
 62
     0
 10
21.33489
 20
-22.536362
 11
-45.331778
 21
-22.536362
  0
POINT
  8
寸法
 62
     0
 10
21.33489
 20
-22.536362
  0
POINT
  8
寸法
 62
     0
 10
-45.331778
 20
-22.536362
  0
TEXT
  7
TextStyle03
  8
寸法
  6
CONTINUOUS
 62
     0
 10
-23.71875
 20
-22.175
  1
呼称寸法　2000
 40
3.0
 72
     5
 11
-0.28125
 21
-22.175
  0
ENDBLK
  0
BLOCK
  2
*DIM_0004
 70
    65
 10
0.0
 20
0.0
  0
LINE
  8
寸法
  6
BYBLOCK
 62
     0
 10
-28.66511
 20
9.76892
 11
-28.66511
 21
4.711185
  0
LINE
  8
寸法
  6
BYBLOCK
 62
     0
 10
4.668225
 20
9.76892
 11
4.668225
 21
4.711185
  0
LINE
  8
寸法
  6
BYBLOCK
 62
     0
 10
-28.66511
 20
4.711185
 11
4.668225
 21
4.711185
  0
POINT
  8
寸法
 62
     0
 10
-28.66511
 20
4.711185
  0
POINT
  8
寸法
 62
     0
 10
4.668225
 20
4.711185
  0
TEXT
  7
TextStyle03
  8
寸法
  6
CONTINUOUS
 62
     0
 10
-15.28125
 20
5.075
  1
1000
 40
3.0
 72
     5
 11
-8.71875
 21
5.075
  0
ENDBLK
  0
BLOCK
  2
*DIM_0005
 70
    65
 10
0.0
 20
0.0
  0
LINE
  8
寸法
  6
BYBLOCK
 62
     0
 10
22.33489
 20
56.732382
 11
32.059173
 21
56.732382
  0
LINE
  8
寸法
  6
BYBLOCK
 62
     0
 10
24.96502
 20
53.032382
 11
32.059173
 21
53.032382
  0
LINE
  8
寸法
  6
BYBLOCK
 62
     0
 10
32.059173
 20
56.732382
 11
32.059173
 21
53.032382
  0
POINT
  8
寸法
 62
     0
 10
32.059173
 20
56.732382
  0
POINT
  8
寸法
 62
     0
 10
32.059173
 20
53.032382
  0
TEXT
  7
TextStyle03
  8
寸法
  6
CONTINUOUS
 62
     0
 10
31.75
 20
57.7125
  1
111
 40
3.0
 50
90.0
 72
     5
 11
31.75
 21
62.5875
  0
ENDBLK
  0
BLOCK
  2
*DIM_0006
 70
    65
 10
0.0
 20
0.0
  0
LINE
  8
寸法
  6
BYBLOCK
 62
     0
 10
22.33489
 20
13.399048
 11
32.059173
 21
13.399045
  0
LINE
  8
寸法
  6
BYBLOCK
 62
     0
 10
24.96502
 20
17.099048
 11
32.059173
 21
17.099045
  0
LINE
  8
寸法
  6
BYBLOCK
 62
     0
 10
32.059173
 20
13.399045
 11
32.059173
 21
17.099045
  0
POINT
  8
寸法
 62
     0
 10
32.059173
 20
13.399045
  0
POINT
  8
寸法
 62
     0
 10
32.059173
 20
17.099045
  0
TEXT
  7
TextStyle03
  8
寸法
  6
CONTINUOUS
 62
     0
 10
31.725
 20
7.5375
  1
111
 40
3.0
 50
90.0
 72
     5
 11
31.725
 21
12.4125
  0
ENDBLK
  0
BLOCK
  2
*DIM_0007
 70
    65
 10
0.0
 20
0.0
  0
LINE
  8
寸法
  6
BYBLOCK
 62
     0
 10
55.35454
 20
13.399048
 11
55.35454
 21
56.73238
  0
POINT
  8
寸法
 62
     0
 10
55.35454
 20
13.399048
  0
POINT
  8
寸法
 62
     0
 10
55.35454
 20
56.73238
  0
TEXT
  7
TextStyle03
  8
寸法
  6
CONTINUOUS
 62
     0
 10
55.025
 20
23.33125
  1
呼称寸法　1300
 40
3.0
 50
90.0
 72
     5
 11
55.025
 21
46.76875
  0
ENDBLK
  0
BLOCK
  2
*DIM_0008
 70
    65
 10
0.0
 20
0.0
  0
LINE
  8
寸法
  6
BYBLOCK
 62
     0
 10
109.244935
 20
58.715712
 11
55.35454
 21
58.715712
  0
LINE
  8
寸法
  6
BYBLOCK
 62
     0
 10
55.35454
 20
56.73238
 11
55.35454
 21
58.715712
  0
POINT
  8
寸法
 62
     0
 10
55.35454
 20
56.73238
  0
POINT
  8
寸法
 62
     0
 10
55.35454
 20
58.715712
  0
TEXT
  7
TextStyle03
  8
寸法
  6
CONTINUOUS
 62
     0
 10
54.975
 20
61.16875
  1
59.5
 40
3.0
 50
90.0
 72
     5
 11
54.975
 21
67.73125
  0
ENDBLK
  0
BLOCK
  2
*DIM_0009
 70
    65
 10
0.0
 20
0.0
  0
LINE
  8
寸法
  6
BYBLOCK
 62
     0
 10
109.244935
 20
11.415712
 11
55.35454
 21
11.415712
  0
LINE
  8
寸法
  6
BYBLOCK
 62
     0
 10
55.35454
 20
13.399048
 11
55.35454
 21
11.415712
  0
POINT
  8
寸法
 62
     0
 10
55.35454
 20
13.399048
  0
POINT
  8
寸法
 62
     0
 10
55.35454
 20
11.415712
  0
TEXT
  7
TextStyle03
  8
寸法
  6
CONTINUOUS
 62
     0
 10
54.975
 20
2.36875
  1
59.5
 40
3.0
 50
90.0
 72
     5
 11
54.975
 21
8.93125
  0
ENDBLK
  0
BLOCK
  2
*DIM_0010
 70
    65
 10
0.0
 20
0.0
  0
LINE
  8
寸法
  6
BYBLOCK
 62
     0
 10
23.318225
 20
-64.668048
 11
23.318225
 21
-22.536362
  0
LINE
  8
寸法
  6
BYBLOCK
 62
     0
 10
21.33489
 20
-22.536362
 11
23.318225
 21
-22.536362
  0
POINT
  8
寸法
 62
     0
 10
21.33489
 20
-22.536362
  0
POINT
  8
寸法
 62
     0
 10
23.318225
 20
-22.536362
  0
TEXT
  7
TextStyle03
  8
寸法
  6
CONTINUOUS
 62
     0
 10
25.79375
 20
-22.175
  1
59.5
 40
3.0
 72
     5
 11
32.35625
 21
-22.175
  0
ENDBLK
  0
BLOCK
  2
*DIM_0011
 70
    65
 10
0.0
 20
0.0
  0
LINE
  8
寸法
  6
BYBLOCK
 62
     0
 10
-47.31511
 20
-64.668048
 11
-47.31511
 21
-22.536362
  0
LINE
  8
寸法
  6
BYBLOCK
 62
     0
 10
-45.331778
 20
-22.536362
 11
-47.31511
 21
-22.536362
  0
POINT
  8
寸法
 62
     0
 10
-45.331778
 20
-22.536362
  0
POINT
  8
寸法
 62
     0
 10
-47.31511
 20
-22.536362
  0
TEXT
  7
TextStyle03
  8
寸法
  6
CONTINUOUS
 62
     0
 10
-56.35625
 20
-22.175
  1
59.5
 40
3.0
 72
     5
 11
-49.79375
 21
-22.175
  0
ENDBLK
  0
BLOCK
  2
*DIM_0012
 70
    65
 10
0.0
 20
0.0
  0
LINE
  8
寸法
  6
BYBLOCK
 62
     0
 10
-48.331778
 20
23.399048
 11
-77.276943
 21
23.399048
  0
LINE
  8
寸法
  6
BYBLOCK
 62
     0
 10
-48.331778
 20
46.732382
 11
-77.276943
 21
46.732382
  0
LINE
  8
寸法
  6
BYBLOCK
 62
     0
 10
-77.276943
 20
23.399048
 11
-77.276943
 21
46.732382
  0
POINT
  8
寸法
 62
     0
 10
-77.276943
 20
23.399048
  0
POINT
  8
寸法
 62
     0
 10
-77.276943
 20
46.732382
  0
TEXT
  7
TextStyle03
  8
寸法
  6
CONTINUOUS
 62
     0
 10
-77.75
 20
32.6125
  1
700
 40
3.0
 50
90.0
 72
     5
 11
-77.75
 21
37.4875
  0
ENDBLK
  0
BLOCK
  2
*DIM_0013
 70
    65
 10
0.0
 20
0.0
  0
LINE
  8
寸法
  6
BYBLOCK
 62
     0
 10
-35.331775
 20
59.73238
 11
-35.331775
 21
88.66
  0
LINE
  8
寸法
  6
BYBLOCK
 62
     0
 10
-11.998442
 20
59.73238
 11
-11.998442
 21
88.66
  0
LINE
  8
寸法
  6
BYBLOCK
 62
     0
 10
-35.331775
 20
88.66
 11
-11.998442
 21
88.66
  0
POINT
  8
寸法
 62
     0
 10
-35.331775
 20
88.66
  0
POINT
  8
寸法
 62
     0
 10
-11.998442
 20
88.66
  0
TEXT
  7
TextStyle03
  8
寸法
  6
CONTINUOUS
 62
     0
 10
-26.1125
 20
89.025
  1
700
 40
3.0
 72
     5
 11
-21.2375
 21
89.025
  0
ENDBLK
  0
BLOCK
  2
*DIM_0014
 70
    65
 10
0.0
 20
0.0
  0
LINE
  8
寸法
  6
BYBLOCK
 62
     0
 10
11.33489
 20
59.73238
 11
11.33489
 21
88.66
  0
LINE
  8
寸法
  6
BYBLOCK
 62
     0
 10
-11.998442
 20
88.66
 11
11.33489
 21
88.66
  0
POINT
  8
寸法
 62
     0
 10
11.33489
 20
88.66
  0
TEXT
  7
TextStyle03
  8
寸法
  6
CONTINUOUS
 62
     0
 10
-2.7875
 20
89.025
  1
700
 40
3.0
 72
     5
 11
2.0875
 21
89.025
  0
ENDBLK
  0
BLOCK
  2
*DIM_0015
 70
    65
 10
0.0
 20
0.0
  0
LINE
  8
寸法
  6
CONTINUOUS
 10
108.637177
 20
70.502383
 11
116.287227
 21
70.502383
  0
POINT
  8
寸法
 10
108.637177
 20
70.502383
  0
POINT
  8
寸法
 10
116.287227
 20
70.502383
  0
TEXT
  7
TextStyle03
  8
寸法
  6
CONTINUOUS
 10
108.375
 20
70.85
  1
229.5
 40
3.0
 72
     5
 11
116.625
 21
70.85
  0
ENDBLK
  0
BLOCK
  2
*GRP_0016
 70
    65
 10
0.0
 20
0.0
  0
LINE
  8
補助線
  6
BYBLOCK
 62
    64
 10
-41.940542
 20
-82.687825
 11
-42.056337
 21
-82.807695
  0
LINE
  8
補助線
  6
BYBLOCK
 62
    64
 10
-42.058378
 20
-82.68986
 11
-41.938505
 21
-82.805657
  0
LINE
  8
補助線
  6
BYBLOCK
 62
    64
 10
-34.228467
 20
-74.704468
 11
-34.344268
 21
-74.824337
  0
LINE
  8
補助線
  6
BYBLOCK
 62
    64
 10
-34.346303
 20
-74.706502
 11
-34.226433
 21
-74.8223
  0
LINE
  8
補助線
  6
BYBLOCK
 62
    64
 10
-26.632195
 20
-66.84098
 11
-26.516398
 21
-66.72111
  0
LINE
  8
補助線
  6
BYBLOCK
 62
    64
 10
-26.634232
 20
-66.723145
 11
-26.51436
 21
-66.838943
  0
LINE
  8
型材断面
  6
CONTINUOUS
 10
-42.829382
 20
-82.408518
 11
-42.817162
 21
-83.115517
  0
LINE
  8
型材断面
  6
CONTINUOUS
 10
-42.817162
 20
-83.115517
 11
-42.33768
 21
-83.578705
  0
LINE
  8
型材断面
  6
CONTINUOUS
 10
-42.33768
 20
-83.578705
 11
-41.63068
 21
-83.566485
  0
LINE
  8
型材断面
  6
CONTINUOUS
 10
-26.942055
 20
-65.96232
 11
-26.235052
 21
-65.950102
  0
LINE
  8
型材断面
  6
CONTINUOUS
 10
-26.235052
 20
-65.950102
 11
-25.75557
 21
-66.413288
  0
LINE
  8
型材断面
  6
CONTINUOUS
 10
-25.75557
 20
-66.413288
 11
-25.74335
 21
-67.12029
  0
LINE
  8
型材断面
  6
CONTINUOUS
 10
-42.829382
 20
-82.408518
 11
-26.942055
 21
-65.96232
  0
LINE
  8
型材断面
  6
CONTINUOUS
 10
-41.63068
 20
-83.566485
 11
-25.74335
 21
-67.12029
  0
CIRCLE
  8
ボルト／ビス
  6
CONTINUOUS
 10
-41.99844
 20
-82.74776
 40
0.250185
  0
CIRCLE
  8
ボルト／ビス
  6
CONTINUOUS
 10
-41.99844
 20
-82.74776
 40
0.301025
  0
LINE
  8
ボルト／ビス
  6
CONTINUOUS
 62
    64
 10
-42.238945
 20
-82.81668
 11
-42.178377
 21
-82.573938
  0
LINE
  8
ボルト／ビス
  6
CONTINUOUS
 62
    64
 10
-41.937872
 20
-82.505015
 11
-42.178377
 21
-82.573938
  0
LINE
  8
ボルト／ビス
  6
CONTINUOUS
 62
    64
 10
-42.059008
 20
-82.990505
 11
-41.818502
 21
-82.921583
  0
LINE
  8
ボルト／ビス
  6
CONTINUOUS
 62
    64
 10
-41.757932
 20
-82.67884
 11
-41.818502
 21
-82.921583
  0
LINE
  8
ボルト／ビス
  6
CONTINUOUS
 62
    64
 10
-42.238945
 20
-82.81668
 11
-42.059008
 21
-82.990505
  0
LINE
  8
ボルト／ビス
  6
CONTINUOUS
 62
    64
 10
-41.937872
 20
-82.505015
 11
-41.757932
 21
-82.67884
  0
CIRCLE
  8
ボルト／ビス
  6
CONTINUOUS
 62
    64
 10
-41.99844
 20
-82.74776
 40
0.216668
  0
CIRCLE
  8
ボルト／ビス
  6
CONTINUOUS
 10
-34.286367
 20
-74.764402
 40
0.250185
  0
CIRCLE
  8
ボルト／ビス
  6
CONTINUOUS
 10
-34.286367
 20
-74.764402
 40
0.301025
  0
LINE
  8
ボルト／ビス
  6
CONTINUOUS
 62
    64
 10
-34.526872
 20
-74.83332
 11
-34.466308
 21
-74.590578
  0
LINE
  8
ボルト／ビス
  6
CONTINUOUS
 62
    64
 10
-34.2258
 20
-74.521658
 11
-34.466308
 21
-74.590578
  0
LINE
  8
ボルト／ビス
  6
CONTINUOUS
 62
    64
 10
-34.346935
 20
-75.007147
 11
-34.10643
 21
-74.938225
  0
LINE
  8
ボルト／ビス
  6
CONTINUOUS
 62
    64
 10
-34.04586
 20
-74.695482
 11
-34.10643
 21
-74.938225
  0
LINE
  8
ボルト／ビス
  6
CONTINUOUS
 62
    64
 10
-34.526872
 20
-74.83332
 11
-34.346935
 21
-75.007147
  0
LINE
  8
ボルト／ビス
  6
CONTINUOUS
 62
    64
 10
-34.2258
 20
-74.521658
 11
-34.04586
 21
-74.695482
  0
CIRCLE
  8
ボルト／ビス
  6
CONTINUOUS
 62
    64
 10
-34.286367
 20
-74.764402
 40
0.216668
  0
CIRCLE
  8
ボルト／ビス
  6
CONTINUOUS
 10
-26.574295
 20
-66.781045
 40
0.250185
  0
CIRCLE
  8
ボルト／ビス
  6
CONTINUOUS
 10
-26.574295
 20
-66.781045
 40
0.301025
  0
LINE
  8
ボルト／ビス
  6
CONTINUOUS
 62
    64
 10
-26.513728
 20
-66.5383
 11
-26.754233
 21
-66.607222
  0
LINE
  8
ボルト／ビス
  6
CONTINUOUS
 62
    64
 10
-26.814803
 20
-66.849965
 11
-26.754233
 21
-66.607222
  0
LINE
  8
ボルト／ビス
  6
CONTINUOUS
 62
    64
 10
-26.33379
 20
-66.712122
 11
-26.394358
 21
-66.954868
  0
LINE
  8
ボルト／ビス
  6
CONTINUOUS
 62
    64
 10
-26.634862
 20
-67.023787
 11
-26.394358
 21
-66.954868
  0
LINE
  8
ボルト／ビス
  6
CONTINUOUS
 62
    64
 10
-26.513728
 20
-66.5383
 11
-26.33379
 21
-66.712122
  0
LINE
  8
ボルト／ビス
  6
CONTINUOUS
 62
    64
 10
-26.814803
 20
-66.849965
 11
-26.634862
 21
-67.023787
  0
CIRCLE
  8
ボルト／ビス
  6
CONTINUOUS
 62
    64
 10
-26.574295
 20
-66.781045
 40
0.216668
  0
ENDBLK
  0
BLOCK
  2
*GRP_0017
 70
    65
 10
0.0
 20
0.0
  0
LINE
  8
補助線
  6
BYBLOCK
 62
    64
 10
-26.632193
 20
-82.687825
 11
-26.516398
 21
-82.807695
  0
LINE
  8
補助線
  6
BYBLOCK
 62
    64
 10
-26.514358
 20
-82.68986
 11
-26.63423
 21
-82.805657
  0
LINE
  8
補助線
  6
BYBLOCK
 62
    64
 10
-34.344268
 20
-74.704468
 11
-34.228467
 21
-74.824337
  0
LINE
  8
補助線
  6
BYBLOCK
 62
    64
 10
-34.226433
 20
-74.706502
 11
-34.346303
 21
-74.8223
  0
LINE
  8
補助線
  6
BYBLOCK
 62
    64
 10
-41.94054
 20
-66.84098
 11
-42.056337
 21
-66.72111
  0
LINE
  8
補助線
  6
BYBLOCK
 62
    64
 10
-41.938502
 20
-66.723145
 11
-42.058375
 21
-66.838943
  0
LINE
  8
型材断面
  6
CONTINUOUS
 10
-25.743353
 20
-82.408518
 11
-25.755573
 21
-83.115517
  0
LINE
  8
型材断面
  6
CONTINUOUS
 10
-25.755573
 20
-83.115517
 11
-26.235055
 21
-83.578705
  0
LINE
  8
型材断面
  6
CONTINUOUS
 10
-26.235055
 20
-83.578705
 11
-26.942055
 21
-83.566485
  0
LINE
  8
型材断面
  6
CONTINUOUS
 10
-41.63068
 20
-65.96232
 11
-42.337683
 21
-65.950102
  0
LINE
  8
型材断面
  6
CONTINUOUS
 10
-42.337683
 20
-65.950102
 11
-42.817165
 21
-66.413288
  0
LINE
  8
型材断面
  6
CONTINUOUS
 10
-42.817165
 20
-66.413288
 11
-42.829385
 21
-67.12029
  0
LINE
  8
型材断面
  6
CONTINUOUS
 10
-25.743353
 20
-82.408518
 11
-41.63068
 21
-65.96232
  0
LINE
  8
型材断面
  6
CONTINUOUS
 10
-26.942055
 20
-83.566485
 11
-42.829385
 21
-67.12029
  0
CIRCLE
  8
ボルト／ビス
  6
CONTINUOUS
 10
-26.574295
 20
-82.74776
 40
0.250185
  0
CIRCLE
  8
ボルト／ビス
  6
CONTINUOUS
 10
-26.574295
 20
-82.74776
 40
0.301025
  0
LINE
  8
ボルト／ビス
  6
CONTINUOUS
 62
    64
 10
-26.33379
 20
-82.81668
 11
-26.394358
 21
-82.573938
  0
LINE
  8
ボルト／ビス
  6
CONTINUOUS
 62
    64
 10
-26.634862
 20
-82.505015
 11
-26.394358
 21
-82.573938
  0
LINE
  8
ボルト／ビス
  6
CONTINUOUS
 62
    64
 10
-26.513728
 20
-82.990505
 11
-26.754233
 21
-82.921583
  0
LINE
  8
ボルト／ビス
  6
CONTINUOUS
 62
    64
 10
-26.814803
 20
-82.67884
 11
-26.754233
 21
-82.921583
  0
LINE
  8
ボルト／ビス
  6
CONTINUOUS
 62
    64
 10
-26.33379
 20
-82.81668
 11
-26.513728
 21
-82.990505
  0
LINE
  8
ボルト／ビス
  6
CONTINUOUS
 62
    64
 10
-26.634862
 20
-82.505015
 11
-26.814803
 21
-82.67884
  0
CIRCLE
  8
ボルト／ビス
  6
CONTINUOUS
 62
    64
 10
-26.574295
 20
-82.74776
 40
0.216668
  0
CIRCLE
  8
ボルト／ビス
  6
CONTINUOUS
 10
-34.286367
 20
-74.764402
 40
0.250185
  0
CIRCLE
  8
ボルト／ビス
  6
CONTINUOUS
 10
-34.286367
 20
-74.764402
 40
0.301025
  0
LINE
  8
ボルト／ビス
  6
CONTINUOUS
 62
    64
 10
-34.045863
 20
-74.83332
 11
-34.106427
 21
-74.590578
  0
LINE
  8
ボルト／ビス
  6
CONTINUOUS
 62
    64
 10
-34.346935
 20
-74.521658
 11
-34.106427
 21
-74.590578
  0
LINE
  8
ボルト／ビス
  6
CONTINUOUS
 62
    64
 10
-34.2258
 20
-75.007147
 11
-34.466305
 21
-74.938225
  0
LINE
  8
ボルト／ビス
  6
CONTINUOUS
 62
    64
 10
-34.526875
 20
-74.695482
 11
-34.466305
 21
-74.938225
  0
LINE
  8
ボルト／ビス
  6
CONTINUOUS
 62
    64
 10
-34.045863
 20
-74.83332
 11
-34.2258
 21
-75.007147
  0
LINE
  8
ボルト／ビス
  6
CONTINUOUS
 62
    64
 10
-34.346935
 20
-74.521658
 11
-34.526875
 21
-74.695482
  0
CIRCLE
  8
ボルト／ビス
  6
CONTINUOUS
 62
    64
 10
-34.286367
 20
-74.764402
 40
0.216668
  0
CIRCLE
  8
ボルト／ビス
  6
CONTINUOUS
 10
-41.99844
 20
-66.781045
 40
0.250185
  0
CIRCLE
  8
ボルト／ビス
  6
CONTINUOUS
 10
-41.99844
 20
-66.781045
 40
0.301025
  0
LINE
  8
ボルト／ビス
  6
CONTINUOUS
 62
    64
 10
-42.059008
 20
-66.5383
 11
-41.818502
 21
-66.607222
  0
LINE
  8
ボルト／ビス
  6
CONTINUOUS
 62
    64
 10
-41.757932
 20
-66.849965
 11
-41.818502
 21
-66.607222
  0
LINE
  8
ボルト／ビス
  6
CONTINUOUS
 62
    64
 10
-42.238945
 20
-66.712122
 11
-42.178377
 21
-66.954868
  0
LINE
  8
ボルト／ビス
  6
CONTINUOUS
 62
    64
 10
-41.937872
 20
-67.023787
 11
-42.178377
 21
-66.954868
  0
LINE
  8
ボルト／ビス
  6
CONTINUOUS
 62
    64
 10
-42.059008
 20
-66.5383
 11
-42.238945
 21
-66.712122
  0
LINE
  8
ボルト／ビス
  6
CONTINUOUS
 62
    64
 10
-41.757932
 20
-66.849965
 11
-41.937872
 21
-67.023787
  0
CIRCLE
  8
ボルト／ビス
  6
CONTINUOUS
 62
    64
 10
-41.99844
 20
-66.781045
 40
0.216668
  0
ENDBLK
  0
BLOCK
  2
*GRP_0018
 70
    65
 10
0.0
 20
0.0
  0
LINE
  8
補助線
  6
BYBLOCK
 62
    64
 10
17.943663
 20
-82.687825
 11
18.059457
 21
-82.807695
  0
LINE
  8
補助線
  6
BYBLOCK
 62
    64
 10
18.061498
 20
-82.68986
 11
17.941625
 21
-82.805657
  0
LINE
  8
補助線
  6
BYBLOCK
 62
    64
 10
10.231588
 20
-74.704468
 11
10.347387
 21
-74.824337
  0
LINE
  8
補助線
  6
BYBLOCK
 62
    64
 10
10.349423
 20
-74.706502
 11
10.229552
 21
-74.8223
  0
LINE
  8
補助線
  6
BYBLOCK
 62
    64
 10
2.635315
 20
-66.84098
 11
2.519518
 21
-66.72111
  0
LINE
  8
補助線
  6
BYBLOCK
 62
    64
 10
2.637353
 20
-66.723145
 11
2.51748
 21
-66.838943
  0
LINE
  8
型材断面
  6
CONTINUOUS
 10
18.832503
 20
-82.408518
 11
18.820283
 21
-83.115517
  0
LINE
  8
型材断面
  6
CONTINUOUS
 10
18.820283
 20
-83.115517
 11
18.3408
 21
-83.578705
  0
LINE
  8
型材断面
  6
CONTINUOUS
 10
18.3408
 20
-83.578705
 11
17.6338
 21
-83.566485
  0
LINE
  8
型材断面
  6
CONTINUOUS
 10
2.945175
 20
-65.96232
 11
2.238172
 21
-65.950102
  0
LINE
  8
型材断面
  6
CONTINUOUS
 10
2.238172
 20
-65.950102
 11
1.75869
 21
-66.413288
  0
LINE
  8
型材断面
  6
CONTINUOUS
 10
1.75869
 20
-66.413288
 11
1.74647
 21
-67.12029
  0
LINE
  8
型材断面
  6
CONTINUOUS
 10
18.832503
 20
-82.408518
 11
2.945175
 21
-65.96232
  0
LINE
  8
型材断面
  6
CONTINUOUS
 10
17.6338
 20
-83.566485
 11
1.74647
 21
-67.12029
  0
CIRCLE
  8
ボルト／ビス
  6
CONTINUOUS
 10
18.00156
 20
-82.74776
 40
0.250185
  0
CIRCLE
  8
ボルト／ビス
  6
CONTINUOUS
 10
18.00156
 20
-82.74776
 40
0.301025
  0
LINE
  8
ボルト／ビス
  6
CONTINUOUS
 62
    64
 10
18.242065
 20
-82.81668
 11
18.181497
 21
-82.573938
  0
LINE
  8
ボルト／ビス
  6
CONTINUOUS
 62
    64
 10
17.940992
 20
-82.505015
 11
18.181497
 21
-82.573938
  0
LINE
  8
ボルト／ビス
  6
CONTINUOUS
 62
    64
 10
18.062127
 20
-82.990505
 11
17.821623
 21
-82.921583
  0
LINE
  8
ボルト／ビス
  6
CONTINUOUS
 62
    64
 10
17.761053
 20
-82.67884
 11
17.821623
 21
-82.921583
  0
LINE
  8
ボルト／ビス
  6
CONTINUOUS
 62
    64
 10
18.242065
 20
-82.81668
 11
18.062127
 21
-82.990505
  0
LINE
  8
ボルト／ビス
  6
CONTINUOUS
 62
    64
 10
17.940992
 20
-82.505015
 11
17.761053
 21
-82.67884
  0
CIRCLE
  8
ボルト／ビス
  6
CONTINUOUS
 62
    64
 10
18.00156
 20
-82.74776
 40
0.216668
  0
CIRCLE
  8
ボルト／ビス
  6
CONTINUOUS
 10
10.289487
 20
-74.764402
 40
0.250185
  0
CIRCLE
  8
ボルト／ビス
  6
CONTINUOUS
 10
10.289487
 20
-74.764402
 40
0.301025
  0
LINE
  8
ボルト／ビス
  6
CONTINUOUS
 62
    64
 10
10.529992
 20
-74.83332
 11
10.469427
 21
-74.590578
  0
LINE
  8
ボルト／ビス
  6
CONTINUOUS
 62
    64
 10
10.22892
 20
-74.521658
 11
10.469427
 21
-74.590578
  0
LINE
  8
ボルト／ビス
  6
CONTINUOUS
 62
    64
 10
10.350055
 20
-75.007147
 11
10.10955
 21
-74.938225
  0
LINE
  8
ボルト／ビス
  6
CONTINUOUS
 62
    64
 10
10.04898
 20
-74.695482
 11
10.10955
 21
-74.938225
  0
LINE
  8
ボルト／ビス
  6
CONTINUOUS
 62
    64
 10
10.529992
 20
-74.83332
 11
10.350055
 21
-75.007147
  0
LINE
  8
ボルト／ビス
  6
CONTINUOUS
 62
    64
 10
10.22892
 20
-74.521658
 11
10.04898
 21
-74.695482
  0
CIRCLE
  8
ボルト／ビス
  6
CONTINUOUS
 62
    64
 10
10.289487
 20
-74.764402
 40
0.216668
  0
CIRCLE
  8
ボルト／ビス
  6
CONTINUOUS
 10
2.577415
 20
-66.781045
 40
0.250185
  0
CIRCLE
  8
ボルト／ビス
  6
CONTINUOUS
 10
2.577415
 20
-66.781045
 40
0.301025
  0
LINE
  8
ボルト／ビス
  6
CONTINUOUS
 62
    64
 10
2.516848
 20
-66.5383
 11
2.757352
 21
-66.607222
  0
LINE
  8
ボルト／ビス
  6
CONTINUOUS
 62
    64
 10
2.817922
 20
-66.849965
 11
2.757352
 21
-66.607222
  0
LINE
  8
ボルト／ビス
  6
CONTINUOUS
 62
    64
 10
2.33691
 20
-66.712122
 11
2.397478
 21
-66.954868
  0
LINE
  8
ボルト／ビス
  6
CONTINUOUS
 62
    64
 10
2.637982
 20
-67.023787
 11
2.397478
 21
-66.954868
  0
LINE
  8
ボルト／ビス
  6
CONTINUOUS
 62
    64
 10
2.516848
 20
-66.5383
 11
2.33691
 21
-66.712122
  0
LINE
  8
ボルト／ビス
  6
CONTINUOUS
 62
    64
 10
2.817922
 20
-66.849965
 11
2.637982
 21
-67.023787
  0
CIRCLE
  8
ボルト／ビス
  6
CONTINUOUS
 62
    64
 10
2.577415
 20
-66.781045
 40
0.216668
  0
ENDBLK
  0
BLOCK
  2
*GRP_0019
 70
    65
 10
0.0
 20
0.0
  0
LINE
  8
補助線
  6
BYBLOCK
 62
    64
 10
2.635312
 20
-82.687825
 11
2.519518
 21
-82.807695
  0
LINE
  8
補助線
  6
BYBLOCK
 62
    64
 10
2.517477
 20
-82.68986
 11
2.63735
 21
-82.805657
  0
LINE
  8
補助線
  6
BYBLOCK
 62
    64
 10
10.347387
 20
-74.704468
 11
10.231588
 21
-74.824337
  0
LINE
  8
補助線
  6
BYBLOCK
 62
    64
 10
10.229552
 20
-74.706502
 11
10.349423
 21
-74.8223
  0
LINE
  8
補助線
  6
BYBLOCK
 62
    64
 10
17.94366
 20
-66.84098
 11
18.059457
 21
-66.72111
  0
LINE
  8
補助線
  6
BYBLOCK
 62
    64
 10
17.941623
 20
-66.723145
 11
18.061495
 21
-66.838943
  0
LINE
  8
型材断面
  6
CONTINUOUS
 10
1.746472
 20
-82.408518
 11
1.758692
 21
-83.115517
  0
LINE
  8
型材断面
  6
CONTINUOUS
 10
1.758692
 20
-83.115517
 11
2.238175
 21
-83.578705
  0
LINE
  8
型材断面
  6
CONTINUOUS
 10
2.238175
 20
-83.578705
 11
2.945175
 21
-83.566485
  0
LINE
  8
型材断面
  6
CONTINUOUS
 10
17.6338
 20
-65.96232
 11
18.340803
 21
-65.950102
  0
LINE
  8
型材断面
  6
CONTINUOUS
 10
18.340803
 20
-65.950102
 11
18.820285
 21
-66.413288
  0
LINE
  8
型材断面
  6
CONTINUOUS
 10
18.820285
 20
-66.413288
 11
18.832505
 21
-67.12029
  0
LINE
  8
型材断面
  6
CONTINUOUS
 10
1.746472
 20
-82.408518
 11
17.6338
 21
-65.96232
  0
LINE
  8
型材断面
  6
CONTINUOUS
 10
2.945175
 20
-83.566485
 11
18.832505
 21
-67.12029
  0
CIRCLE
  8
ボルト／ビス
  6
CONTINUOUS
 10
2.577415
 20
-82.74776
 40
0.250185
  0
CIRCLE
  8
ボルト／ビス
  6
CONTINUOUS
 10
2.577415
 20
-82.74776
 40
0.301025
  0
LINE
  8
ボルト／ビス
  6
CONTINUOUS
 62
    64
 10
2.33691
 20
-82.81668
 11
2.397478
 21
-82.573938
  0
LINE
  8
ボルト／ビス
  6
CONTINUOUS
 62
    64
 10
2.637982
 20
-82.505015
 11
2.397478
 21
-82.573938
  0
LINE
  8
ボルト／ビス
  6
CONTINUOUS
 62
    64
 10
2.516848
 20
-82.990505
 11
2.757352
 21
-82.921583
  0
LINE
  8
ボルト／ビス
  6
CONTINUOUS
 62
    64
 10
2.817922
 20
-82.67884
 11
2.757352
 21
-82.921583
  0
LINE
  8
ボルト／ビス
  6
CONTINUOUS
 62
    64
 10
2.33691
 20
-82.81668
 11
2.516848
 21
-82.990505
  0
LINE
  8
ボルト／ビス
  6
CONTINUOUS
 62
    64
 10
2.637982
 20
-82.505015
 11
2.817922
 21
-82.67884
  0
CIRCLE
  8
ボルト／ビス
  6
CONTINUOUS
 62
    64
 10
2.577415
 20
-82.74776
 40
0.216668
  0
CIRCLE
  8
ボルト／ビス
  6
CONTINUOUS
 10
10.289487
 20
-74.764402
 40
0.250185
  0
CIRCLE
  8
ボルト／ビス
  6
CONTINUOUS
 10
10.289487
 20
-74.764402
 40
0.301025
  0
LINE
  8
ボルト／ビス
  6
CONTINUOUS
 62
    64
 10
10.048983
 20
-74.83332
 11
10.109548
 21
-74.590578
  0
LINE
  8
ボルト／ビス
  6
CONTINUOUS
 62
    64
 10
10.350055
 20
-74.521658
 11
10.109548
 21
-74.590578
  0
LINE
  8
ボルト／ビス
  6
CONTINUOUS
 62
    64
 10
10.22892
 20
-75.007147
 11
10.469425
 21
-74.938225
  0
LINE
  8
ボルト／ビス
  6
CONTINUOUS
 62
    64
 10
10.529995
 20
-74.695482
 11
10.469425
 21
-74.938225
  0
LINE
  8
ボルト／ビス
  6
CONTINUOUS
 62
    64
 10
10.048983
 20
-74.83332
 11
10.22892
 21
-75.007147
  0
LINE
  8
ボルト／ビス
  6
CONTINUOUS
 62
    64
 10
10.350055
 20
-74.521658
 11
10.529995
 21
-74.695482
  0
CIRCLE
  8
ボルト／ビス
  6
CONTINUOUS
 62
    64
 10
10.289487
 20
-74.764402
 40
0.216668
  0
CIRCLE
  8
ボルト／ビス
  6
CONTINUOUS
 10
18.00156
 20
-66.781045
 40
0.250185
  0
CIRCLE
  8
ボルト／ビス
  6
CONTINUOUS
 10
18.00156
 20
-66.781045
 40
0.301025
  0
LINE
  8
ボルト／ビス
  6
CONTINUOUS
 62
    64
 10
18.062127
 20
-66.5383
 11
17.821623
 21
-66.607222
  0
LINE
  8
ボルト／ビス
  6
CONTINUOUS
 62
    64
 10
17.761053
 20
-66.849965
 11
17.821623
 21
-66.607222
  0
LINE
  8
ボルト／ビス
  6
CONTINUOUS
 62
    64
 10
18.242065
 20
-66.712122
 11
18.181497
 21
-66.954868
  0
LINE
  8
ボルト／ビス
  6
CONTINUOUS
 62
    64
 10
17.940992
 20
-67.023787
 11
18.181497
 21
-66.954868
  0
LINE
  8
ボルト／ビス
  6
CONTINUOUS
 62
    64
 10
18.062127
 20
-66.5383
 11
18.242065
 21
-66.712122
  0
LINE
  8
ボルト／ビス
  6
CONTINUOUS
 62
    64
 10
17.761053
 20
-66.849965
 11
17.940992
 21
-67.023787
  0
CIRCLE
  8
ボルト／ビス
  6
CONTINUOUS
 62
    64
 10
18.00156
 20
-66.781045
 40
0.216668
  0
ENDBLK
  0
BLOCK
  2
*DIM_0020
 70
    65
 10
0.0
 20
0.0
  0
LINE
  8
寸法
  6
CONTINUOUS
 10
34.570135
 20
-77.171043
 11
34.570135
 21
-84.821093
  0
POINT
  8
寸法
 10
34.570135
 20
-77.171043
  0
POINT
  8
寸法
 10
34.570135
 20
-84.821093
  0
TEXT
  7
TextStyle03
  8
寸法
  6
CONTINUOUS
 10
38.575
 20
-85.05
  1
229.5
 40
3.0
 50
90.0
 72
     5
 11
38.575
 21
-76.8
  0
ENDBLK
  0
BLOCK
  2
*DIM_0021
 70
    65
 10
0.0
 20
0.0
  0
LINE
  8
寸法
  6
CONTINUOUS
 10
116.421445
 20
-41.640567
 11
84.004777
 21
-41.640567
  0
POINT
  8
寸法
 10
116.421445
 20
-41.640567
  0
POINT
  8
寸法
 10
84.004777
 20
-41.640567
  0
TEXT
  7
TextStyle03
  8
寸法
  6
CONTINUOUS
 10
96.075
 20
-41.3
  1
972.5
 40
3.0
 72
     5
 11
104.325
 21
-41.3
  0
ENDBLK
  0
BLOCK
  2
*DIM_0022
 70
    65
 10
0.0
 20
0.0
  0
LINE
  8
寸法
  6
BYBLOCK
 62
     0
 10
34.570135
 20
-77.171043
 11
34.570135
 21
-63.83771
  0
POINT
  8
寸法
 62
     0
 10
34.570135
 20
-77.171043
  0
POINT
  8
寸法
 62
     0
 10
34.570135
 20
-63.83771
  0
TEXT
  7
TextStyle03
  8
寸法
  6
CONTINUOUS
 62
     0
 10
34.025
 20
-61.96875
  1
上昇328以上
 40
3.0
 50
90.0
 72
     5
 11
34.025
 21
-43.78125
  0
ENDBLK
  0
ENDSEC
  0
SECTION
  2
ENTITIES
  0
POLYLINE
  8
通り芯
  6
CONTINUOUS
 66
     1
 70
     1
  0
VERTEX
  8
通り芯
 10
-210.0
 20
-148.5
  0
VERTEX
  8
通り芯
 10
210.0
 20
-148.5
  0
VERTEX
  8
通り芯
 10
210.0
 20
148.5
  0
VERTEX
  8
通り芯
 10
-210.0
 20
148.5
  0
SEQEND
  0
INSERT
  2
*GRP_0001
  8
型材断面
  6
CONTINUOUS
 10
0.0
 20
0.0
  0
LINE
  8
型材断面
  6
DASHDOT
 10
21.33489
 20
-87.251428
 11
21.33489
 21
56.73238
  0
LINE
  8
型材断面
  6
DASHDOT
 10
-11.998442
 20
-87.251428
 11
-11.998442
 21
56.73238
  0
LINE
  8
型材断面
  6
DASHDOT
 10
-45.331778
 20
-87.251428
 11
-45.331778
 21
56.73238
  0
LINE
  8
型材断面
  6
DASHDOT
 10
119.011652
 20
56.73238
 11
-45.331778
 21
56.73238
  0
LINE
  8
型材断面
  6
DASHDOT
 10
119.011652
 20
35.065715
 11
-45.331778
 21
35.065715
  0
LINE
  8
型材断面
  6
DASHDOT
 10
119.011652
 20
13.399048
 11
-45.331778
 21
13.399048
  0
POLYLINE
  8
型材断面
  6
CONTINUOUS
 66
     1
 70
     1
  0
VERTEX
  8
型材断面
 10
-2.516932
 20
66.508305
  0
VERTEX
  8
型材断面
 10
-21.288862
 20
66.508305
  0
VERTEX
  8
型材断面
 10
-21.288862
 20
71.245147
  0
VERTEX
  8
型材断面
 10
-2.516932
 20
71.245147
  0
SEQEND
  0
POLYLINE
  8
型材断面
  6
CONTINUOUS
 66
     1
 70
     1
  0
VERTEX
  8
型材断面
 10
-2.516932
 20
3.623125
  0
VERTEX
  8
型材断面
 10
-21.288862
 20
3.623125
  0
VERTEX
  8
型材断面
 10
-21.288862
 20
-1.113717
  0
VERTEX
  8
型材断面
 10
-2.516932
 20
-1.113717
  0
SEQEND
  0
LINE
  8
型材断面
  6
CONTINUOUS
 10
-47.961907
 20
35.065715
 11
-50.552415
 21
36.561345
  0
LINE
  8
型材断面
  6
CONTINUOUS
 10
-47.961907
 20
35.065715
 11
-50.552415
 21
33.570085
  0
LINE
  8
型材断面
  6
CONTINUOUS
 10
-50.552415
 20
33.570085
 11
-50.552415
 21
36.561345
  0
LINE
  8
型材断面
  6
CONTINUOUS
 10
-28.66511
 20
59.36251
 11
-30.16074
 21
61.953017
  0
LINE
  8
型材断面
  6
CONTINUOUS
 10
-28.66511
 20
59.36251
 11
-27.16948
 21
61.953017
  0
LINE
  8
型材断面
  6
CONTINUOUS
 10
-27.16948
 20
61.953017
 11
-30.16074
 21
61.953017
  0
LINE
  8
型材断面
  6
CONTINUOUS
 10
-86.183985
 20
94.709852
 11
-85.58793
 21
92.119345
  0
LINE
  8
型材断面
  6
CONTINUOUS
 10
-86.183985
 20
94.709852
 11
-86.780043
 21
92.119345
  0
LINE
  8
型材断面
  6
CONTINUOUS
 10
-86.780043
 20
92.119345
 11
-85.58793
 21
92.119345
  0
LINE
  8
型材断面
  6
CONTINUOUS
 10
-92.206573
 20
88.840452
 11
-45.964795
 21
88.840452
  0
LINE
  8
型材断面
  6
CONTINUOUS
 10
-86.183985
 20
101.239727
 11
-87.679615
 21
98.64922
  0
LINE
  8
型材断面
  6
CONTINUOUS
 10
-86.183985
 20
101.239727
 11
-84.688355
 21
98.64922
  0
LINE
  8
型材断面
  6
CONTINUOUS
 10
-84.688355
 20
98.64922
 11
-87.679615
 21
98.64922
  0
LINE
  8
型材断面
  6
CONTINUOUS
 10
-92.206573
 20
97.710625
 11
-45.964795
 21
97.710625
  0
LINE
  8
型材断面
  6
CONTINUOUS
 10
-92.206573
 20
83.05242
 11
-45.964795
 21
83.05242
  0
LINE
  8
型材断面
  6
CONTINUOUS
 10
-28.66511
 20
10.76892
 11
-30.16074
 21
8.178413
  0
LINE
  8
型材断面
  6
CONTINUOUS
 10
-28.66511
 20
10.76892
 11
-27.16948
 21
8.178413
  0
LINE
  8
型材断面
  6
CONTINUOUS
 10
-27.16948
 20
8.178413
 11
-30.16074
 21
8.178413
  0
LINE
  8
型材断面
  6
CONTINUOUS
 10
23.965022
 20
35.065715
 11
26.55553
 21
36.561345
  0
LINE
  8
型材断面
  6
CONTINUOUS
 10
23.965022
 20
35.065715
 11
26.55553
 21
33.570085
  0
LINE
  8
型材断面
  6
CONTINUOUS
 10
26.55553
 20
33.570085
 11
26.55553
 21
36.561345
  0
LINE
  8
型材断面
  6
CONTINUOUS
 10
4.668225
 20
59.36251
 11
6.163855
 21
61.953017
  0
LINE
  8
型材断面
  6
CONTINUOUS
 10
4.668225
 20
59.36251
 11
3.172595
 21
61.953017
  0
LINE
  8
型材断面
  6
CONTINUOUS
 10
3.172595
 20
61.953017
 11
6.163855
 21
61.953017
  0
LINE
  8
型材断面
  6
CONTINUOUS
 10
4.668225
 20
10.76892
 11
6.163855
 21
8.178413
  0
LINE
  8
型材断面
  6
CONTINUOUS
 10
4.668225
 20
10.76892
 11
3.172595
 21
8.178413
  0
LINE
  8
型材断面
  6
CONTINUOUS
 10
3.172595
 20
8.178413
 11
6.163855
 21
8.178413
  0
LINE
  8
型材断面
  6
CONTINUOUS
 10
23.96502
 20
53.032382
 11
26.55553
 21
52.43633
  0
LINE
  8
型材断面
  6
CONTINUOUS
 10
23.96502
 20
53.032382
 11
26.555528
 21
53.628442
  0
LINE
  8
型材断面
  6
CONTINUOUS
 10
26.555528
 20
53.628442
 11
26.55553
 21
52.43633
  0
LINE
  8
型材断面
  6
CONTINUOUS
 10
23.96502
 20
17.099048
 11
26.55553
 21
17.6951
  0
LINE
  8
型材断面
  6
CONTINUOUS
 10
23.96502
 20
17.099048
 11
26.555528
 21
16.502988
  0
LINE
  8
型材断面
  6
CONTINUOUS
 10
26.555528
 20
16.502988
 11
26.55553
 21
17.6951
  0
LINE
  8
型材断面
  6
CONTINUOUS
 10
-47.961905
 20
53.032382
 11
-50.552415
 21
52.43633
  0
LINE
  8
型材断面
  6
CONTINUOUS
 10
-47.961905
 20
53.032382
 11
-50.552412
 21
53.628442
  0
LINE
  8
型材断面
  6
CONTINUOUS
 10
-50.552412
 20
53.628442
 11
-50.552415
 21
52.43633
  0
LINE
  8
型材断面
  6
CONTINUOUS
 10
-47.961905
 20
17.099048
 11
-50.552415
 21
17.6951
  0
LINE
  8
型材断面
  6
CONTINUOUS
 10
-47.961905
 20
17.099048
 11
-50.552412
 21
16.502988
  0
LINE
  8
型材断面
  6
CONTINUOUS
 10
-50.552412
 20
16.502988
 11
-50.552415
 21
17.6951
  0
LINE
  8
型材断面
  6
CONTINUOUS
 10
-11.998448
 20
11.41587
 11
-47.314963
 21
11.41587
  0
LINE
  8
型材断面
  6
CONTINUOUS
 10
-11.998438
 20
11.41587
 11
23.318078
 21
11.41587
  0
LINE
  8
型材断面
  6
CONTINUOUS
 10
-11.998438
 20
58.71556
 11
23.318078
 21
58.71556
  0
LINE
  8
型材断面
  6
CONTINUOUS
 10
-11.998448
 20
58.71556
 11
-47.314963
 21
58.71556
  0
LINE
  8
型材断面
  6
CONTINUOUS
 10
-92.206573
 20
77.264387
 11
-45.964795
 21
77.264387
  0
ARC
  8
型材断面
  6
CONTINUOUS
 62
    47
 10
112.753838
 20
11.415711
 40
0.016668
 50
179.999123
 51
270.0
  0
ARC
  8
型材断面
  6
CONTINUOUS
 62
    47
 10
112.79384
 20
11.409045
 40
0.010002
 50
270.0
 51
359.791626
  0
LINE
  8
型材断面
  6
CONTINUOUS
 62
    47
 10
112.97056
 20
11.44905
 11
112.97056
 21
12.299195
  0
LINE
  8
型材断面
  6
CONTINUOUS
 62
    47
 10
112.737173
 20
11.41571
 11
110.630513
 21
11.41571
  0
LINE
  8
型材断面
  6
CONTINUOUS
 62
    47
 10
112.97056
 20
11.415715
 11
116.287227
 21
11.415715
  0
LINE
  8
型材断面
  6
CONTINUOUS
 62
    47
 10
116.787227
 20
11.915715
 11
116.287227
 21
11.915715
  0
LINE
  8
型材断面
  6
CONTINUOUS
 62
    47
 10
110.630513
 20
12.29905
 11
110.303845
 21
12.29905
  0
LINE
  8
型材断面
  6
CONTINUOUS
 62
    47
 10
112.75384
 20
11.39905
 11
112.7935
 21
11.39905
  0
ARC
  8
型材断面
  6
CONTINUOUS
 62
    47
 10
112.753838
 20
58.715717
 40
0.016668
 50
90.0
 51
180.000877
  0
ARC
  8
型材断面
  6
CONTINUOUS
 62
    47
 10
112.79384
 20
58.722383
 40
0.010002
 50
0.208374
 51
90.0
  0
LINE
  8
型材断面
  6
CONTINUOUS
 62
    47
 10
112.97056
 20
58.68238
 11
112.97056
 21
57.832232
  0
LINE
  8
型材断面
  6
CONTINUOUS
 62
    47
 10
112.737173
 20
58.715718
 11
110.630513
 21
58.715718
  0
LINE
  8
型材断面
  6
CONTINUOUS
 62
    47
 10
112.97056
 20
58.715712
 11
116.287227
 21
58.715712
  0
LINE
  8
型材断面
  6
CONTINUOUS
 62
    47
 10
116.787227
 20
58.215712
 11
116.287227
 21
58.215712
  0
LINE
  8
型材断面
  6
CONTINUOUS
 62
    47
 10
110.630513
 20
57.832378
 11
110.303845
 21
57.832378
  0
LINE
  8
型材断面
  6
CONTINUOUS
 62
    47
 10
112.75384
 20
58.73238
 11
112.7935
 21
58.73238
  0
LINE
  8
型材断面
  6
CONTINUOUS
 10
110.630513
 20
11.41571
 11
110.630513
 21
35.065715
  0
LINE
  8
型材断面
  6
CONTINUOUS
 10
110.303845
 20
11.99905
 11
110.303845
 21
35.065715
  0
LINE
  8
型材断面
  6
CONTINUOUS
 10
108.637177
 20
11.99905
 11
108.637177
 21
35.065715
  0
LINE
  8
型材断面
  6
CONTINUOUS
 10
108.803845
 20
11.842527
 11
108.803845
 21
35.065715
  0
LINE
  8
型材断面
  6
CONTINUOUS
 10
112.97056
 20
11.415715
 11
112.97056
 21
35.065715
  0
LINE
  8
型材断面
  6
CONTINUOUS
 10
112.803845
 20
11.409045
 11
112.803845
 21
35.065715
  0
LINE
  8
型材断面
  6
CONTINUOUS
 10
116.287227
 20
11.415715
 11
116.287227
 21
35.065715
  0
LINE
  8
型材断面
  6
CONTINUOUS
 10
116.787227
 20
11.915715
 11
116.787227
 21
35.065715
  0
LINE
  8
型材断面
  6
CONTINUOUS
 10
116.787227
 20
58.215712
 11
116.787227
 21
35.065715
  0
LINE
  8
型材断面
  6
CONTINUOUS
 10
116.287227
 20
58.715712
 11
116.287227
 21
35.065715
  0
LINE
  8
型材断面
  6
CONTINUOUS
 10
112.803845
 20
58.722382
 11
112.803845
 21
35.065715
  0
LINE
  8
型材断面
  6
CONTINUOUS
 10
112.97056
 20
58.715712
 11
112.97056
 21
35.065715
  0
LINE
  8
型材断面
  6
CONTINUOUS
 10
110.630513
 20
58.715718
 11
110.630513
 21
35.065715
  0
LINE
  8
型材断面
  6
CONTINUOUS
 10
110.303845
 20
58.13238
 11
110.303845
 21
35.065715
  0
LINE
  8
型材断面
  6
CONTINUOUS
 10
108.637177
 20
58.13238
 11
108.637177
 21
35.065715
  0
LINE
  8
型材断面
  6
CONTINUOUS
 10
108.803845
 20
58.2889
 11
108.803845
 21
35.065715
  0
ARC
  8
型材断面
  6
CONTINUOUS
 62
    47
 10
-47.315114
 20
-81.287704
 40
0.016668
 50
89.999123
 51
180.0
  0
ARC
  8
型材断面
  6
CONTINUOUS
 62
    47
 10
-47.32178
 20
-81.327706
 40
0.010002
 50
180.0
 51
269.791626
  0
LINE
  8
型材断面
  6
CONTINUOUS
 62
    47
 10
-47.281775
 20
-81.504425
 11
-46.431628
 21
-81.504425
  0
LINE
  8
型材断面
  6
CONTINUOUS
 62
    47
 10
-47.315113
 20
-81.271037
 11
-47.315113
 21
-79.164377
  0
LINE
  8
型材断面
  6
CONTINUOUS
 62
    47
 10
-47.315107
 20
-81.504425
 11
-47.315107
 21
-84.821093
  0
LINE
  8
型材断面
  6
CONTINUOUS
 62
    47
 10
-46.815107
 20
-85.321093
 11
-46.815107
 21
-84.821093
  0
LINE
  8
型材断面
  6
CONTINUOUS
 62
    47
 10
-46.431772
 20
-79.164377
 11
-46.431772
 21
-78.83771
  0
LINE
  8
型材断面
  6
CONTINUOUS
 62
    47
 10
-47.331775
 20
-81.287705
 11
-47.331775
 21
-81.327365
  0
ARC
  8
型材断面
  6
CONTINUOUS
 62
    47
 10
23.318226
 20
-81.287704
 40
0.016668
 50
0.0
 51
90.000877
  0
ARC
  8
型材断面
  6
CONTINUOUS
 62
    47
 10
23.324892
 20
-81.327706
 40
0.010002
 50
270.208374
 51
360.0
  0
LINE
  8
型材断面
  6
CONTINUOUS
 62
    47
 10
23.284887
 20
-81.504425
 11
22.434742
 21
-81.504425
  0
LINE
  8
型材断面
  6
CONTINUOUS
 62
    47
 10
23.318227
 20
-81.271037
 11
23.318227
 21
-79.164377
  0
LINE
  8
型材断面
  6
CONTINUOUS
 62
    47
 10
23.318223
 20
-81.504425
 11
23.318223
 21
-84.821093
  0
LINE
  8
型材断面
  6
CONTINUOUS
 62
    47
 10
22.818223
 20
-85.321093
 11
22.818223
 21
-84.821093
  0
LINE
  8
型材断面
  6
CONTINUOUS
 62
    47
 10
22.434887
 20
-79.164377
 11
22.434887
 21
-78.83771
  0
LINE
  8
型材断面
  6
CONTINUOUS
 62
    47
 10
23.334887
 20
-81.287705
 11
23.334887
 21
-81.327365
  0
LINE
  8
型材断面
  6
CONTINUOUS
 10
22.734887
 20
-77.171043
 11
-11.998442
 21
-77.171043
  0
LINE
  8
型材断面
  6
CONTINUOUS
 10
22.89141
 20
-77.33771
 11
-11.998442
 21
-77.33771
  0
LINE
  8
型材断面
  6
CONTINUOUS
 10
23.318227
 20
-79.164377
 11
-11.998442
 21
-79.164377
  0
LINE
  8
型材断面
  6
CONTINUOUS
 10
22.734887
 20
-78.83771
 11
-11.998442
 21
-78.83771
  0
LINE
  8
型材断面
  6
CONTINUOUS
 10
23.324892
 20
-81.33771
 11
-11.998442
 21
-81.33771
  0
LINE
  8
型材断面
  6
CONTINUOUS
 10
23.318223
 20
-81.504425
 11
-11.998442
 21
-81.504425
  0
LINE
  8
型材断面
  6
CONTINUOUS
 10
23.318223
 20
-84.821093
 11
-11.998442
 21
-84.821093
  0
LINE
  8
型材断面
  6
CONTINUOUS
 10
22.818223
 20
-85.321093
 11
-11.998442
 21
-85.321093
  0
LINE
  8
型材断面
  6
CONTINUOUS
 10
-47.315113
 20
-79.164377
 11
-11.998442
 21
-79.164377
  0
LINE
  8
型材断面
  6
CONTINUOUS
 10
-47.315107
 20
-84.821093
 11
-11.998442
 21
-84.821093
  0
LINE
  8
型材断面
  6
CONTINUOUS
 10
-46.815107
 20
-85.321093
 11
-11.998442
 21
-85.321093
  0
LINE
  8
型材断面
  6
CONTINUOUS
 10
-47.321778
 20
-81.33771
 11
-11.998442
 21
-81.33771
  0
LINE
  8
型材断面
  6
CONTINUOUS
 10
-47.315107
 20
-81.504425
 11
-11.998442
 21
-81.504425
  0
LINE
  8
型材断面
  6
CONTINUOUS
 10
-46.731775
 20
-78.83771
 11
-11.998442
 21
-78.83771
  0
LINE
  8
型材断面
  6
CONTINUOUS
 10
-46.888298
 20
-77.33771
 11
-11.998442
 21
-77.33771
  0
LINE
  8
型材断面
  6
CONTINUOUS
 10
-46.731775
 20
-77.171043
 11
-11.998442
 21
-77.171043
  0
ARC
  8
型材断面
  6
DOT
 62
    47
 10
-47.315114
 20
-67.954371
 40
0.016668
 50
89.999123
 51
180.0
  0
ARC
  8
型材断面
  6
DOT
 62
    47
 10
-47.32178
 20
-67.994373
 40
0.010002
 50
180.0
 51
269.791626
  0
LINE
  8
型材断面
  6
DOT
 62
    47
 10
-47.315113
 20
-67.937705
 11
-47.315113
 21
-65.831045
  0
LINE
  8
型材断面
  6
DOT
 62
    47
 10
-46.431772
 20
-65.831045
 11
-46.431772
 21
-65.504378
  0
LINE
  8
型材断面
  6
DOT
 62
    47
 10
-47.331775
 20
-67.954373
 11
-47.331775
 21
-67.994032
  0
ARC
  8
型材断面
  6
DOT
 62
    47
 10
23.318226
 20
-67.954371
 40
0.016668
 50
0.0
 51
90.000877
  0
ARC
  8
型材断面
  6
DOT
 62
    47
 10
23.324892
 20
-67.994373
 40
0.010002
 50
270.208374
 51
360.0
  0
LINE
  8
型材断面
  6
DOT
 62
    47
 10
23.318227
 20
-67.937705
 11
23.318227
 21
-65.831045
  0
LINE
  8
型材断面
  6
DOT
 62
    47
 10
22.434887
 20
-65.831045
 11
22.434887
 21
-65.504378
  0
LINE
  8
型材断面
  6
DOT
 62
    47
 10
23.334887
 20
-67.954373
 11
23.334887
 21
-67.994032
  0
LINE
  8
型材断面
  6
DOT
 10
23.324892
 20
-68.004378
 11
-11.998442
 21
-68.004378
  0
LINE
  8
型材断面
  6
DOT
 10
23.318227
 20
-65.831045
 11
-11.998442
 21
-65.831045
  0
LINE
  8
型材断面
  6
DOT
 10
22.734887
 20
-65.504378
 11
-11.998442
 21
-65.504378
  0
LINE
  8
型材断面
  6
DOT
 10
22.734887
 20
-63.83771
 11
-11.998442
 21
-63.83771
  0
LINE
  8
型材断面
  6
DOT
 10
22.89141
 20
-64.004378
 11
-11.998442
 21
-64.004378
  0
LINE
  8
型材断面
  6
DOT
 10
-47.321778
 20
-68.004378
 11
-11.998442
 21
-68.004378
  0
LINE
  8
型材断面
  6
DOT
 10
-46.731775
 20
-65.504378
 11
-11.998442
 21
-65.504378
  0
LINE
  8
型材断面
  6
DOT
 10
-47.315113
 20
-65.831045
 11
-11.998442
 21
-65.831045
  0
LINE
  8
型材断面
  6
DOT
 10
-46.731775
 20
-63.83771
 11
-11.998442
 21
-63.83771
  0
LINE
  8
型材断面
  6
DOT
 10
-46.888298
 20
-64.004378
 11
-11.998442
 21
-64.004378
  0
INSERT
  2
*GRP_0016
  8
型材断面
  6
CONTINUOUS
 10
0.0
 20
0.0
  0
INSERT
  2
*GRP_0017
  8
型材断面
  6
CONTINUOUS
 10
0.0
 20
0.0
  0
INSERT
  2
*GRP_0018
  8
型材断面
  6
CONTINUOUS
 10
0.0
 20
0.0
  0
INSERT
  2
*GRP_0019
  8
型材断面
  6
CONTINUOUS
 10
0.0
 20
0.0
  0
LINE
  8
型材断面
  6
CONTINUOUS
 10
-28.248442
 20
55.788903
 11
4.251557
 21
55.788903
  0
LINE
  8
型材断面
  6
CONTINUOUS
 10
-28.248442
 20
14.342527
 11
4.251557
 21
14.342527
  0
LINE
  8
型材断面
  6
CONTINUOUS
 10
-10.748442
 20
15.17586
 11
-10.748442
 21
54.95557
  0
LINE
  8
型材断面
  6
CONTINUOUS
 10
-13.248442
 20
15.17586
 11
-13.248442
 21
54.95557
  0
LINE
  8
型材断面
  6
CONTINUOUS
 10
23.318075
 20
11.41587
 11
23.318075
 21
35.065715
  0
LINE
  8
型材断面
  6
CONTINUOUS
 10
23.318075
 20
58.71556
 11
23.318075
 21
35.065715
  0
LINE
  8
型材断面
  6
CONTINUOUS
 10
22.89141
 20
35.48238
 11
20.39141
 21
35.48238
  0
LINE
  8
型材断面
  6
CONTINUOUS
 10
22.89141
 20
34.649048
 11
20.39141
 21
34.649048
  0
LINE
  8
型材断面
  6
CONTINUOUS
 10
22.655712
 20
11.842527
 11
22.89141
 21
12.078235
  0
LINE
  8
型材断面
  6
CONTINUOUS
 10
20.39141
 20
34.649048
 11
20.39141
 21
14.57823
  0
LINE
  8
型材断面
  6
CONTINUOUS
 10
20.39141
 20
14.57823
 11
20.155708
 21
14.342527
  0
LINE
  8
型材断面
  6
CONTINUOUS
 10
20.155708
 20
14.342527
 11
22.655712
 21
11.842527
  0
LINE
  8
型材断面
  6
CONTINUOUS
 10
20.39141
 20
14.57823
 11
22.89141
 21
12.078235
  0
LINE
  8
型材断面
  6
CONTINUOUS
 10
23.318075
 20
11.41587
 11
22.773562
 21
11.960383
  0
LINE
  8
型材断面
  6
CONTINUOUS
 10
22.655712
 20
58.288903
 11
22.89141
 21
58.053195
  0
LINE
  8
型材断面
  6
CONTINUOUS
 10
20.39141
 20
55.5532
 11
20.155708
 21
55.788903
  0
LINE
  8
型材断面
  6
CONTINUOUS
 10
23.318075
 20
58.71556
 11
22.773562
 21
58.171047
  0
LINE
  8
型材断面
  6
CONTINUOUS
 10
20.39141
 20
35.48238
 11
20.39141
 21
55.5532
  0
LINE
  8
型材断面
  6
CONTINUOUS
 10
20.39141
 20
55.5532
 11
22.89141
 21
58.053195
  0
LINE
  8
型材断面
  6
CONTINUOUS
 10
22.89141
 20
12.078235
 11
22.89141
 21
58.053195
  0
LINE
  8
型材断面
  6
CONTINUOUS
 10
20.155708
 20
55.788903
 11
22.655712
 21
58.288903
  0
LINE
  8
型材断面
  6
CONTINUOUS
 10
5.084893
 20
55.788903
 11
20.155708
 21
55.788903
  0
LINE
  8
型材断面
  6
CONTINUOUS
 10
5.084893
 20
14.342527
 11
20.155708
 21
14.342527
  0
LINE
  8
型材断面
  6
CONTINUOUS
 10
-47.31496
 20
11.41587
 11
-47.31496
 21
35.065715
  0
LINE
  8
型材断面
  6
CONTINUOUS
 10
-47.31496
 20
58.71556
 11
-47.31496
 21
35.065715
  0
LINE
  8
型材断面
  6
CONTINUOUS
 10
-46.888295
 20
35.48238
 11
-44.388295
 21
35.48238
  0
LINE
  8
型材断面
  6
CONTINUOUS
 10
-46.888295
 20
34.649048
 11
-44.388295
 21
34.649048
  0
LINE
  8
型材断面
  6
CONTINUOUS
 10
-46.652597
 20
11.842527
 11
-46.888295
 21
12.078235
  0
LINE
  8
型材断面
  6
CONTINUOUS
 10
-44.388295
 20
34.649048
 11
-44.388295
 21
14.57823
  0
LINE
  8
型材断面
  6
CONTINUOUS
 10
-44.388295
 20
14.57823
 11
-44.152592
 21
14.342527
  0
LINE
  8
型材断面
  6
CONTINUOUS
 10
-44.152592
 20
14.342527
 11
-46.652597
 21
11.842527
  0
LINE
  8
型材断面
  6
CONTINUOUS
 10
-44.388295
 20
14.57823
 11
-46.888295
 21
12.078235
  0
LINE
  8
型材断面
  6
CONTINUOUS
 10
-47.31496
 20
11.41587
 11
-46.770447
 21
11.960383
  0
LINE
  8
型材断面
  6
CONTINUOUS
 10
-46.652597
 20
58.288903
 11
-46.888295
 21
58.053195
  0
LINE
  8
型材断面
  6
CONTINUOUS
 10
-44.388295
 20
55.5532
 11
-44.152592
 21
55.788903
  0
LINE
  8
型材断面
  6
CONTINUOUS
 10
-47.31496
 20
58.71556
 11
-46.770447
 21
58.171047
  0
LINE
  8
型材断面
  6
CONTINUOUS
 10
-44.388295
 20
35.48238
 11
-44.388295
 21
55.5532
  0
LINE
  8
型材断面
  6
CONTINUOUS
 10
-44.388295
 20
55.5532
 11
-46.888295
 21
58.053195
  0
LINE
  8
型材断面
  6
CONTINUOUS
 10
-46.888295
 20
12.078235
 11
-46.888295
 21
58.053195
  0
LINE
  8
型材断面
  6
CONTINUOUS
 10
-44.152592
 20
55.788903
 11
-46.652597
 21
58.288903
  0
LINE
  8
型材断面
  6
CONTINUOUS
 10
-29.081778
 20
14.342527
 11
-44.152592
 21
14.342527
  0
LINE
  8
型材断面
  6
CONTINUOUS
 10
22.655712
 20
11.842527
 11
-46.652597
 21
11.842527
  0
LINE
  8
型材断面
  6
CONTINUOUS
 10
-29.081778
 20
55.788903
 11
-44.152592
 21
55.788903
  0
LINE
  8
型材断面
  6
CONTINUOUS
 10
22.655712
 20
58.288903
 11
-46.652597
 21
58.288903
  0
TEXT
  7
TextStyle03
  8
文字
  6
CONTINUOUS
 10
97.9
 20
-86.1
  1
網入り6.8t
 40
3.0
 72
     5
 11
114.5875
 21
-86.1
  0
TEXT
  7
TextStyle03
  8
文字
  6
CONTINUOUS
 10
104.575
 20
-90.775
  1
×２枚
 40
3.0
 72
     5
 11
114.325
 21
-90.775
  0
TEXT
  7
TextStyle03
  8
文字
  6
CONTINUOUS
 10
-20.25
 20
67.2
  1
可動装置側
 40
3.0
 72
     5
 11
-3.75
 21
67.2
  0
TEXT
  7
TextStyle03
  8
文字
  6
CONTINUOUS
 10
-20.25
 20
-0.075
  1
可動装置側
 40
3.0
 72
     5
 11
-3.75
 21
-0.075
  0
TEXT
  7
TextStyle03
  8
文字
  6
CONTINUOUS
 10
-83.45
 20
93.325
  1
はケーシング位置を示す
 40
3.0
 72
     5
 11
-46.7
 21
93.325
  0
TEXT
  7
TextStyle03
  8
文字
  6
CONTINUOUS
 10
-83.45
 20
89.95
  1
４ヶ所中1ヶ所に設定
 40
3.0
 72
     5
 11
-51.7625
 21
89.95
  0
TEXT
  7
TextStyle03
  8
文字
  6
CONTINUOUS
 10
-83.45
 20
98.85
  1
は排水穴位置を示す
 40
3.0
 72
     5
 11
-53.45
 21
98.85
  0
TEXT
  7
TextStyle03
  8
文字
  6
CONTINUOUS
 10
-87.175
 20
83.975
  1
アンカー数量　１０ヶ所
 40
3.0
 72
     5
 11
-50.425
 21
83.975
  0
TEXT
  7
TextStyle03
  8
文字
  6
CONTINUOUS
 10
-82.95
 20
23.975
  1
アンカーピッチ
 40
3.0
 50
90.0
 72
     5
 11
-82.95
 21
47.225
  0
TEXT
  7
TextStyle03
  8
文字
  6
CONTINUOUS
 10
-37.9
 20
93.575
  1
アンカーピッチ
 40
3.0
 72
     5
 11
-14.65
 21
93.575
  0
TEXT
  7
TextStyle03
  8
文字
  6
CONTINUOUS
 10
-87.175
 20
78.2
  1
アームユニット数　４ヶ所
 40
3.0
 72
     5
 11
-47.05
 21
78.2
  0
LINE
  8
文字
  6
CONTINUOUS
 10
108.637177
 20
70.502383
 11
108.637177
 21
59.95242
  0
LINE
  8
文字
  6
CONTINUOUS
 10
116.287227
 20
70.502383
 11
116.287227
 21
60.0175
  0
LINE
  8
文字
  6
CONTINUOUS
 10
34.570135
 20
-77.171043
 11
24.020173
 21
-77.171043
  0
LINE
  8
文字
  6
CONTINUOUS
 10
34.570135
 20
-84.821093
 11
24.085253
 21
-84.821093
  0
LINE
  8
文字
  6
CONTINUOUS
 10
34.570135
 20
-63.83771
 11
24.020173
 21
-63.83771
  0
LINE
  8
文字
  6
CONTINUOUS
 10
116.421445
 20
-41.640567
 11
116.421445
 21
-48.07425
  0
LINE
  8
文字
  6
CONTINUOUS
 10
84.004777
 20
-41.640567
 11
84.004777
 21
-48.07425
  0
TEXT
  7
TextStyle03
  8
文字
  6
CONTINUOUS
 10
63.975
 20
125.25
  1
シリーズ：ＴＦ２ＦＬ
 40
5.0
 72
     5
 11
119.6
 21
125.25
  0
TEXT
  7
TextStyle03
  8
文字
  6
CONTINUOUS
 10
63.975
 20
119.625
  1
　　　　　（上下可動）1300×2000タイプ
 40
5.0
 72
     5
 11
170.225
 21
119.625
  0
TEXT
  7
TextStyle03
  8
文字
  6
CONTINUOUS
 10
63.975
 20
114.0
  1
図面名　：外観姿図
 40
5.0
 72
     5
 11
113.975
 21
114.0
  0
TEXT
  7
TextStyle03
  8
文字
  6
CONTINUOUS
 10
63.975
 20
108.375
  1
　　　　　　
 40
5.0
 72
     5
 11
97.1
 21
108.375
  0
LINE
  8
文字
  6
CONTINUOUS
 10
5.084893
 20
14.342527
 11
5.084893
 21
11.842527
  0
LINE
  8
文字
  6
CONTINUOUS
 10
4.251557
 20
14.342527
 11
4.251557
 21
11.842527
  0
LINE
  8
文字
  6
CONTINUOUS
 10
-29.081778
 20
14.342527
 11
-29.081778
 21
11.842527
  0
LINE
  8
文字
  6
CONTINUOUS
 10
-28.248442
 20
14.342527
 11
-28.248442
 21
11.842527
  0
LINE
  8
文字
  6
CONTINUOUS
 10
5.084893
 20
55.788903
 11
5.084893
 21
58.288903
  0
LINE
  8
文字
  6
CONTINUOUS
 10
4.251557
 20
55.788903
 11
4.251557
 21
58.288903
  0
LINE
  8
文字
  6
CONTINUOUS
 10
-29.081778
 20
55.788903
 11
-29.081778
 21
58.288903
  0
LINE
  8
文字
  6
CONTINUOUS
 10
-28.248442
 20
55.788903
 11
-28.248442
 21
58.288903
  0
LINE
  8
文字
  6
CONTINUOUS
 10
-10.748442
 20
15.17586
 11
-13.248442
 21
15.17586
  0
LINE
  8
文字
  6
CONTINUOUS
 10
-10.748442
 20
54.95557
 11
-13.248442
 21
54.95557
  0
TEXT
  7
TextStyle03
  8
文字
  6
CONTINUOUS
 10
64.125
 20
104.525
  1
ＮＳコード：ＮＳＦＺＬ
 40
5.0
 72
     5
 11
125.375
 21
104.525
  0
INSERT
  2
*DIM_0002
  8
寸法
  6
CONTINUOUS
 10
0.0
 20
0.0
  0
INSERT
  2
*DIM_0003
  8
寸法
  6
CONTINUOUS
 10
0.0
 20
0.0
  0
INSERT
  2
*DIM_0004
  8
寸法
  6
CONTINUOUS
 10
0.0
 20
0.0
  0
INSERT
  2
*DIM_0005
  8
寸法
  6
CONTINUOUS
 10
0.0
 20
0.0
  0
INSERT
  2
*DIM_0006
  8
寸法
  6
CONTINUOUS
 10
0.0
 20
0.0
  0
INSERT
  2
*DIM_0007
  8
寸法
  6
CONTINUOUS
 10
0.0
 20
0.0
  0
INSERT
  2
*DIM_0008
  8
寸法
  6
CONTINUOUS
 10
0.0
 20
0.0
  0
INSERT
  2
*DIM_0009
  8
寸法
  6
CONTINUOUS
 10
0.0
 20
0.0
  0
INSERT
  2
*DIM_0010
  8
寸法
  6
CONTINUOUS
 10
0.0
 20
0.0
  0
INSERT
  2
*DIM_0011
  8
寸法
  6
CONTINUOUS
 10
0.0
 20
0.0
  0
INSERT
  2
*DIM_0012
  8
寸法
  6
CONTINUOUS
 10
0.0
 20
0.0
  0
INSERT
  2
*DIM_0013
  8
寸法
  6
CONTINUOUS
 10
0.0
 20
0.0
  0
INSERT
  2
*DIM_0014
  8
寸法
  6
CONTINUOUS
 10
0.0
 20
0.0
  0
INSERT
  2
*DIM_0015
  8
寸法
  6
CONTINUOUS
 10
0.0
 20
0.0
  0
INSERT
  2
*DIM_0020
  8
寸法
  6
CONTINUOUS
 10
0.0
 20
0.0
  0
INSERT
  2
*DIM_0021
  8
寸法
  6
CONTINUOUS
 10
0.0
 20
0.0
  0
INSERT
  2
*DIM_0022
  8
寸法
  6
CONTINUOUS
 10
0.0
 20
0.0
  0
LINE
  8
別途部材
  6
CONTINUOUS
 62
    47
 10
108.737177
 20
11.842527
 11
108.803845
 21
11.842527
  0
ARC
  8
別途部材
  6
CONTINUOUS
 62
    47
 10
108.737176
 20
11.942527
 40
0.1
 50
180.0
 51
270.0
  0
LINE
  8
別途部材
  6
CONTINUOUS
 62
    47
 10
108.637177
 20
11.942527
 11
108.637177
 21
14.309195
  0
LINE
  8
別途部材
  6
CONTINUOUS
 62
    47
 10
110.303845
 20
11.99905
 11
108.803845
 21
11.99905
  0
LINE
  8
別途部材
  6
CONTINUOUS
 62
    47
 10
108.737177
 20
58.2889
 11
108.803845
 21
58.2889
  0
ARC
  8
別途部材
  6
CONTINUOUS
 62
    47
 10
108.737176
 20
58.188902
 40
0.1
 50
90.0
 51
180.0
  0
LINE
  8
別途部材
  6
CONTINUOUS
 62
    47
 10
108.637177
 20
58.1889
 11
108.637177
 21
55.822235
  0
LINE
  8
別途部材
  6
CONTINUOUS
 62
    47
 10
110.303845
 20
58.13238
 11
108.803845
 21
58.13238
  0
LINE
  8
別途部材
  6
CONTINUOUS
 62
    47
 10
-46.888298
 20
-77.271043
 11
-46.888298
 21
-77.33771
  0
ARC
  8
別途部材
  6
CONTINUOUS
 62
    47
 10
-46.788298
 20
-77.271042
 40
0.1
 50
90.0
 51
180.0
  0
LINE
  8
別途部材
  6
CONTINUOUS
 62
    47
 10
-46.788298
 20
-77.171043
 11
-44.42163
 21
-77.171043
  0
LINE
  8
別途部材
  6
CONTINUOUS
 62
    47
 10
-46.731775
 20
-78.83771
 11
-46.731775
 21
-77.33771
  0
LINE
  8
別途部材
  6
CONTINUOUS
 62
    47
 10
22.89141
 20
-77.271043
 11
22.89141
 21
-77.33771
  0
ARC
  8
別途部材
  6
CONTINUOUS
 62
    47
 10
22.79141
 20
-77.271042
 40
0.1
 50
0.0
 51
90.0
  0
LINE
  8
別途部材
  6
CONTINUOUS
 62
    47
 10
22.79141
 20
-77.171043
 11
20.424742
 21
-77.171043
  0
LINE
  8
別途部材
  6
CONTINUOUS
 62
    47
 10
22.734887
 20
-78.83771
 11
22.734887
 21
-77.33771
  0
LINE
  8
別途部材
  6
DOT
 62
    47
 10
-46.888298
 20
-63.93771
 11
-46.888298
 21
-64.004378
  0
ARC
  8
別途部材
  6
DOT
 62
    47
 10
-46.788298
 20
-63.937709
 40
0.1
 50
90.0
 51
180.0
  0
LINE
  8
別途部材
  6
DOT
 62
    47
 10
-46.788298
 20
-63.83771
 11
-44.42163
 21
-63.83771
  0
LINE
  8
別途部材
  6
DOT
 62
    47
 10
-46.731775
 20
-65.504378
 11
-46.731775
 21
-64.004378
  0
LINE
  8
別途部材
  6
DOT
 62
    47
 10
22.89141
 20
-63.93771
 11
22.89141
 21
-64.004378
  0
ARC
  8
別途部材
  6
DOT
 62
    47
 10
22.79141
 20
-63.937709
 40
0.1
 50
0.0
 51
90.0
  0
LINE
  8
別途部材
  6
DOT
 62
    47
 10
22.79141
 20
-63.83771
 11
20.424742
 21
-63.83771
  0
LINE
  8
別途部材
  6
DOT
 62
    47
 10
22.734887
 20
-65.504378
 11
22.734887
 21
-64.004378
  0
LINE
  8
曲げ物
  6
CONTINUOUS
 10
116.421445
 20
-92.533713
 11
116.421445
 21
-49.867045
  0
LINE
  8
曲げ物
  6
CONTINUOUS
 10
7.772437
 20
37.022003
 11
4.077125
 21
33.32669
  0
LINE
  8
曲げ物
  6
CONTINUOUS
 10
7.068967
 20
35.485893
 11
5.613237
 21
34.030163
  0
LINE
  8
曲げ物
  6
CONTINUOUS
 10
6.236327
 20
36.318533
 11
4.780597
 21
34.862803
  0
LINE
  8
曲げ物
  6
CONTINUOUS
 10
-25.730152
 20
37.022003
 11
-29.425465
 21
33.32669
  0
LINE
  8
曲げ物
  6
CONTINUOUS
 10
-26.433623
 20
35.485893
 11
-27.889353
 21
34.030163
  0
LINE
  8
曲げ物
  6
CONTINUOUS
 10
-27.266262
 20
36.318533
 11
-28.721993
 21
34.862803
  0
LINE
  8
曲げ物
  6
CONTINUOUS
 10
84.004777
 20
-49.867045
 11
84.004777
 21
-92.533713
  0
LINE
  8
曲げ物
  6
CONTINUOUS
 10
116.421445
 20
-49.867045
 11
84.004777
 21
-49.867045
  0
LINE
  8
曲げ物
  6
CONTINUOUS
 10
116.421445
 20
-92.533713
 11
84.004777
 21
-92.533713
  0
ENDSEC
  0
EOF
