  0
SECTION
  2
HEADER
  9
$EXTMIN
 10
-210.0
 20
-148.5
  9
$EXTMAX
 10
210.0
 20
148.5
  9
$PDMODE
 70
    32
  9
$PDSIZE
 40
1.5
  9
$LTSCALE
 40
10.0
  0
ENDSEC
  0
SECTION
  2
TABLES
  0
TABLE
  2
LTYPE
 70
    15
  0
LTYPE
  2
CONTINUOUS
 70
    64
  3
実線
 72
    65
 73
     0
 40
0.0
  0
LTYPE
  2
DASHED
 70
    64
  3
破線A
 72
    65
 73
     2
 40
0.6
 49
0.4
 49
-0.2
  0
LTYPE
  2
DASHEDX2
 70
    64
  3
破線B
 72
    65
 73
     2
 40
1.3
 49
0.9
 49
-0.4
  0
LTYPE
  2
DASHDOT
 70
    64
  3
１点鎖線A
 72
    65
 73
     4
 40
0.5375
 49
0.375
 49
-0.05
 49
0.0625
 49
-0.05
  0
LTYPE
  2
DASHDOTX2
 70
    64
  3
１点鎖線B
 72
    65
 73
     4
 40
1.075
 49
0.75
 49
-0.1
 49
0.125
 49
-0.1
  0
LTYPE
  2
DIVIDE2
 70
    64
  3
２点鎖線A
 72
    65
 73
     6
 40
0.5125
 49
0.3
 49
-0.0375
 49
0.05
 49
-0.0375
 49
0.05
 49
-0.0375
  0
LTYPE
  2
DIVIDE
 70
    64
  3
２点鎖線B
 72
    65
 73
     6
 40
1.05
 49
0.55
 49
-0.1
 49
0.1
 49
-0.1
 49
0.1
 49
-0.1
  0
LTYPE
  2
DOT
 70
    64
  3
点線A
 72
    65
 73
     2
 40
0.1125
 49
0.0625
 49
-0.05
  0
LTYPE
  2
DOTX2
 70
    64
  3
点線B
 72
    65
 73
     2
 40
0.275
 49
0.15
 49
-0.125
  0
LTYPE
  2
CONTINUOUS
 70
    64
  3
実線
 72
    65
 73
     0
 40
0.0
  0
LTYPE
  2
CONTINUOUS
 70
    64
  3
実線
 72
    65
 73
     0
 40
0.0
  0
LTYPE
  2
CONTINUOUS
 70
    64
  3
実線
 72
    65
 73
     0
 40
0.0
  0
LTYPE
  2
CONTINUOUS
 70
    64
  3
実線
 72
    65
 73
     0
 40
0.0
  0
LTYPE
  2
CONTINUOUS
 70
    64
  3
実線
 72
    65
 73
     0
 40
0.0
  0
LTYPE
  2
CONTINUOUS
 70
    64
  3
実線
 72
    65
 73
     0
 40
0.0
  0
ENDTAB
  0
TABLE
  2
LAYER
 70
    34
  0
LAYER
  2
通り芯
 70
     0
 62
    15
  6
CONTINUOUS
  0
LAYER
  2
補助線
 70
     0
 62
    16
  6
DOT
  0
LAYER
  2
躯体
 70
     0
 62
    31
  6
CONTINUOUS
  0
LAYER
  2
型材
 70
     0
 62
    32
  6
CONTINUOUS
  0
LAYER
  2
型材断面
 70
     0
 62
    47
  6
CONTINUOUS
  0
LAYER
  2
ガラス
 70
     0
 62
    48
  6
CONTINUOUS
  0
LAYER
  2
ゴム等
 70
     0
 62
    63
  6
CONTINUOUS
  0
LAYER
  2
ボルト／ビス
 70
     0
 62
    64
  6
CONTINUOUS
  0
LAYER
  2
文字
 70
     0
 62
    79
  6
CONTINUOUS
  0
LAYER
  2
寸法
 70
     0
 62
    80
  6
CONTINUOUS
  0
LAYER
  2
ﾊｯﾁﾝｸﾞ
 70
     0
 62
    95
  6
CONTINUOUS
  0
LAYER
  2
別途部材
 70
     0
 62
    96
  6
CONTINUOUS
  0
LAYER
  2
曲げ物
 70
     0
 62
   111
  6
CONTINUOUS
  0
LAYER
  2
鉄骨等
 70
     0
 62
   112
  6
CONTINUOUS
  0
LAYER
  2
St
 70
     0
 62
   127
  6
CONTINUOUS
  0
LAYER
  2
その他部品等
 70
     0
 62
   128
  6
CONTINUOUS
  0
LAYER
  2
ｶﾞｽｹｯﾄ
 70
     0
 62
   143
  6
CONTINUOUS
  0
LAYER
  2
ｽｹｯﾁ
 70
     0
 62
    14
  6
CONTINUOUS
  0
LAYER
  2
0
 70
     0
 62
    17
  6
CONTINUOUS
  0
LAYER
  2
1
 70
     0
 62
    30
  6
CONTINUOUS
  0
LAYER
  2
4
 70
     0
 62
    33
  6
CONTINUOUS
  0
LAYER
  2
ﾚｲﾔ3
 70
     0
 62
    46
  6
CONTINUOUS
  0
LAYER
  2
外形線
 70
     0
 62
    49
  6
CONTINUOUS
  0
LAYER
  2
部品
 70
     0
 62
    14
  6
CONTINUOUS
  0
LAYER
  2
サッシ芯
 70
     0
 62
    17
  6
DASHDOTX2
  0
LAYER
  2
寸法線
 70
     0
 62
    62
  6
CONTINUOUS
  0
LAYER
  2
姿図外形線
 70
     0
 62
    65
  6
CONTINUOUS
  0
LAYER
  2
姿補助線
 70
     0
 62
    30
  6
CONTINUOUS
  0
LAYER
  2
透視線
 70
     0
 62
    78
  6
DOT
  0
LAYER
  2
用紙
 70
     0
 62
    81
  6
CONTINUOUS
  0
LAYER
  2
実線図枠
 70
     0
 62
    94
  6
CONTINUOUS
  0
LAYER
  2
補助図枠
 70
     0
 62
    97
  6
CONTINUOUS
  0
LAYER
  2
建具記号
 70
     0
 62
   110
  6
CONTINUOUS
  0
LAYER
  2
補助文字
 70
     0
 62
   113
  6
CONTINUOUS
  0
ENDTAB
  0
TABLE
  2
STYLE
 70
    10
  0
STYLE
  2
STANDARD
 70
     0
 40
1.0
 41
1.0
 42
1.0
 50
0.0
 71
     0
  3
TXT
  4
BIGFONT
  0
STYLE
  2
TATE
 70
     4
 40
1.0
 41
1.0
 42
1.0
 50
0.0
 71
     0
  3
TXT
  4
BIGFONT
  0
STYLE
  2
TextStyle03
 70
     0
 40
1.0
 41
1.0
 42
1.0
 50
0.0
 71
     0
  3
MONOTXT
  4
BIGFONT
  0
STYLE
  2
TextStyle04
 70
     0
 40
1.0
 41
1.0
 42
1.0
 50
0.0
 71
     0
  3
MONOTXT
  4
BIGFONT
  0
STYLE
  2
TextStyle05
 70
     0
 40
1.0
 41
1.0
 42
1.0
 50
0.0
 71
     0
  3
MONOTXT
  4
BIGFONT
  0
STYLE
  2
TextStyle06
 70
     0
 40
1.0
 41
1.0
 42
1.0
 50
0.0
 71
     0
  3
MONOTXT
  4
BIGFONT
  0
STYLE
  2
TextStyle07
 70
     0
 40
1.0
 41
1.0
 42
1.0
 50
0.0
 71
     0
  3
MONOTXT
  4
BIGFONT
  0
STYLE
  2
TextStyle08
 70
     0
 40
1.0
 41
1.0
 42
1.0
 50
0.0
 71
     0
  3
MONOTXT
  4
BIGFONT
  0
STYLE
  2
TextStyle09
 70
     0
 40
1.0
 41
1.0
 42
1.0
 50
0.0
 71
     0
  3
MONOTXT
  4
BIGFONT
  0
STYLE
  2
TextStyle10
 70
     0
 40
1.0
 41
1.0
 42
1.0
 50
0.0
 71
     0
  3
MONOTXT
  4
BIGFONT
  0
ENDTAB
  0
ENDSEC
  0
SECTION
  2
BLOCKS
  0
BLOCK
  2
*GRP_0001
 70
    65
 10
0.0
 20
0.0
  0
LINE
  8
型材断面
  6
CONTINUOUS
 10
195.0
 20
133.5
 11
195.0
 21
-133.5
  0
LINE
  8
型材断面
  6
CONTINUOUS
 10
195.0
 20
-133.5
 11
-185.0
 21
-133.5
  0
LINE
  8
型材断面
  6
CONTINUOUS
 10
-185.0
 20
-133.5
 11
-185.0
 21
133.5
  0
LINE
  8
型材断面
  6
CONTINUOUS
 10
195.0
 20
133.5
 11
-185.0
 21
133.5
  0
LINE
  8
型材断面
  6
CONTINUOUS
 10
145.0
 20
-133.5
 11
145.0
 21
-118.5
  0
LINE
  8
型材断面
  6
CONTINUOUS
 10
195.0
 20
-118.5
 11
145.0
 21
-118.5
  0
ENDBLK
  0
BLOCK
  2
*DIM_0002
 70
    65
 10
0.0
 20
0.0
  0
LINE
  8
寸法
  6
BYBLOCK
 62
     0
 10
-92.435405
 20
-16.126177
 11
-47.435405
 21
-16.126177
  0
POINT
  8
寸法
 62
     0
 10
-92.435405
 20
-16.126177
  0
POINT
  8
寸法
 62
     0
 10
-47.435405
 20
-16.126177
  0
TEXT
  7
TextStyle03
  8
寸法
  6
CONTINUOUS
 62
     0
 10
-80.85
 20
-15.775
  1
呼称寸法　900
 40
3.0
 72
     5
 11
-59.1
 21
-15.775
  0
ENDBLK
  0
BLOCK
  2
*GRP_0003
 70
    65
 10
0.0
 20
0.0
  0
POLYLINE
  8
寸法
  6
CONTINUOUS
 62
     0
 66
     1
  0
VERTEX
  8
寸法
 10
-49.53765
 20
24.156562
  0
VERTEX
  8
寸法
 10
-45.856455
 20
20.475367
  0
VERTEX
  8
寸法
 10
-23.013878
 20
20.475367
  0
SEQEND
  0
ENDBLK
  0
BLOCK
  2
*DIM_0004
 70
    65
 10
0.0
 20
0.0
  0
LINE
  8
寸法
  6
BYBLOCK
 62
     0
 10
-46.435405
 20
56.66027
 11
-29.575493
 21
56.66027
  0
LINE
  8
寸法
  6
BYBLOCK
 62
     0
 10
-38.41153
 20
51.110273
 11
-29.575493
 21
51.110273
  0
LINE
  8
寸法
  6
BYBLOCK
 62
     0
 10
-29.575493
 20
56.66027
 11
-29.575493
 21
51.110273
  0
POINT
  8
寸法
 62
     0
 10
-29.575493
 20
56.66027
  0
POINT
  8
寸法
 62
     0
 10
-29.575493
 20
51.110273
  0
TEXT
  7
TextStyle03
  8
寸法
  6
CONTINUOUS
 62
     0
 10
-29.975
 20
51.4125
  1
111
 40
3.0
 50
90.0
 72
     5
 11
-29.975
 21
56.2875
  0
ENDBLK
  0
BLOCK
  2
*DIM_0005
 70
    65
 10
0.0
 20
0.0
  0
LINE
  8
寸法
  6
BYBLOCK
 62
     0
 10
-46.435405
 20
11.66027
 11
-29.575493
 21
11.66027
  0
LINE
  8
寸法
  6
BYBLOCK
 62
     0
 10
-38.41153
 20
17.210268
 11
-29.575493
 21
17.210268
  0
LINE
  8
寸法
  6
BYBLOCK
 62
     0
 10
-29.575493
 20
11.66027
 11
-29.575493
 21
17.210268
  0
POINT
  8
寸法
 62
     0
 10
-29.575493
 20
11.66027
  0
POINT
  8
寸法
 62
     0
 10
-29.575493
 20
17.210268
  0
TEXT
  7
TextStyle03
  8
寸法
  6
CONTINUOUS
 62
     0
 10
-29.975
 20
11.9625
  1
111
 40
3.0
 50
90.0
 72
     5
 11
-29.975
 21
16.8375
  0
ENDBLK
  0
BLOCK
  2
*DIM_0006
 70
    65
 10
0.0
 20
0.0
  0
LINE
  8
寸法
  6
BYBLOCK
 62
     0
 10
-84.935405
 20
57.66027
 11
-84.935405
 21
75.599285
  0
LINE
  8
寸法
  6
BYBLOCK
 62
     0
 10
-54.935405
 20
57.66027
 11
-54.935405
 21
75.599285
  0
LINE
  8
寸法
  6
BYBLOCK
 62
     0
 10
-84.935405
 20
75.599285
 11
-54.935405
 21
75.599285
  0
POINT
  8
寸法
 62
     0
 10
-84.935405
 20
75.599285
  0
POINT
  8
寸法
 62
     0
 10
-54.935405
 20
75.599285
  0
TEXT
  7
TextStyle03
  8
寸法
  6
CONTINUOUS
 62
     0
 10
-72.4125
 20
75.95
  1
600
 40
3.0
 72
     5
 11
-67.5375
 21
75.95
  0
ENDBLK
  0
BLOCK
  2
*DIM_0007
 70
    65
 10
0.0
 20
0.0
  0
LINE
  8
寸法
  6
BYBLOCK
 62
     0
 10
-93.435405
 20
56.66027
 11
-116.343648
 21
56.66027
  0
LINE
  8
寸法
  6
BYBLOCK
 62
     0
 10
-93.435405
 20
34.16027
 11
-116.343648
 21
34.16027
  0
LINE
  8
寸法
  6
BYBLOCK
 62
     0
 10
-116.343648
 20
56.66027
 11
-116.343648
 21
34.16027
  0
POINT
  8
寸法
 62
     0
 10
-116.343648
 20
56.66027
  0
POINT
  8
寸法
 62
     0
 10
-116.343648
 20
34.16027
  0
TEXT
  7
TextStyle03
  8
寸法
  6
CONTINUOUS
 62
     0
 10
-116.75
 20
42.9375
  1
450
 40
3.0
 50
90.0
 72
     5
 11
-116.75
 21
47.8125
  0
ENDBLK
  0
BLOCK
  2
*DIM_0008
 70
    65
 10
0.0
 20
0.0
  0
LINE
  8
寸法
  6
BYBLOCK
 62
     0
 10
-93.435405
 20
11.66027
 11
-116.343648
 21
11.66027
  0
LINE
  8
寸法
  6
BYBLOCK
 62
     0
 10
-116.343648
 20
34.16027
 11
-116.343648
 21
11.66027
  0
POINT
  8
寸法
 62
     0
 10
-116.343648
 20
11.66027
  0
TEXT
  7
TextStyle03
  8
寸法
  6
CONTINUOUS
 62
     0
 10
-116.75
 20
20.4375
  1
450
 40
3.0
 50
90.0
 72
     5
 11
-116.75
 21
25.3125
  0
ENDBLK
  0
BLOCK
  2
*DIM_0009
 70
    65
 10
0.0
 20
0.0
  0
LINE
  8
寸法
  6
BYBLOCK
 62
     0
 10
-44.460405
 20
-51.34516
 11
-44.460405
 21
-16.126177
  0
LINE
  8
寸法
  6
BYBLOCK
 62
     0
 10
-47.435405
 20
-16.126177
 11
-44.460405
 21
-16.126177
  0
POINT
  8
寸法
 62
     0
 10
-47.435405
 20
-16.126177
  0
POINT
  8
寸法
 62
     0
 10
-44.460405
 20
-16.126177
  0
TEXT
  7
TextStyle03
  8
寸法
  6
CONTINUOUS
 62
     0
 10
-42.48125
 20
-15.775
  1
59.5
 40
3.0
 72
     5
 11
-35.91875
 21
-15.775
  0
ENDBLK
  0
BLOCK
  2
*DIM_0010
 70
    65
 10
0.0
 20
0.0
  0
LINE
  8
寸法
  6
BYBLOCK
 62
     0
 10
-95.410405
 20
-51.34516
 11
-95.410405
 21
-16.126177
  0
LINE
  8
寸法
  6
BYBLOCK
 62
     0
 10
-92.435405
 20
-16.126177
 11
-95.410405
 21
-16.126177
  0
POINT
  8
寸法
 62
     0
 10
-92.435405
 20
-16.126177
  0
POINT
  8
寸法
 62
     0
 10
-95.410405
 20
-16.126177
  0
TEXT
  7
TextStyle03
  8
寸法
  6
CONTINUOUS
 62
     0
 10
-103.95625
 20
-15.775
  1
59.5
 40
3.0
 72
     5
 11
-97.39375
 21
-15.775
  0
ENDBLK
  0
BLOCK
  2
*DIM_0011
 70
    65
 10
0.0
 20
0.0
  0
LINE
  8
寸法
  6
BYBLOCK
 62
     0
 10
170.304785
 20
74.557477
 11
179.967098
 21
74.557477
  0
LINE
  8
寸法
  6
BYBLOCK
 62
     0
 10
170.304785
 20
30.557477
 11
179.967098
 21
30.557477
  0
LINE
  8
寸法
  6
BYBLOCK
 62
     0
 10
179.967098
 20
74.557477
 11
179.967098
 21
30.557477
  0
POINT
  8
寸法
 62
     0
 10
179.967098
 20
74.557477
  0
POINT
  8
寸法
 62
     0
 10
179.967098
 20
30.557477
  0
TEXT
  7
TextStyle03
  8
寸法
  6
CONTINUOUS
 62
     0
 10
179.575
 20
50.1125
  1
880
 40
3.0
 50
90.0
 72
     5
 11
179.575
 21
54.9875
  0
ENDBLK
  0
BLOCK
  2
*DIM_0012
 70
    65
 10
0.0
 20
0.0
  0
LINE
  8
寸法
  6
BYBLOCK
 62
     0
 10
123.304785
 20
77.557477
 11
123.304785
 21
85.30483
  0
LINE
  8
寸法
  6
BYBLOCK
 62
     0
 10
167.304785
 20
77.557477
 11
167.304785
 21
85.30483
  0
LINE
  8
寸法
  6
BYBLOCK
 62
     0
 10
123.304785
 20
85.30483
 11
167.304785
 21
85.30483
  0
POINT
  8
寸法
 62
     0
 10
123.304785
 20
85.30483
  0
POINT
  8
寸法
 62
     0
 10
167.304785
 20
85.30483
  0
TEXT
  7
TextStyle03
  8
寸法
  6
CONTINUOUS
 62
     0
 10
142.8625
 20
85.675
  1
880
 40
3.0
 72
     5
 11
147.7375
 21
85.675
  0
ENDBLK
  0
BLOCK
  2
*GRP_0013
 70
    65
 10
0.0
 20
0.0
  0
LINE
  8
補助線
  6
DOT
 62
    64
 10
82.734275
 20
-58.61332
 11
82.95766
 21
-58.72556
  0
LINE
  8
補助線
  6
DOT
 62
    64
 10
82.902088
 20
-58.557748
 11
82.789847
 21
-58.781132
  0
LINE
  8
補助線
  6
DOT
 62
    64
 10
68.079915
 20
-51.2506
 11
67.856523
 21
-51.13836
  0
LINE
  8
補助線
  6
DOT
 62
    64
 10
68.024335
 20
-51.082783
 11
67.9121
 21
-51.306172
  0
LINE
  8
補助線
  6
DOT
 62
    64
 10
53.202125
 20
-43.77571
 11
52.978735
 21
-43.663478
  0
LINE
  8
補助線
  6
DOT
 62
    64
 10
53.146548
 20
-43.607898
 11
53.034312
 21
-43.831287
  0
LINE
  8
型材断面
  6
DOT
 10
83.85393
 20
-57.776965
 11
84.187387
 21
-58.783842
  0
LINE
  8
型材断面
  6
DOT
 10
84.187387
 20
-58.783842
 11
83.738443
 21
-59.677402
  0
LINE
  8
型材断面
  6
DOT
 10
83.738443
 20
-59.677402
 11
82.731565
 21
-60.01086
  0
LINE
  8
型材断面
  6
DOT
 10
53.204825
 20
-42.37817
 11
52.197953
 21
-42.711635
  0
LINE
  8
型材断面
  6
DOT
 10
52.197953
 20
-42.711635
 11
51.749005
 21
-43.605198
  0
LINE
  8
型材断面
  6
DOT
 10
51.749005
 20
-43.605198
 11
52.082473
 21
-44.612072
  0
LINE
  8
型材断面
  6
DOT
 10
83.85393
 20
-57.776965
 11
53.20494
 21
-42.37813
  0
LINE
  8
型材断面
  6
DOT
 10
82.731565
 20
-60.01086
 11
52.082438
 21
-44.611965
  0
LINE
  8
ボルト／ビス
  6
DOT
 62
    64
 10
83.053325
 20
-58.256722
 11
83.30707
 21
-58.64266
  0
LINE
  8
ボルト／ビス
  6
DOT
 62
    64
 10
83.053325
 20
-58.256722
 11
82.592225
 21
-58.283505
  0
LINE
  8
ボルト／ビス
  6
DOT
 62
    64
 10
82.63861
 20
-59.082157
 11
83.09971
 21
-59.055375
  0
LINE
  8
ボルト／ビス
  6
DOT
 62
    64
 10
82.63861
 20
-59.082157
 11
82.384865
 21
-58.69622
  0
CIRCLE
  8
ボルト／ビス
  6
DOT
 62
    64
 10
82.845968
 20
-58.66944
 40
0.4
  0
LINE
  8
ボルト／ビス
  6
DOT
 62
    64
 10
82.592225
 20
-58.283505
 11
82.384865
 21
-58.69622
  0
LINE
  8
ボルト／ビス
  6
DOT
 62
    64
 10
83.30707
 20
-58.64266
 11
83.09971
 21
-59.055375
  0
LINE
  8
ボルト／ビス
  6
DOT
 62
    64
 10
68.175577
 20
-50.781762
 11
67.714473
 21
-50.80854
  0
LINE
  8
ボルト／ビス
  6
DOT
 62
    64
 10
68.175577
 20
-50.781762
 11
68.429322
 21
-51.167698
  0
LINE
  8
ボルト／ビス
  6
DOT
 62
    64
 10
67.760858
 20
-51.607195
 11
67.507115
 21
-51.22126
  0
LINE
  8
ボルト／ビス
  6
DOT
 62
    64
 10
67.760858
 20
-51.607195
 11
68.22196
 21
-51.580415
  0
CIRCLE
  8
ボルト／ビス
  6
DOT
 62
    64
 10
67.968215
 20
-51.19448
 40
0.4
  0
LINE
  8
ボルト／ビス
  6
DOT
 62
    64
 10
68.429322
 20
-51.167698
 11
68.22196
 21
-51.580415
  0
LINE
  8
ボルト／ビス
  6
DOT
 62
    64
 10
67.714473
 20
-50.80854
 11
67.507115
 21
-51.22126
  0
LINE
  8
ボルト／ビス
  6
DOT
 62
    64
 10
53.297788
 20
-43.306873
 11
52.836682
 21
-43.333655
  0
LINE
  8
ボルト／ビス
  6
DOT
 62
    64
 10
53.297788
 20
-43.306873
 11
53.55153
 21
-43.69281
  0
LINE
  8
ボルト／ビス
  6
DOT
 62
    64
 10
52.88307
 20
-44.13231
 11
52.629328
 21
-43.746372
  0
LINE
  8
ボルト／ビス
  6
DOT
 62
    64
 10
52.88307
 20
-44.13231
 11
53.344177
 21
-44.105527
  0
CIRCLE
  8
ボルト／ビス
  6
DOT
 62
    64
 10
53.090432
 20
-43.719592
 40
0.4
  0
LINE
  8
ボルト／ビス
  6
DOT
 62
    64
 10
53.55153
 20
-43.69281
 11
53.344177
 21
-44.105527
  0
LINE
  8
ボルト／ビス
  6
DOT
 62
    64
 10
52.836682
 20
-43.333655
 11
52.629328
 21
-43.746372
  0
ENDBLK
  0
BLOCK
  2
*GRP_0014
 70
    65
 10
0.0
 20
0.0
  0
LINE
  8
補助線
  6
DOT
 62
    64
 10
53.20216
 20
-58.61332
 11
52.978775
 21
-58.72556
  0
LINE
  8
補助線
  6
DOT
 62
    64
 10
53.034347
 20
-58.557748
 11
53.146587
 21
-58.781132
  0
LINE
  8
補助線
  6
DOT
 62
    64
 10
67.85652
 20
-51.2506
 11
68.079912
 21
-51.13836
  0
LINE
  8
補助線
  6
DOT
 62
    64
 10
67.9121
 20
-51.082783
 11
68.024335
 21
-51.306172
  0
LINE
  8
補助線
  6
DOT
 62
    64
 10
82.73431
 20
-43.77571
 11
82.9577
 21
-43.663478
  0
LINE
  8
補助線
  6
DOT
 62
    64
 10
82.789888
 20
-43.607898
 11
82.902123
 21
-43.831287
  0
LINE
  8
型材断面
  6
DOT
 10
52.082505
 20
-57.776965
 11
51.749048
 21
-58.783842
  0
LINE
  8
型材断面
  6
DOT
 10
51.749048
 20
-58.783842
 11
52.197992
 21
-59.677402
  0
LINE
  8
型材断面
  6
DOT
 10
52.197992
 20
-59.677402
 11
53.20487
 21
-60.01086
  0
LINE
  8
型材断面
  6
DOT
 10
82.73161
 20
-42.37817
 11
83.738482
 21
-42.711635
  0
LINE
  8
型材断面
  6
DOT
 10
83.738482
 20
-42.711635
 11
84.18743
 21
-43.605198
  0
LINE
  8
型材断面
  6
DOT
 10
84.18743
 20
-43.605198
 11
83.853962
 21
-44.612072
  0
LINE
  8
型材断面
  6
DOT
 10
52.082505
 20
-57.776965
 11
82.731495
 21
-42.37813
  0
LINE
  8
型材断面
  6
DOT
 10
53.20487
 20
-60.01086
 11
83.853997
 21
-44.611965
  0
LINE
  8
ボルト／ビス
  6
DOT
 62
    64
 10
52.88311
 20
-58.256722
 11
52.629365
 21
-58.64266
  0
LINE
  8
ボルト／ビス
  6
DOT
 62
    64
 10
52.88311
 20
-58.256722
 11
53.34421
 21
-58.283505
  0
LINE
  8
ボルト／ビス
  6
DOT
 62
    64
 10
53.297825
 20
-59.082157
 11
52.836725
 21
-59.055375
  0
LINE
  8
ボルト／ビス
  6
DOT
 62
    64
 10
53.297825
 20
-59.082157
 11
53.55157
 21
-58.69622
  0
CIRCLE
  8
ボルト／ビス
  6
DOT
 62
    64
 10
53.090467
 20
-58.66944
 40
0.4
  0
LINE
  8
ボルト／ビス
  6
DOT
 62
    64
 10
53.34421
 20
-58.283505
 11
53.55157
 21
-58.69622
  0
LINE
  8
ボルト／ビス
  6
DOT
 62
    64
 10
52.629365
 20
-58.64266
 11
52.836725
 21
-59.055375
  0
LINE
  8
ボルト／ビス
  6
DOT
 62
    64
 10
67.760858
 20
-50.781762
 11
68.221962
 21
-50.80854
  0
LINE
  8
ボルト／ビス
  6
DOT
 62
    64
 10
67.760858
 20
-50.781762
 11
67.507113
 21
-51.167698
  0
LINE
  8
ボルト／ビス
  6
DOT
 62
    64
 10
68.175577
 20
-51.607195
 11
68.42932
 21
-51.22126
  0
LINE
  8
ボルト／ビス
  6
DOT
 62
    64
 10
68.175577
 20
-51.607195
 11
67.714475
 21
-51.580415
  0
CIRCLE
  8
ボルト／ビス
  6
DOT
 62
    64
 10
67.96822
 20
-51.19448
 40
0.4
  0
LINE
  8
ボルト／ビス
  6
DOT
 62
    64
 10
67.507113
 20
-51.167698
 11
67.714475
 21
-51.580415
  0
LINE
  8
ボルト／ビス
  6
DOT
 62
    64
 10
68.221962
 20
-50.80854
 11
68.42932
 21
-51.22126
  0
LINE
  8
ボルト／ビス
  6
DOT
 62
    64
 10
82.638647
 20
-43.306873
 11
83.099753
 21
-43.333655
  0
LINE
  8
ボルト／ビス
  6
DOT
 62
    64
 10
82.638647
 20
-43.306873
 11
82.384905
 21
-43.69281
  0
LINE
  8
ボルト／ビス
  6
DOT
 62
    64
 10
83.053365
 20
-44.13231
 11
83.307107
 21
-43.746372
  0
LINE
  8
ボルト／ビス
  6
DOT
 62
    64
 10
83.053365
 20
-44.13231
 11
82.592258
 21
-44.105527
  0
CIRCLE
  8
ボルト／ビス
  6
DOT
 62
    64
 10
82.846003
 20
-43.719592
 40
0.4
  0
LINE
  8
ボルト／ビス
  6
DOT
 62
    64
 10
82.384905
 20
-43.69281
 11
82.592258
 21
-44.105527
  0
LINE
  8
ボルト／ビス
  6
DOT
 62
    64
 10
83.099753
 20
-43.333655
 11
83.307107
 21
-43.746372
  0
ENDBLK
  0
BLOCK
  2
*DIM_0015
 70
    65
 10
0.0
 20
0.0
  0
LINE
  8
寸法
  6
CONTINUOUS
 10
-26.691047
 20
-50.304365
 11
-26.691047
 21
-61.77944
  0
POINT
  8
寸法
 10
-26.691047
 20
-50.304365
  0
POINT
  8
寸法
 10
-26.691047
 20
-61.77944
  0
TEXT
  7
TextStyle03
  8
寸法
  6
CONTINUOUS
 10
-27.075
 20
-60.175
  1
229.5
 40
3.0
 50
90.0
 72
     5
 11
-27.075
 21
-51.925
  0
ENDBLK
  0
BLOCK
  2
*DIM_0016
 70
    65
 10
0.0
 20
0.0
  0
LINE
  8
寸法
  6
BYBLOCK
 62
     0
 10
107.69883
 20
-50.304365
 11
107.69883
 21
-61.77944
  0
POINT
  8
寸法
 62
     0
 10
107.69883
 20
-50.304365
  0
POINT
  8
寸法
 62
     0
 10
107.69883
 20
-61.77944
  0
TEXT
  7
TextStyle03
  8
寸法
  6
CONTINUOUS
 62
     0
 10
112.7
 20
-60.3
  1
229.5
 40
3.0
 50
90.0
 72
     5
 11
112.7
 21
-52.05
  0
ENDBLK
  0
BLOCK
  2
*DIM_0017
 70
    65
 10
0.0
 20
0.0
  0
LINE
  8
寸法
  6
BYBLOCK
 62
     0
 10
93.030745
 20
-39.304363
 11
107.69883
 21
-39.304363
  0
LINE
  8
寸法
  6
BYBLOCK
 62
     0
 10
107.69883
 20
-50.304365
 11
107.69883
 21
-39.304363
  0
POINT
  8
寸法
 62
     0
 10
107.69883
 20
-50.304365
  0
POINT
  8
寸法
 62
     0
 10
107.69883
 20
-39.304363
  0
TEXT
  7
TextStyle03
  8
寸法
  6
CONTINUOUS
 62
     0
 10
106.7
 20
-37.59375
  1
上昇159以上
 40
3.0
 50
90.0
 72
     5
 11
106.7
 21
-19.40625
  0
ENDBLK
  0
ENDSEC
  0
SECTION
  2
ENTITIES
  0
POLYLINE
  8
通り芯
  6
CONTINUOUS
 66
     1
 70
     1
  0
VERTEX
  8
通り芯
 10
-210.0
 20
-148.5
  0
VERTEX
  8
通り芯
 10
210.0
 20
-148.5
  0
VERTEX
  8
通り芯
 10
210.0
 20
148.5
  0
VERTEX
  8
通り芯
 10
-210.0
 20
148.5
  0
SEQEND
  0
INSERT
  2
*GRP_0001
  8
型材断面
  6
CONTINUOUS
 10
0.0
 20
0.0
  0
LINE
  8
型材断面
  6
DASHDOT
 10
-92.435405
 20
34.16027
 11
-47.435405
 21
34.16027
  0
LINE
  8
型材断面
  6
CONTINUOUS
 10
-100.45928
 20
17.210268
 11
-104.34504
 21
18.104352
  0
LINE
  8
型材断面
  6
CONTINUOUS
 10
-100.45928
 20
17.210268
 11
-104.34504
 21
16.316182
  0
LINE
  8
型材断面
  6
CONTINUOUS
 10
-104.34504
 20
16.316182
 11
-104.34504
 21
18.104352
  0
LINE
  8
型材断面
  6
DOT
 10
-51.53765
 20
56.66027
 11
-51.53765
 21
11.66027
  0
LINE
  8
型材断面
  6
DOT
 10
-49.53765
 20
56.66027
 11
-49.53765
 21
11.66027
  0
LINE
  8
型材断面
  6
CONTINUOUS
 10
-100.45928
 20
51.110273
 11
-104.34504
 21
50.216187
  0
LINE
  8
型材断面
  6
CONTINUOUS
 10
-100.45928
 20
51.110273
 11
-104.34504
 21
52.004357
  0
LINE
  8
型材断面
  6
CONTINUOUS
 10
-104.34504
 20
52.004357
 11
-104.34504
 21
50.216187
  0
LINE
  8
型材断面
  6
CONTINUOUS
 10
-39.41153
 20
17.210268
 11
-35.52577
 21
18.104352
  0
LINE
  8
型材断面
  6
CONTINUOUS
 10
-39.41153
 20
17.210268
 11
-35.52577
 21
16.316182
  0
LINE
  8
型材断面
  6
CONTINUOUS
 10
-35.52577
 20
16.316182
 11
-35.52577
 21
18.104352
  0
LINE
  8
型材断面
  6
CONTINUOUS
 10
-39.41153
 20
51.110273
 11
-35.52577
 21
50.216187
  0
LINE
  8
型材断面
  6
CONTINUOUS
 10
-39.41153
 20
51.110273
 11
-35.52577
 21
52.004357
  0
LINE
  8
型材断面
  6
CONTINUOUS
 10
-35.52577
 20
52.004357
 11
-35.52577
 21
50.216187
  0
LINE
  8
型材断面
  6
CONTINUOUS
 10
-69.935405
 20
64.684145
 11
-72.17885
 21
68.569905
  0
LINE
  8
型材断面
  6
CONTINUOUS
 10
-69.935405
 20
64.684145
 11
-67.69196
 21
68.569905
  0
LINE
  8
型材断面
  6
CONTINUOUS
 10
-67.69196
 20
68.569905
 11
-72.17885
 21
68.569905
  0
LINE
  8
型材断面
  6
CONTINUOUS
 10
-69.935405
 20
3.636395
 11
-72.17885
 21
-0.249365
  0
LINE
  8
型材断面
  6
CONTINUOUS
 10
-69.935405
 20
3.636395
 11
-67.69196
 21
-0.249365
  0
LINE
  8
型材断面
  6
CONTINUOUS
 10
-67.69196
 20
-0.249365
 11
-72.17885
 21
-0.249365
  0
LINE
  8
型材断面
  6
CONTINUOUS
 10
-39.41153
 20
34.16027
 11
-35.52577
 21
36.403715
  0
LINE
  8
型材断面
  6
CONTINUOUS
 10
-39.41153
 20
34.16027
 11
-35.52577
 21
31.916825
  0
LINE
  8
型材断面
  6
CONTINUOUS
 10
-35.52577
 20
31.916825
 11
-35.52577
 21
36.403715
  0
LINE
  8
型材断面
  6
CONTINUOUS
 10
-100.45928
 20
34.16027
 11
-104.34504
 21
36.403715
  0
LINE
  8
型材断面
  6
CONTINUOUS
 10
-100.45928
 20
34.16027
 11
-104.34504
 21
31.916825
  0
LINE
  8
型材断面
  6
CONTINUOUS
 10
-104.34504
 20
31.916825
 11
-104.34504
 21
36.403715
  0
LINE
  8
型材断面
  6
CONTINUOUS
 10
-7.342083
 20
5.196457
 11
-9.585527
 21
1.310698
  0
LINE
  8
型材断面
  6
CONTINUOUS
 10
-7.342083
 20
5.196457
 11
-5.098638
 21
1.310698
  0
LINE
  8
型材断面
  6
CONTINUOUS
 10
-5.098638
 20
1.310698
 11
-9.585527
 21
1.310698
  0
LINE
  8
型材断面
  6
CONTINUOUS
 10
-7.342083
 20
-2.49309
 11
-6.447998
 21
-6.37885
  0
LINE
  8
型材断面
  6
CONTINUOUS
 10
-7.342083
 20
-2.49309
 11
-8.236168
 21
-6.37885
  0
LINE
  8
型材断面
  6
CONTINUOUS
 10
-8.236168
 20
-6.37885
 11
-6.447998
 21
-6.37885
  0
LINE
  8
型材断面
  6
CONTINUOUS
 10
-16.375962
 20
-0.097195
 11
36.280717
 21
-0.097195
  0
LINE
  8
型材断面
  6
CONTINUOUS
 10
-16.375962
 20
-11.297188
 11
36.280717
 21
-11.297188
  0
LINE
  8
型材断面
  6
CONTINUOUS
 10
-16.375962
 20
-18.137133
 11
36.280717
 21
-18.137133
  0
POLYLINE
  8
型材断面
  6
CONTINUOUS
 66
     1
 70
     1
  0
VERTEX
  8
型材断面
 10
-60.841143
 20
-1.541482
  0
VERTEX
  8
型材断面
 10
-79.396355
 20
-1.541482
  0
VERTEX
  8
型材断面
 10
-79.396355
 20
-6.333518
  0
VERTEX
  8
型材断面
 10
-60.841143
 20
-6.333518
  0
SEQEND
  0
POLYLINE
  8
型材断面
  6
CONTINUOUS
 66
     1
 70
     1
  0
VERTEX
  8
型材断面
 10
-60.841143
 20
74.239768
  0
VERTEX
  8
型材断面
 10
-79.396355
 20
74.239768
  0
VERTEX
  8
型材断面
 10
-79.396355
 20
69.447732
  0
VERTEX
  8
型材断面
 10
-60.841143
 20
69.447732
  0
SEQEND
  0
LINE
  8
型材断面
  6
CONTINUOUS
 10
-95.410405
 20
59.63527
 11
-44.460372
 21
59.635303
  0
LINE
  8
型材断面
  6
CONTINUOUS
 10
-44.460405
 20
59.63527
 11
-44.460405
 21
8.68527
  0
LINE
  8
型材断面
  6
CONTINUOUS
 10
-95.410405
 20
8.68527
 11
-44.460372
 21
8.685238
  0
LINE
  8
型材断面
  6
CONTINUOUS
 10
-16.375962
 20
-24.977077
 11
36.280717
 21
-24.977077
  0
ARC
  8
型材断面
  6
CONTINUOUS
 62
    47
 10
-95.410408
 20
-56.479356
 40
0.025002
 50
89.999123
 51
180.0
  0
ARC
  8
型材断面
  6
CONTINUOUS
 62
    47
 10
-95.420407
 20
-56.539359
 40
0.015003
 50
180.0
 51
269.791626
  0
LINE
  8
型材断面
  6
CONTINUOUS
 62
    47
 10
-95.360402
 20
-56.80444
 11
-94.085182
 21
-56.80444
  0
LINE
  8
型材断面
  6
CONTINUOUS
 62
    47
 10
-95.41041
 20
-56.454357
 11
-95.41041
 21
-53.294368
  0
LINE
  8
型材断面
  6
CONTINUOUS
 62
    47
 10
-95.410402
 20
-56.80444
 11
-95.410402
 21
-61.77944
  0
LINE
  8
型材断面
  6
CONTINUOUS
 62
    47
 10
-94.660402
 20
-62.52944
 11
-94.660402
 21
-61.77944
  0
LINE
  8
型材断面
  6
CONTINUOUS
 62
    47
 10
-94.0854
 20
-53.294368
 11
-94.0854
 21
-52.804365
  0
LINE
  8
型材断面
  6
CONTINUOUS
 62
    47
 10
-95.435402
 20
-56.479357
 11
-95.435402
 21
-56.538847
  0
ARC
  8
型材断面
  6
CONTINUOUS
 62
    47
 10
-44.460399
 20
-56.479356
 40
0.025002
 50
0.0
 51
90.000877
  0
ARC
  8
型材断面
  6
CONTINUOUS
 62
    47
 10
-44.4504
 20
-56.539359
 40
0.015003
 50
270.208374
 51
360.0
  0
LINE
  8
型材断面
  6
CONTINUOUS
 62
    47
 10
-44.510408
 20
-56.80444
 11
-45.785628
 21
-56.80444
  0
LINE
  8
型材断面
  6
CONTINUOUS
 62
    47
 10
-44.4604
 20
-56.454357
 11
-44.4604
 21
-53.294368
  0
LINE
  8
型材断面
  6
CONTINUOUS
 62
    47
 10
-44.460408
 20
-56.80444
 11
-44.460408
 21
-61.77944
  0
LINE
  8
型材断面
  6
CONTINUOUS
 62
    47
 10
-45.210408
 20
-62.52944
 11
-45.210408
 21
-61.77944
  0
LINE
  8
型材断面
  6
CONTINUOUS
 62
    47
 10
-45.78541
 20
-53.294368
 11
-45.78541
 21
-52.804365
  0
LINE
  8
型材断面
  6
CONTINUOUS
 62
    47
 10
-44.435408
 20
-56.479357
 11
-44.435408
 21
-56.538847
  0
LINE
  8
型材断面
  6
CONTINUOUS
 10
-45.335408
 20
-50.304365
 11
-69.935405
 21
-50.304365
  0
LINE
  8
型材断面
  6
CONTINUOUS
 10
-45.100625
 20
-50.554365
 11
-69.935405
 21
-50.554365
  0
LINE
  8
型材断面
  6
CONTINUOUS
 10
-45.335408
 20
-52.804365
 11
-69.935405
 21
-52.804365
  0
LINE
  8
型材断面
  6
CONTINUOUS
 10
-44.4604
 20
-53.294368
 11
-69.935405
 21
-53.294368
  0
LINE
  8
型材断面
  6
CONTINUOUS
 10
-44.450403
 20
-56.554365
 11
-69.935405
 21
-56.554365
  0
LINE
  8
型材断面
  6
CONTINUOUS
 10
-44.460408
 20
-56.80444
 11
-69.935405
 21
-56.80444
  0
LINE
  8
型材断面
  6
CONTINUOUS
 10
-44.460408
 20
-61.77944
 11
-69.935405
 21
-61.77944
  0
LINE
  8
型材断面
  6
CONTINUOUS
 10
-45.210408
 20
-62.52944
 11
-69.935405
 21
-62.52944
  0
LINE
  8
型材断面
  6
CONTINUOUS
 10
-94.660402
 20
-62.52944
 11
-69.935405
 21
-62.52944
  0
LINE
  8
型材断面
  6
CONTINUOUS
 10
-95.410402
 20
-61.77944
 11
-69.935405
 21
-61.77944
  0
LINE
  8
型材断面
  6
CONTINUOUS
 10
-95.420407
 20
-56.554365
 11
-69.935405
 21
-56.554365
  0
LINE
  8
型材断面
  6
CONTINUOUS
 10
-95.410402
 20
-56.80444
 11
-69.935405
 21
-56.80444
  0
LINE
  8
型材断面
  6
CONTINUOUS
 10
-95.41041
 20
-53.294368
 11
-69.935405
 21
-53.294368
  0
LINE
  8
型材断面
  6
CONTINUOUS
 10
-94.535402
 20
-52.804365
 11
-69.935405
 21
-52.804365
  0
LINE
  8
型材断面
  6
CONTINUOUS
 10
-94.770185
 20
-50.554365
 11
-69.935405
 21
-50.554365
  0
LINE
  8
型材断面
  6
CONTINUOUS
 10
-94.535402
 20
-50.304365
 11
-69.935405
 21
-50.304365
  0
ARC
  8
型材断面
  6
CONTINUOUS
 62
    47
 10
39.87096
 20
-56.479356
 40
0.025002
 50
89.999123
 51
180.0
  0
ARC
  8
型材断面
  6
CONTINUOUS
 62
    47
 10
39.860961
 20
-56.539359
 40
0.015003
 50
180.0
 51
269.791626
  0
LINE
  8
型材断面
  6
CONTINUOUS
 62
    47
 10
39.920965
 20
-56.80444
 11
41.196185
 21
-56.80444
  0
LINE
  8
型材断面
  6
CONTINUOUS
 62
    47
 10
39.870958
 20
-56.454357
 11
39.870958
 21
-53.294368
  0
LINE
  8
型材断面
  6
CONTINUOUS
 62
    47
 10
39.870965
 20
-56.80444
 11
39.870965
 21
-61.77944
  0
LINE
  8
型材断面
  6
CONTINUOUS
 62
    47
 10
40.620965
 20
-62.52944
 11
40.620965
 21
-61.77944
  0
LINE
  8
型材断面
  6
CONTINUOUS
 62
    47
 10
41.195968
 20
-53.294368
 11
41.195968
 21
-52.804365
  0
LINE
  8
型材断面
  6
CONTINUOUS
 62
    47
 10
39.845965
 20
-56.479357
 11
39.845965
 21
-56.538847
  0
ARC
  8
型材断面
  6
CONTINUOUS
 62
    47
 10
90.820969
 20
-56.479356
 40
0.025002
 50
0.0
 51
90.000877
  0
ARC
  8
型材断面
  6
CONTINUOUS
 62
    47
 10
90.830968
 20
-56.539359
 40
0.015003
 50
270.208374
 51
360.0
  0
LINE
  8
型材断面
  6
CONTINUOUS
 62
    47
 10
90.77096
 20
-56.80444
 11
89.49574
 21
-56.80444
  0
LINE
  8
型材断面
  6
CONTINUOUS
 62
    47
 10
90.820968
 20
-56.454357
 11
90.820968
 21
-53.294368
  0
LINE
  8
型材断面
  6
CONTINUOUS
 62
    47
 10
90.82096
 20
-56.80444
 11
90.82096
 21
-61.77944
  0
LINE
  8
型材断面
  6
CONTINUOUS
 62
    47
 10
90.07096
 20
-62.52944
 11
90.07096
 21
-61.77944
  0
LINE
  8
型材断面
  6
CONTINUOUS
 62
    47
 10
89.495958
 20
-53.294368
 11
89.495958
 21
-52.804365
  0
LINE
  8
型材断面
  6
CONTINUOUS
 62
    47
 10
90.84596
 20
-56.479357
 11
90.84596
 21
-56.538847
  0
LINE
  8
型材断面
  6
CONTINUOUS
 10
89.94596
 20
-50.304365
 11
65.345962
 21
-50.304365
  0
LINE
  8
型材断面
  6
CONTINUOUS
 10
90.180743
 20
-50.554365
 11
65.345962
 21
-50.554365
  0
LINE
  8
型材断面
  6
CONTINUOUS
 10
89.94596
 20
-52.804365
 11
65.345962
 21
-52.804365
  0
LINE
  8
型材断面
  6
CONTINUOUS
 10
90.820968
 20
-53.294368
 11
65.345962
 21
-53.294368
  0
LINE
  8
型材断面
  6
CONTINUOUS
 10
90.830965
 20
-56.554365
 11
65.345962
 21
-56.554365
  0
LINE
  8
型材断面
  6
CONTINUOUS
 10
90.82096
 20
-56.80444
 11
65.345962
 21
-56.80444
  0
LINE
  8
型材断面
  6
CONTINUOUS
 10
90.82096
 20
-61.77944
 11
65.345962
 21
-61.77944
  0
LINE
  8
型材断面
  6
CONTINUOUS
 10
90.07096
 20
-62.52944
 11
65.345962
 21
-62.52944
  0
LINE
  8
型材断面
  6
CONTINUOUS
 10
40.620965
 20
-62.52944
 11
65.345962
 21
-62.52944
  0
LINE
  8
型材断面
  6
CONTINUOUS
 10
39.870965
 20
-61.77944
 11
65.345962
 21
-61.77944
  0
LINE
  8
型材断面
  6
CONTINUOUS
 10
39.86096
 20
-56.554365
 11
65.345962
 21
-56.554365
  0
LINE
  8
型材断面
  6
CONTINUOUS
 10
39.870965
 20
-56.80444
 11
65.345962
 21
-56.80444
  0
LINE
  8
型材断面
  6
CONTINUOUS
 10
39.870958
 20
-53.294368
 11
65.345962
 21
-53.294368
  0
LINE
  8
型材断面
  6
CONTINUOUS
 10
40.745965
 20
-52.804365
 11
65.345962
 21
-52.804365
  0
LINE
  8
型材断面
  6
CONTINUOUS
 10
40.511182
 20
-50.554365
 11
65.345962
 21
-50.554365
  0
LINE
  8
型材断面
  6
CONTINUOUS
 10
40.745965
 20
-50.304365
 11
65.345962
 21
-50.304365
  0
ARC
  8
型材断面
  6
DOT
 62
    47
 10
39.87096
 20
-45.479356
 40
0.025002
 50
89.999123
 51
180.0
  0
ARC
  8
型材断面
  6
DOT
 62
    47
 10
39.860961
 20
-45.539359
 40
0.015003
 50
180.0
 51
269.791626
  0
LINE
  8
型材断面
  6
DOT
 62
    47
 10
39.870958
 20
-45.454357
 11
39.870958
 21
-42.294368
  0
LINE
  8
型材断面
  6
DOT
 62
    47
 10
41.195968
 20
-42.294368
 11
41.195968
 21
-41.804365
  0
LINE
  8
型材断面
  6
DOT
 62
    47
 10
39.845965
 20
-45.479357
 11
39.845965
 21
-45.538847
  0
ARC
  8
型材断面
  6
DOT
 62
    47
 10
90.820969
 20
-45.479356
 40
0.025002
 50
0.0
 51
90.000877
  0
ARC
  8
型材断面
  6
DOT
 62
    47
 10
90.830968
 20
-45.539359
 40
0.015003
 50
270.208374
 51
360.0
  0
LINE
  8
型材断面
  6
DOT
 62
    47
 10
90.820968
 20
-45.454357
 11
90.820968
 21
-42.294368
  0
LINE
  8
型材断面
  6
DOT
 62
    47
 10
89.495958
 20
-42.294368
 11
89.495958
 21
-41.804365
  0
LINE
  8
型材断面
  6
DOT
 62
    47
 10
90.84596
 20
-45.479357
 11
90.84596
 21
-45.538847
  0
LINE
  8
型材断面
  6
DOT
 10
90.180743
 20
-39.554365
 11
65.345962
 21
-39.554365
  0
LINE
  8
型材断面
  6
DOT
 10
89.94596
 20
-39.304365
 11
65.345962
 21
-39.304365
  0
LINE
  8
型材断面
  6
DOT
 10
89.94596
 20
-41.804365
 11
65.345962
 21
-41.804365
  0
LINE
  8
型材断面
  6
DOT
 10
90.820968
 20
-42.294368
 11
65.345962
 21
-42.294368
  0
LINE
  8
型材断面
  6
DOT
 10
90.830965
 20
-45.554365
 11
65.345962
 21
-45.554365
  0
LINE
  8
型材断面
  6
DOT
 10
39.86096
 20
-45.554365
 11
65.345962
 21
-45.554365
  0
LINE
  8
型材断面
  6
DOT
 10
40.745965
 20
-41.804365
 11
65.345962
 21
-41.804365
  0
LINE
  8
型材断面
  6
DOT
 10
39.870958
 20
-42.294368
 11
65.345962
 21
-42.294368
  0
LINE
  8
型材断面
  6
DOT
 10
40.511182
 20
-39.554365
 11
65.345962
 21
-39.554365
  0
LINE
  8
型材断面
  6
DOT
 10
40.745965
 20
-39.304365
 11
65.345962
 21
-39.304365
  0
INSERT
  2
*GRP_0013
  8
型材断面
  6
DOT
 10
0.0
 20
0.0
  0
INSERT
  2
*GRP_0014
  8
型材断面
  6
DOT
 10
0.0
 20
0.0
  0
LINE
  8
型材断面
  6
DASHDOT
 10
-47.435405
 20
56.66027
 11
-47.435405
 21
-67.243148
  0
LINE
  8
型材断面
  6
DASHDOT
 10
-69.935405
 20
56.66027
 11
-69.935405
 21
-67.243148
  0
LINE
  8
型材断面
  6
DASHDOT
 10
-92.435405
 20
56.66027
 11
-92.435405
 21
-67.243148
  0
LINE
  8
型材断面
  6
DASHDOT
 10
-92.435405
 20
11.66027
 11
-47.435405
 21
11.66027
  0
LINE
  8
型材断面
  6
DASHDOT
 10
-92.435405
 20
56.66027
 11
-47.435405
 21
56.66027
  0
LINE
  8
型材断面
  6
CONTINUOUS
 10
-69.310405
 20
13.07549
 11
-69.310405
 21
9.32549
  0
LINE
  8
型材断面
  6
CONTINUOUS
 10
-70.560405
 20
13.07549
 11
-70.560405
 21
9.32549
  0
LINE
  8
型材断面
  6
CONTINUOUS
 10
-48.850625
 20
33.53527
 11
-45.100625
 21
33.53527
  0
LINE
  8
型材断面
  6
CONTINUOUS
 10
-48.850625
 20
34.78527
 11
-45.100625
 21
34.78527
  0
LINE
  8
型材断面
  6
CONTINUOUS
 10
-70.560405
 20
55.24505
 11
-70.560405
 21
58.99505
  0
LINE
  8
型材断面
  6
CONTINUOUS
 10
-69.310405
 20
55.24505
 11
-69.310405
 21
58.99505
  0
LINE
  8
型材断面
  6
CONTINUOUS
 10
-45.453947
 20
9.325255
 11
-45.100403
 21
9.678817
  0
LINE
  8
型材断面
  6
CONTINUOUS
 10
-44.460405
 20
8.68527
 11
-45.277172
 21
9.50204
  0
LINE
  8
型材断面
  6
CONTINUOUS
 10
-48.850403
 20
13.42881
 11
-45.100625
 21
9.67904
  0
LINE
  8
型材断面
  6
CONTINUOUS
 10
-49.203957
 20
13.075255
 11
-45.454183
 21
9.32549
  0
LINE
  8
型材断面
  6
CONTINUOUS
 10
-48.850625
 20
33.53527
 11
-48.850625
 21
13.428587
  0
LINE
  8
型材断面
  6
CONTINUOUS
 10
-48.850625
 20
13.428587
 11
-49.203723
 21
13.07549
  0
LINE
  8
型材断面
  6
CONTINUOUS
 10
-69.310405
 20
13.07549
 11
-49.203723
 21
13.07549
  0
LINE
  8
型材断面
  6
CONTINUOUS
 10
-45.453947
 20
58.995285
 11
-45.100403
 21
58.641722
  0
LINE
  8
型材断面
  6
CONTINUOUS
 10
-44.460405
 20
59.63527
 11
-45.277172
 21
58.8185
  0
LINE
  8
型材断面
  6
CONTINUOUS
 10
-48.850403
 20
54.89173
 11
-45.100625
 21
58.6415
  0
LINE
  8
型材断面
  6
CONTINUOUS
 10
-45.100625
 20
9.67904
 11
-45.100625
 21
58.6415
  0
LINE
  8
型材断面
  6
CONTINUOUS
 10
-49.203957
 20
55.245285
 11
-45.454183
 21
58.99505
  0
LINE
  8
型材断面
  6
CONTINUOUS
 10
-48.850625
 20
34.78527
 11
-48.850625
 21
54.891952
  0
LINE
  8
型材断面
  6
CONTINUOUS
 10
-48.850625
 20
54.891952
 11
-49.203723
 21
55.24505
  0
LINE
  8
型材断面
  6
CONTINUOUS
 10
-69.310405
 20
55.24505
 11
-49.203723
 21
55.24505
  0
LINE
  8
型材断面
  6
CONTINUOUS
 10
-95.410405
 20
59.63527
 11
-95.410405
 21
8.68527
  0
LINE
  8
型材断面
  6
CONTINUOUS
 10
-91.020185
 20
33.53527
 11
-94.770185
 21
33.53527
  0
LINE
  8
型材断面
  6
CONTINUOUS
 10
-91.020185
 20
34.78527
 11
-94.770185
 21
34.78527
  0
LINE
  8
型材断面
  6
CONTINUOUS
 10
-94.416863
 20
9.325255
 11
-94.770407
 21
9.678817
  0
LINE
  8
型材断面
  6
CONTINUOUS
 10
-95.410405
 20
8.68527
 11
-94.593638
 21
9.50204
  0
LINE
  8
型材断面
  6
CONTINUOUS
 10
-91.020407
 20
13.42881
 11
-94.770185
 21
9.67904
  0
LINE
  8
型材断面
  6
CONTINUOUS
 10
-90.666853
 20
13.075255
 11
-94.416627
 21
9.32549
  0
LINE
  8
型材断面
  6
CONTINUOUS
 10
-91.020185
 20
33.53527
 11
-91.020185
 21
13.428587
  0
LINE
  8
型材断面
  6
CONTINUOUS
 10
-91.020185
 20
13.428587
 11
-90.667087
 21
13.07549
  0
LINE
  8
型材断面
  6
CONTINUOUS
 10
-94.416863
 20
58.995285
 11
-94.770407
 21
58.641722
  0
LINE
  8
型材断面
  6
CONTINUOUS
 10
-95.410405
 20
59.63527
 11
-94.593638
 21
58.8185
  0
LINE
  8
型材断面
  6
CONTINUOUS
 10
-91.020407
 20
54.89173
 11
-94.770185
 21
58.6415
  0
LINE
  8
型材断面
  6
CONTINUOUS
 10
-94.770185
 20
9.67904
 11
-94.770185
 21
58.6415
  0
LINE
  8
型材断面
  6
CONTINUOUS
 10
-90.666853
 20
55.245285
 11
-94.416627
 21
58.99505
  0
LINE
  8
型材断面
  6
CONTINUOUS
 10
-91.020185
 20
34.78527
 11
-91.020185
 21
54.891952
  0
LINE
  8
型材断面
  6
CONTINUOUS
 10
-91.020185
 20
54.891952
 11
-90.667087
 21
55.24505
  0
LINE
  8
型材断面
  6
CONTINUOUS
 10
-70.560405
 20
13.07549
 11
-90.666618
 21
13.07549
  0
LINE
  8
型材断面
  6
CONTINUOUS
 10
-45.454183
 20
9.32549
 11
-94.416627
 21
9.32549
  0
LINE
  8
型材断面
  6
CONTINUOUS
 10
-70.560405
 20
55.24505
 11
-90.666618
 21
55.24505
  0
LINE
  8
型材断面
  6
CONTINUOUS
 10
-45.454183
 20
58.99505
 11
-94.416627
 21
58.99505
  0
LINE
  8
ガラス
  6
CONTINUOUS
 10
123.304785
 20
30.557477
 11
123.304785
 21
74.557477
  0
LINE
  8
ガラス
  6
CONTINUOUS
 10
167.304785
 20
74.557477
 11
123.304785
 21
74.557477
  0
LINE
  8
ガラス
  6
CONTINUOUS
 10
123.304785
 20
30.557477
 11
167.304785
 21
30.557477
  0
LINE
  8
ガラス
  6
CONTINUOUS
 10
167.304785
 20
74.557477
 11
167.304785
 21
30.557477
  0
TEXT
  7
TextStyle03
  8
文字
  6
CONTINUOUS
 10
-22.275
 20
19.025
  1
ﾊﾞﾗﾝｽｽﾃｰ
 40
3.0
 72
     5
 11
-8.9625
 21
19.025
  0
TEXT
  7
TextStyle03
  8
文字
  6
CONTINUOUS
 10
-98.85
 20
79.85
  1
アンカーピッチ
 40
3.0
 72
     5
 11
-75.6
 21
79.85
  0
TEXT
  7
TextStyle03
  8
文字
  6
CONTINUOUS
 10
-122.5
 20
1.75
  1
アンカーピッチ
 40
3.0
 50
90.0
 72
     5
 11
-122.5
 21
25.0
  0
TEXT
  7
TextStyle03
  8
文字
  6
CONTINUOUS
 10
-3.075
 20
1.625
  1
は排水穴位置を示す
 40
3.0
 72
     5
 11
26.925
 21
1.625
  0
TEXT
  7
TextStyle03
  8
文字
  6
CONTINUOUS
 10
-3.075
 20
-6.225
  1
はケーシング位置を示す
 40
3.0
 72
     5
 11
33.675
 21
-6.225
  0
TEXT
  7
TextStyle03
  8
文字
  6
CONTINUOUS
 10
-3.075
 20
-9.6
  1
４ヶ所中1ヶ所に設定
 40
3.0
 72
     5
 11
28.6125
 21
-9.6
  0
TEXT
  7
TextStyle03
  8
文字
  6
CONTINUOUS
 10
-8.675
 20
-16.75
  1
アンカー数量　６ヶ所
 40
3.0
 72
     5
 11
24.7
 21
-16.75
  0
TEXT
  7
TextStyle03
  8
文字
  6
CONTINUOUS
 10
-78.425
 20
-5.35
  1
可動装置側
 40
3.0
 72
     5
 11
-61.925
 21
-5.35
  0
TEXT
  7
TextStyle03
  8
文字
  6
CONTINUOUS
 10
-78.425
 20
70.425
  1
可動装置側
 40
3.0
 72
     5
 11
-61.925
 21
70.425
  0
TEXT
  7
TextStyle03
  8
文字
  6
CONTINUOUS
 10
59.775
 20
96.85
  1
ＮＳコード：ＮＳＦＺ
 40
5.0
 72
     5
 11
115.4
 21
96.85
  0
TEXT
  7
TextStyle03
  8
文字
  6
CONTINUOUS
 10
146.1
 20
38.8
  1
網入り6.8t
 40
3.0
 72
     5
 11
162.7875
 21
38.8
  0
TEXT
  7
TextStyle03
  8
文字
  6
CONTINUOUS
 10
152.725
 20
33.55
  1
×１枚
 40
3.0
 72
     5
 11
162.475
 21
33.55
  0
TEXT
  7
TextStyle03
  8
文字
  6
CONTINUOUS
 10
-8.725
 20
-23.575
  1
アームユニット数　２ヶ所
 40
3.0
 72
     5
 11
31.4
 21
-23.575
  0
LINE
  8
文字
  6
CONTINUOUS
 10
-26.691047
 20
-50.304365
 11
-42.515992
 21
-50.304365
  0
LINE
  8
文字
  6
CONTINUOUS
 10
-26.691047
 20
-61.77944
 11
-42.41837
 21
-61.77944
  0
LINE
  8
文字
  6
CONTINUOUS
 10
107.69883
 20
-50.304365
 11
91.873885
 21
-50.304365
  0
LINE
  8
文字
  6
CONTINUOUS
 10
107.69883
 20
-61.77944
 11
91.971505
 21
-61.77944
  0
TEXT
  7
TextStyle03
  8
文字
  6
CONTINUOUS
 10
59.55
 20
119.5
  1
シリーズ：ＴＦ２Ｆ
 40
5.0
 72
     5
 11
109.55
 21
119.5
  0
TEXT
  7
TextStyle03
  8
文字
  6
CONTINUOUS
 10
59.55
 20
113.875
  1
　　　　　（上下可動）900×900タイプ
 40
5.0
 72
     5
 11
160.175
 21
113.875
  0
TEXT
  7
TextStyle03
  8
文字
  6
CONTINUOUS
 10
59.55
 20
108.25
  1
図面名　：外観姿図
 40
5.0
 72
     5
 11
109.55
 21
108.25
  0
TEXT
  7
TextStyle03
  8
文字
  6
CONTINUOUS
 10
59.55
 20
102.625
  1
　　　　　　
 40
5.0
 72
     5
 11
92.675
 21
102.625
  0
INSERT
  2
*DIM_0002
  8
寸法
  6
CONTINUOUS
 10
0.0
 20
0.0
  0
INSERT
  2
*GRP_0003
  8
寸法
  6
CONTINUOUS
 10
0.0
 20
0.0
  0
INSERT
  2
*DIM_0004
  8
寸法
  6
CONTINUOUS
 10
0.0
 20
0.0
  0
INSERT
  2
*DIM_0005
  8
寸法
  6
CONTINUOUS
 10
0.0
 20
0.0
  0
INSERT
  2
*DIM_0006
  8
寸法
  6
CONTINUOUS
 10
0.0
 20
0.0
  0
INSERT
  2
*DIM_0007
  8
寸法
  6
CONTINUOUS
 10
0.0
 20
0.0
  0
INSERT
  2
*DIM_0008
  8
寸法
  6
CONTINUOUS
 10
0.0
 20
0.0
  0
CIRCLE
  8
寸法
  6
CONTINUOUS
 10
-111.453763
 20
34.16027
 40
1.73792
  0
INSERT
  2
*DIM_0009
  8
寸法
  6
CONTINUOUS
 10
0.0
 20
0.0
  0
INSERT
  2
*DIM_0010
  8
寸法
  6
CONTINUOUS
 10
0.0
 20
0.0
  0
INSERT
  2
*DIM_0011
  8
寸法
  6
CONTINUOUS
 10
0.0
 20
0.0
  0
INSERT
  2
*DIM_0012
  8
寸法
  6
CONTINUOUS
 10
0.0
 20
0.0
  0
INSERT
  2
*DIM_0015
  8
寸法
  6
CONTINUOUS
 10
0.0
 20
0.0
  0
INSERT
  2
*DIM_0016
  8
寸法
  6
CONTINUOUS
 10
0.0
 20
0.0
  0
INSERT
  2
*DIM_0017
  8
寸法
  6
CONTINUOUS
 10
0.0
 20
0.0
  0
LINE
  8
別途部材
  6
CONTINUOUS
 62
    47
 10
-94.770185
 20
-50.454365
 11
-94.770185
 21
-50.554365
  0
ARC
  8
別途部材
  6
CONTINUOUS
 62
    47
 10
-94.620185
 20
-50.454363
 40
0.15
 50
90.0
 51
180.0
  0
LINE
  8
別途部材
  6
CONTINUOUS
 62
    47
 10
-94.620185
 20
-50.304365
 11
-91.070185
 21
-50.304365
  0
LINE
  8
別途部材
  6
CONTINUOUS
 62
    47
 10
-94.535402
 20
-52.804365
 11
-94.535402
 21
-50.554365
  0
LINE
  8
別途部材
  6
CONTINUOUS
 62
    47
 10
-45.100625
 20
-50.454365
 11
-45.100625
 21
-50.554365
  0
ARC
  8
別途部材
  6
CONTINUOUS
 62
    47
 10
-45.250622
 20
-50.454363
 40
0.15
 50
0.0
 51
90.0
  0
LINE
  8
別途部材
  6
CONTINUOUS
 62
    47
 10
-45.250625
 20
-50.304365
 11
-48.800625
 21
-50.304365
  0
LINE
  8
別途部材
  6
CONTINUOUS
 62
    47
 10
-45.335408
 20
-52.804365
 11
-45.335408
 21
-50.554365
  0
LINE
  8
別途部材
  6
CONTINUOUS
 62
    47
 10
40.511182
 20
-50.454365
 11
40.511182
 21
-50.554365
  0
ARC
  8
別途部材
  6
CONTINUOUS
 62
    47
 10
40.661183
 20
-50.454363
 40
0.15
 50
90.0
 51
180.0
  0
LINE
  8
別途部材
  6
CONTINUOUS
 62
    47
 10
40.661182
 20
-50.304365
 11
44.211182
 21
-50.304365
  0
LINE
  8
別途部材
  6
CONTINUOUS
 62
    47
 10
40.745965
 20
-52.804365
 11
40.745965
 21
-50.554365
  0
LINE
  8
別途部材
  6
CONTINUOUS
 62
    47
 10
90.180743
 20
-50.454365
 11
90.180743
 21
-50.554365
  0
ARC
  8
別途部材
  6
CONTINUOUS
 62
    47
 10
90.030746
 20
-50.454363
 40
0.15
 50
0.0
 51
90.0
  0
LINE
  8
別途部材
  6
CONTINUOUS
 62
    47
 10
90.030743
 20
-50.304365
 11
86.480743
 21
-50.304365
  0
LINE
  8
別途部材
  6
CONTINUOUS
 62
    47
 10
89.94596
 20
-52.804365
 11
89.94596
 21
-50.554365
  0
LINE
  8
別途部材
  6
DOT
 62
    47
 10
40.511182
 20
-39.454365
 11
40.511182
 21
-39.554365
  0
ARC
  8
別途部材
  6
DOT
 62
    47
 10
40.661183
 20
-39.454363
 40
0.15
 50
90.0
 51
180.0
  0
LINE
  8
別途部材
  6
DOT
 62
    47
 10
40.661182
 20
-39.304365
 11
44.211182
 21
-39.304365
  0
LINE
  8
別途部材
  6
DOT
 62
    47
 10
40.745965
 20
-41.804365
 11
40.745965
 21
-39.554365
  0
LINE
  8
別途部材
  6
DOT
 62
    47
 10
90.180743
 20
-39.454365
 11
90.180743
 21
-39.554365
  0
ARC
  8
別途部材
  6
DOT
 62
    47
 10
90.030746
 20
-39.454363
 40
0.15
 50
0.0
 51
90.0
  0
LINE
  8
別途部材
  6
DOT
 62
    47
 10
90.030743
 20
-39.304365
 11
86.480743
 21
-39.304365
  0
LINE
  8
別途部材
  6
DOT
 62
    47
 10
89.94596
 20
-41.804365
 11
89.94596
 21
-39.554365
  0
LINE
  8
曲げ物
  6
CONTINUOUS
 10
-67.035617
 20
36.907673
 11
-72.578585
 21
31.364705
  0
LINE
  8
曲げ物
  6
CONTINUOUS
 10
-68.090823
 20
34.603507
 11
-70.274417
 21
32.419912
  0
LINE
  8
曲げ物
  6
CONTINUOUS
 10
-69.339782
 20
35.852468
 11
-71.523377
 21
33.668872
  0
ENDSEC
  0
EOF
