  0
SECTION
  2
HEADER
  9
$EXTMIN
 10
-210.0
 20
-148.5
  9
$EXTMAX
 10
210.0
 20
148.5
  9
$PDMODE
 70
    32
  9
$PDSIZE
 40
1.5
  9
$LTSCALE
 40
10.0
  0
ENDSEC
  0
SECTION
  2
TABLES
  0
TABLE
  2
LTYPE
 70
    15
  0
LTYPE
  2
CONTINUOUS
 70
    64
  3
実線
 72
    65
 73
     0
 40
0.0
  0
LTYPE
  2
DASHED
 70
    64
  3
破線A
 72
    65
 73
     2
 40
0.6
 49
0.4
 49
-0.2
  0
LTYPE
  2
DASHEDX2
 70
    64
  3
破線B
 72
    65
 73
     2
 40
1.3
 49
0.9
 49
-0.4
  0
LTYPE
  2
DASHDOT
 70
    64
  3
１点鎖線A
 72
    65
 73
     4
 40
0.5375
 49
0.375
 49
-0.05
 49
0.0625
 49
-0.05
  0
LTYPE
  2
DASHDOTX2
 70
    64
  3
１点鎖線B
 72
    65
 73
     4
 40
1.075
 49
0.75
 49
-0.1
 49
0.125
 49
-0.1
  0
LTYPE
  2
DIVIDE2
 70
    64
  3
２点鎖線A
 72
    65
 73
     6
 40
0.5125
 49
0.3
 49
-0.0375
 49
0.05
 49
-0.0375
 49
0.05
 49
-0.0375
  0
LTYPE
  2
DIVIDE
 70
    64
  3
２点鎖線B
 72
    65
 73
     6
 40
1.05
 49
0.55
 49
-0.1
 49
0.1
 49
-0.1
 49
0.1
 49
-0.1
  0
LTYPE
  2
DOT
 70
    64
  3
点線A
 72
    65
 73
     2
 40
0.1125
 49
0.0625
 49
-0.05
  0
LTYPE
  2
DOTX2
 70
    64
  3
点線B
 72
    65
 73
     2
 40
0.275
 49
0.15
 49
-0.125
  0
LTYPE
  2
CONTINUOUS
 70
    64
  3
実線
 72
    65
 73
     0
 40
0.0
  0
LTYPE
  2
CONTINUOUS
 70
    64
  3
実線
 72
    65
 73
     0
 40
0.0
  0
LTYPE
  2
CONTINUOUS
 70
    64
  3
実線
 72
    65
 73
     0
 40
0.0
  0
LTYPE
  2
CONTINUOUS
 70
    64
  3
実線
 72
    65
 73
     0
 40
0.0
  0
LTYPE
  2
CONTINUOUS
 70
    64
  3
実線
 72
    65
 73
     0
 40
0.0
  0
LTYPE
  2
CONTINUOUS
 70
    64
  3
実線
 72
    65
 73
     0
 40
0.0
  0
ENDTAB
  0
TABLE
  2
LAYER
 70
    34
  0
LAYER
  2
通り芯
 70
     0
 62
    15
  6
CONTINUOUS
  0
LAYER
  2
補助線
 70
     0
 62
    16
  6
DOT
  0
LAYER
  2
躯体
 70
     0
 62
    31
  6
CONTINUOUS
  0
LAYER
  2
型材
 70
     0
 62
    32
  6
CONTINUOUS
  0
LAYER
  2
型材断面
 70
     0
 62
    47
  6
CONTINUOUS
  0
LAYER
  2
ガラス
 70
     0
 62
    48
  6
CONTINUOUS
  0
LAYER
  2
ゴム等
 70
     0
 62
    63
  6
CONTINUOUS
  0
LAYER
  2
ボルト／ビス
 70
     0
 62
    64
  6
CONTINUOUS
  0
LAYER
  2
文字
 70
     0
 62
    79
  6
CONTINUOUS
  0
LAYER
  2
寸法
 70
     0
 62
    80
  6
CONTINUOUS
  0
LAYER
  2
ﾊｯﾁﾝｸﾞ
 70
     0
 62
    95
  6
CONTINUOUS
  0
LAYER
  2
別途部材
 70
     0
 62
    96
  6
CONTINUOUS
  0
LAYER
  2
曲げ物
 70
     0
 62
   111
  6
CONTINUOUS
  0
LAYER
  2
鉄骨等
 70
     0
 62
   112
  6
CONTINUOUS
  0
LAYER
  2
St
 70
     0
 62
   127
  6
CONTINUOUS
  0
LAYER
  2
その他部品等
 70
     0
 62
   128
  6
CONTINUOUS
  0
LAYER
  2
ｶﾞｽｹｯﾄ
 70
     0
 62
   143
  6
CONTINUOUS
  0
LAYER
  2
ｽｹｯﾁ
 70
     0
 62
    14
  6
CONTINUOUS
  0
LAYER
  2
0
 70
     0
 62
    17
  6
CONTINUOUS
  0
LAYER
  2
1
 70
     0
 62
    30
  6
CONTINUOUS
  0
LAYER
  2
4
 70
     0
 62
    33
  6
CONTINUOUS
  0
LAYER
  2
ﾚｲﾔ3
 70
     0
 62
    46
  6
CONTINUOUS
  0
LAYER
  2
外形線
 70
     0
 62
    49
  6
CONTINUOUS
  0
LAYER
  2
部品
 70
     0
 62
    14
  6
CONTINUOUS
  0
LAYER
  2
サッシ芯
 70
     0
 62
    17
  6
DASHDOTX2
  0
LAYER
  2
寸法線
 70
     0
 62
    62
  6
CONTINUOUS
  0
LAYER
  2
姿図外形線
 70
     0
 62
    65
  6
CONTINUOUS
  0
LAYER
  2
姿補助線
 70
     0
 62
    30
  6
CONTINUOUS
  0
LAYER
  2
透視線
 70
     0
 62
    78
  6
DOT
  0
LAYER
  2
用紙
 70
     0
 62
    81
  6
CONTINUOUS
  0
LAYER
  2
実線図枠
 70
     0
 62
    94
  6
CONTINUOUS
  0
LAYER
  2
補助図枠
 70
     0
 62
    97
  6
CONTINUOUS
  0
LAYER
  2
建具記号
 70
     0
 62
   110
  6
CONTINUOUS
  0
LAYER
  2
補助文字
 70
     0
 62
   113
  6
CONTINUOUS
  0
ENDTAB
  0
TABLE
  2
STYLE
 70
    10
  0
STYLE
  2
STANDARD
 70
     0
 40
1.0
 41
1.0
 42
1.0
 50
0.0
 71
     0
  3
TXT
  4
BIGFONT
  0
STYLE
  2
TATE
 70
     4
 40
1.0
 41
1.0
 42
1.0
 50
0.0
 71
     0
  3
TXT
  4
BIGFONT
  0
STYLE
  2
TextStyle03
 70
     0
 40
1.0
 41
1.0
 42
1.0
 50
0.0
 71
     0
  3
MONOTXT
  4
BIGFONT
  0
STYLE
  2
TextStyle04
 70
     0
 40
1.0
 41
1.0
 42
1.0
 50
0.0
 71
     0
  3
MONOTXT
  4
BIGFONT
  0
STYLE
  2
TextStyle05
 70
     0
 40
1.0
 41
1.0
 42
1.0
 50
0.0
 71
     0
  3
MONOTXT
  4
BIGFONT
  0
STYLE
  2
TextStyle06
 70
     0
 40
1.0
 41
1.0
 42
1.0
 50
0.0
 71
     0
  3
MONOTXT
  4
BIGFONT
  0
STYLE
  2
TextStyle07
 70
     0
 40
1.0
 41
1.0
 42
1.0
 50
0.0
 71
     0
  3
MONOTXT
  4
BIGFONT
  0
STYLE
  2
TextStyle08
 70
     0
 40
1.0
 41
1.0
 42
1.0
 50
0.0
 71
     0
  3
MONOTXT
  4
BIGFONT
  0
STYLE
  2
TextStyle09
 70
     0
 40
1.0
 41
1.0
 42
1.0
 50
0.0
 71
     0
  3
MONOTXT
  4
BIGFONT
  0
STYLE
  2
TextStyle10
 70
     0
 40
1.0
 41
1.0
 42
1.0
 50
0.0
 71
     0
  3
MONOTXT
  4
BIGFONT
  0
ENDTAB
  0
ENDSEC
  0
SECTION
  2
BLOCKS
  0
BLOCK
  2
*GRP_0001
 70
    65
 10
0.0
 20
0.0
  0
LINE
  8
型材断面
  6
CONTINUOUS
 10
195.0
 20
133.5
 11
195.0
 21
-133.5
  0
LINE
  8
型材断面
  6
CONTINUOUS
 10
195.0
 20
-133.5
 11
-185.0
 21
-133.5
  0
LINE
  8
型材断面
  6
CONTINUOUS
 10
-185.0
 20
-133.5
 11
-185.0
 21
133.5
  0
LINE
  8
型材断面
  6
CONTINUOUS
 10
195.0
 20
133.5
 11
-185.0
 21
133.5
  0
LINE
  8
型材断面
  6
CONTINUOUS
 10
145.0
 20
-133.5
 11
145.0
 21
-118.5
  0
LINE
  8
型材断面
  6
CONTINUOUS
 10
195.0
 20
-118.5
 11
145.0
 21
-118.5
  0
ENDBLK
  0
BLOCK
  2
*DIM_0002
 70
    65
 10
0.0
 20
0.0
  0
LINE
  8
寸法
  6
BYBLOCK
 62
     0
 10
-71.75018
 20
27.395457
 11
-51.200753
 21
27.395457
  0
LINE
  8
寸法
  6
BYBLOCK
 62
     0
 10
-63.726305
 20
32.945457
 11
-51.200753
 21
32.945457
  0
LINE
  8
寸法
  6
BYBLOCK
 62
     0
 10
-51.200753
 20
27.395457
 11
-51.200753
 21
32.945457
  0
POINT
  8
寸法
 62
     0
 10
-51.200753
 20
27.395457
  0
POINT
  8
寸法
 62
     0
 10
-51.200753
 20
32.945457
  0
TEXT
  7
TextStyle03
  8
寸法
  6
CONTINUOUS
 62
     0
 10
-51.6
 20
27.7125
  1
111
 40
3.0
 50
90.0
 72
     5
 11
-51.6
 21
32.5875
  0
ENDBLK
  0
BLOCK
  2
*DIM_0003
 70
    65
 10
0.0
 20
0.0
  0
LINE
  8
寸法
  6
BYBLOCK
 62
     0
 10
-71.75018
 20
57.395463
 11
-51.200753
 21
57.395463
  0
LINE
  8
寸法
  6
BYBLOCK
 62
     0
 10
-63.726305
 20
51.845463
 11
-51.200753
 21
51.845463
  0
LINE
  8
寸法
  6
BYBLOCK
 62
     0
 10
-51.200753
 20
57.395463
 11
-51.200753
 21
51.845463
  0
POINT
  8
寸法
 62
     0
 10
-51.200753
 20
57.395463
  0
POINT
  8
寸法
 62
     0
 10
-51.200753
 20
51.845463
  0
TEXT
  7
TextStyle03
  8
寸法
  6
CONTINUOUS
 62
     0
 10
-51.6
 20
52.1625
  1
111
 40
3.0
 50
90.0
 72
     5
 11
-51.6
 21
57.0375
  0
ENDBLK
  0
BLOCK
  2
*DIM_0004
 70
    65
 10
0.0
 20
0.0
  0
LINE
  8
寸法
  6
CONTINUOUS
 62
     0
 10
-77.750183
 20
58.395457
 11
-77.750183
 21
78.346062
  0
LINE
  8
寸法
  6
CONTINUOUS
 62
     0
 10
-97.750183
 20
58.395457
 11
-97.750183
 21
78.346062
  0
LINE
  8
寸法
  6
CONTINUOUS
 62
     0
 10
-77.750183
 20
78.346062
 11
-97.750183
 21
78.346062
  0
POINT
  8
寸法
 62
     0
 10
-77.750183
 20
78.346062
 50
-270.0
  0
POINT
  8
寸法
 62
     0
 10
-97.750183
 20
78.346062
 50
-270.0
  0
TEXT
  7
TextStyle03
  8
寸法
  6
CONTINUOUS
 62
     0
 10
-90.2125
 20
78.75
  1
400
 40
3.0
 72
     5
 11
-85.3375
 21
78.75
  0
ENDBLK
  0
BLOCK
  2
*GRP_0005
 70
    65
 10
0.0
 20
0.0
  0
POLYLINE
  8
寸法
  6
CONTINUOUS
 62
     0
 66
     1
  0
VERTEX
  8
寸法
 10
-75.086662
 20
39.891753
  0
VERTEX
  8
寸法
 10
-71.405468
 20
36.210557
  0
VERTEX
  8
寸法
 10
-48.56289
 20
36.210557
  0
SEQEND
  0
ENDBLK
  0
BLOCK
  2
*DIM_0006
 70
    65
 10
0.0
 20
0.0
  0
LINE
  8
寸法
  6
BYBLOCK
 62
     0
 10
-92.875187
 20
-40.460495
 11
-92.875187
 21
-24.12085
  0
LINE
  8
寸法
  6
BYBLOCK
 62
     0
 10
-82.625183
 20
-40.460495
 11
-82.625183
 21
-24.12085
  0
LINE
  8
寸法
  6
BYBLOCK
 62
     0
 10
-92.875187
 20
-24.12085
 11
-82.625183
 21
-24.12085
  0
POINT
  8
寸法
 62
     0
 10
-92.875187
 20
-24.12085
  0
POINT
  8
寸法
 62
     0
 10
-82.625183
 20
-24.12085
  0
TEXT
  7
TextStyle03
  8
寸法
  6
CONTINUOUS
 62
     0
 10
-90.2125
 20
-23.75
  1
205
 40
3.0
 72
     5
 11
-85.3375
 21
-23.75
  0
ENDBLK
  0
BLOCK
  2
*DIM_0007
 70
    65
 10
0.0
 20
0.0
  0
LINE
  8
寸法
  6
BYBLOCK
 62
     0
 10
-66.775185
 20
-66.48756
 11
-41.504388
 21
-66.48756
  0
LINE
  8
寸法
  6
BYBLOCK
 62
     0
 10
-63.899982
 20
-57.362485
 11
-41.504388
 21
-57.362485
  0
LINE
  8
寸法
  6
BYBLOCK
 62
     0
 10
-41.504388
 20
-66.48756
 11
-41.504388
 21
-57.362485
  0
POINT
  8
寸法
 62
     0
 10
-41.504388
 20
-66.48756
  0
POINT
  8
寸法
 62
     0
 10
-41.504388
 20
-57.362485
  0
TEXT
  7
TextStyle03
  8
寸法
  6
CONTINUOUS
 62
     0
 10
-41.9
 20
-66.075
  1
182.5
 40
3.0
 50
90.0
 72
     5
 11
-41.9
 21
-57.825
  0
ENDBLK
  0
BLOCK
  2
*DIM_0008
 70
    65
 10
0.0
 20
0.0
  0
LINE
  8
寸法
  6
CONTINUOUS
 62
     0
 10
-84.750185
 20
-36.335498
 11
-41.504388
 21
-36.335498
  0
LINE
  8
寸法
  6
CONTINUOUS
 62
     0
 10
-41.504388
 20
-57.362485
 11
-41.504388
 21
-36.335498
  0
POINT
  8
寸法
 62
     0
 10
-41.504388
 20
-57.362485
  0
POINT
  8
寸法
 62
     0
 10
-41.504388
 20
-36.335498
  0
TEXT
  7
TextStyle03
  8
寸法
  6
CONTINUOUS
 62
     0
 10
-41.9
 20
-51.0
  1
420.5
 40
3.0
 50
90.0
 72
     5
 11
-41.9
 21
-42.75
  0
ENDBLK
  0
BLOCK
  2
*DIM_0009
 70
    65
 10
0.0
 20
0.0
  0
LINE
  8
寸法
  6
BYBLOCK
 62
     0
 10
-66.899982
 20
-54.362485
 11
-66.899982
 21
-17.141003
  0
LINE
  8
寸法
  6
BYBLOCK
 62
     0
 10
-72.750185
 20
-17.141003
 11
-66.899982
 21
-17.141003
  0
POINT
  8
寸法
 62
     0
 10
-66.899982
 20
-17.141003
  0
TEXT
  7
TextStyle03
  8
寸法
  6
CONTINUOUS
 62
     0
 10
-72.2875
 20
-16.775
  1
117
 40
3.0
 72
     5
 11
-67.4125
 21
-16.775
  0
ENDBLK
  0
BLOCK
  2
*DIM_0010
 70
    65
 10
0.0
 20
0.0
  0
LINE
  8
寸法
  6
BYBLOCK
 62
     0
 10
-108.600388
 20
-54.362485
 11
-108.600388
 21
-17.141003
  0
LINE
  8
寸法
  6
BYBLOCK
 62
     0
 10
-102.750185
 20
-17.141003
 11
-108.600388
 21
-17.141003
  0
POINT
  8
寸法
 62
     0
 10
-102.750185
 20
-17.141003
  0
POINT
  8
寸法
 62
     0
 10
-108.600388
 20
-17.141003
  0
TEXT
  7
TextStyle03
  8
寸法
  6
CONTINUOUS
 62
     0
 10
-108.1375
 20
-16.775
  1
117
 40
3.0
 72
     5
 11
-103.2625
 21
-16.775
  0
ENDBLK
  0
BLOCK
  2
*DIM_0011
 70
    65
 10
0.0
 20
0.0
  0
LINE
  8
寸法
  6
BYBLOCK
 62
     0
 10
-102.750185
 20
-17.141003
 11
-72.750185
 21
-17.141003
  0
POINT
  8
寸法
 62
     0
 10
-102.750185
 20
-17.141003
  0
POINT
  8
寸法
 62
     0
 10
-72.750185
 20
-17.141003
  0
TEXT
  7
TextStyle03
  8
寸法
  6
CONTINUOUS
 62
     0
 10
-98.65
 20
-16.775
  1
呼称寸法＝600
 40
3.0
 72
     5
 11
-76.9
 21
-16.775
  0
ENDBLK
  0
BLOCK
  2
*DIM_0012
 70
    65
 10
0.0
 20
0.0
  0
LINE
  8
寸法
  6
BYBLOCK
 62
     0
 10
-81.750185
 20
-36.335498
 11
-76.203647
 21
-36.335498
  0
LINE
  8
寸法
  6
BYBLOCK
 62
     0
 10
-79.625185
 20
-41.4605
 11
-76.203647
 21
-41.4605
  0
LINE
  8
寸法
  6
BYBLOCK
 62
     0
 10
-76.203647
 20
-36.335498
 11
-76.203647
 21
-41.4605
  0
POINT
  8
寸法
 62
     0
 10
-76.203647
 20
-36.335498
  0
POINT
  8
寸法
 62
     0
 10
-76.203647
 20
-41.4605
  0
TEXT
  7
TextStyle03
  8
寸法
  6
CONTINUOUS
 62
     0
 10
-73.225
 20
-43.025
  1
102.5
 40
3.0
 50
90.0
 72
     5
 11
-73.225
 21
-34.775
  0
ENDBLK
  0
BLOCK
  2
*DIM_0013
 70
    65
 10
0.0
 20
0.0
  0
LINE
  8
寸法
  6
BYBLOCK
 62
     0
 10
130.326022
 20
-93.687698
 11
130.326022
 21
-103.455918
  0
LINE
  8
寸法
  6
BYBLOCK
 62
     0
 10
165.106022
 20
-93.687698
 11
165.106022
 21
-103.455918
  0
LINE
  8
寸法
  6
BYBLOCK
 62
     0
 10
130.326022
 20
-103.455918
 11
165.106022
 21
-103.455918
  0
POINT
  8
寸法
 62
     0
 10
130.326022
 20
-103.455918
  0
POINT
  8
寸法
 62
     0
 10
165.106022
 20
-103.455918
  0
TEXT
  7
TextStyle03
  8
寸法
  6
CONTINUOUS
 62
     0
 10
143.575
 20
-103.075
  1
695.6
 40
3.0
 72
     5
 11
151.825
 21
-103.075
  0
ENDBLK
  0
BLOCK
  2
*DIM_0014
 70
    65
 10
0.0
 20
0.0
  0
LINE
  8
寸法
  6
BYBLOCK
 62
     0
 10
168.106022
 20
-90.687698
 11
178.290955
 21
-90.687698
  0
LINE
  8
寸法
  6
BYBLOCK
 62
     0
 10
150.716022
 20
-66.094628
 11
178.290955
 21
-66.094628
  0
LINE
  8
寸法
  6
BYBLOCK
 62
     0
 10
178.290955
 20
-90.687698
 11
178.290955
 21
-66.094628
  0
POINT
  8
寸法
 62
     0
 10
178.290955
 20
-90.687698
  0
POINT
  8
寸法
 62
     0
 10
178.290955
 20
-66.094628
  0
TEXT
  7
TextStyle03
  8
寸法
  6
CONTINUOUS
 62
     0
 10
177.9
 20
-82.525
  1
491.9
 40
3.0
 50
90.0
 72
     5
 11
177.9
 21
-74.275
  0
ENDBLK
  0
BLOCK
  2
*DIM_0015
 70
    65
 10
0.0
 20
0.0
  0
LINE
  8
寸法
  6
BYBLOCK
 62
     0
 10
67.356367
 20
-57.362485
 11
76.51721
 21
-57.362485
  0
LINE
  8
寸法
  6
BYBLOCK
 62
     0
 10
67.356367
 20
-49.862485
 11
76.51721
 21
-49.862485
  0
LINE
  8
寸法
  6
BYBLOCK
 62
     0
 10
76.51721
 20
-57.362485
 11
76.51721
 21
-49.862485
  0
POINT
  8
寸法
 62
     0
 10
76.51721
 20
-57.362485
  0
POINT
  8
寸法
 62
     0
 10
76.51721
 20
-49.862485
  0
TEXT
  7
TextStyle03
  8
寸法
  6
CONTINUOUS
 62
     0
 10
80.875
 20
-62.0
  1
上昇87以上
 40
3.0
 50
90.0
 72
     5
 11
80.875
 21
-45.5
  0
ENDBLK
  0
ENDSEC
  0
SECTION
  2
ENTITIES
  0
POLYLINE
  8
通り芯
  6
CONTINUOUS
 66
     1
 70
     1
  0
VERTEX
  8
通り芯
 10
-210.0
 20
-148.5
  0
VERTEX
  8
通り芯
 10
210.0
 20
-148.5
  0
VERTEX
  8
通り芯
 10
210.0
 20
148.5
  0
VERTEX
  8
通り芯
 10
-210.0
 20
148.5
  0
SEQEND
  0
INSERT
  2
*GRP_0001
  8
型材断面
  6
CONTINUOUS
 10
0.0
 20
0.0
  0
LINE
  8
型材断面
  6
CONTINUOUS
 10
10.516347
 20
8.164417
 11
8.272903
 21
4.278658
  0
LINE
  8
型材断面
  6
CONTINUOUS
 10
10.516347
 20
8.164417
 11
12.759793
 21
4.278658
  0
LINE
  8
型材断面
  6
CONTINUOUS
 10
12.759793
 20
4.278658
 11
8.272903
 21
4.278658
  0
LINE
  8
型材断面
  6
CONTINUOUS
 10
10.516347
 20
0.47487
 11
11.410433
 21
-3.41089
  0
LINE
  8
型材断面
  6
CONTINUOUS
 10
10.516347
 20
0.47487
 11
9.622263
 21
-3.41089
  0
LINE
  8
型材断面
  6
CONTINUOUS
 10
9.622263
 20
-3.41089
 11
11.410433
 21
-3.41089
  0
LINE
  8
型材断面
  6
CONTINUOUS
 10
1.482467
 20
2.870765
 11
54.139148
 21
2.870765
  0
LINE
  8
型材断面
  6
CONTINUOUS
 10
1.482467
 20
-8.329227
 11
54.139148
 21
-8.329227
  0
LINE
  8
型材断面
  6
CONTINUOUS
 10
1.482467
 20
-15.169172
 11
54.139148
 21
-15.169172
  0
LINE
  8
型材断面
  6
CONTINUOUS
 10
-92.875185
 20
47.520463
 11
-92.875185
 21
42.395463
  0
LINE
  8
型材断面
  6
CONTINUOUS
 10
-92.875185
 20
47.520463
 11
-87.750185
 21
47.520463
  0
LINE
  8
型材断面
  6
CONTINUOUS
 10
-107.895158
 20
62.540432
 11
-107.895158
 21
58.892135
  0
LINE
  8
型材断面
  6
CONTINUOUS
 10
-107.895158
 20
62.540432
 11
-104.24686
 21
62.540432
  0
LINE
  8
型材断面
  6
CONTINUOUS
 10
-108.248712
 20
62.893988
 11
-108.248712
 21
58.538582
  0
LINE
  8
型材断面
  6
CONTINUOUS
 10
-108.248712
 20
58.538582
 11
-107.187218
 21
57.477088
  0
LINE
  8
型材断面
  6
CONTINUOUS
 10
-103.893305
 20
62.893985
 11
-102.831812
 21
61.832493
  0
LINE
  8
型材断面
  6
CONTINUOUS
 10
-108.248712
 20
62.893988
 11
-103.893307
 21
62.893988
  0
LINE
  8
型材断面
  6
CONTINUOUS
 10
-104.24686
 20
62.540432
 11
-89.22689
 21
47.520463
  0
LINE
  8
型材断面
  6
CONTINUOUS
 10
-107.895158
 20
58.892135
 11
-92.875185
 21
43.872163
  0
LINE
  8
型材断面
  6
CONTINUOUS
 10
-108.600165
 20
63.245442
 11
-87.750183
 21
42.39546
  0
LINE
  8
型材断面
  6
DASHDOT
 10
-102.750185
 20
57.39546
 11
-87.750185
 21
57.39546
  0
LINE
  8
型材断面
  6
CONTINUOUS
 10
-103.534148
 20
61.827722
 11
-87.750185
 21
61.827722
  0
LINE
  8
型材断面
  6
CONTINUOUS
 10
-108.600165
 20
63.245442
 11
-87.750185
 21
63.245442
  0
LINE
  8
型材断面
  6
DASHDOT
 10
-102.750185
 20
57.39546
 11
-102.750185
 21
42.39546
  0
LINE
  8
型材断面
  6
CONTINUOUS
 10
-108.600165
 20
63.245442
 11
-108.600165
 21
42.39546
  0
LINE
  8
型材断面
  6
CONTINUOUS
 10
-107.182445
 20
58.179422
 11
-107.182445
 21
42.39546
  0
LINE
  8
型材断面
  6
DASHDOT
 10
-87.750185
 20
42.39546
 11
-102.750185
 21
42.39546
  0
LINE
  8
型材断面
  6
DASHDOT
 10
-87.750185
 20
42.39546
 11
-87.750185
 21
57.39546
  0
LINE
  8
型材断面
  6
CONTINUOUS
 10
-82.625185
 20
47.520463
 11
-82.625185
 21
42.395463
  0
LINE
  8
型材断面
  6
CONTINUOUS
 10
-82.625185
 20
47.520463
 11
-87.750185
 21
47.520463
  0
LINE
  8
型材断面
  6
CONTINUOUS
 10
-67.605213
 20
62.540432
 11
-67.605213
 21
58.892135
  0
LINE
  8
型材断面
  6
CONTINUOUS
 10
-67.605213
 20
62.540432
 11
-71.25351
 21
62.540432
  0
LINE
  8
型材断面
  6
CONTINUOUS
 10
-67.251657
 20
62.893988
 11
-67.251657
 21
58.538582
  0
LINE
  8
型材断面
  6
CONTINUOUS
 10
-67.251657
 20
58.538582
 11
-68.313152
 21
57.477088
  0
LINE
  8
型材断面
  6
CONTINUOUS
 10
-71.607065
 20
62.893985
 11
-72.668558
 21
61.832493
  0
LINE
  8
型材断面
  6
CONTINUOUS
 10
-67.251657
 20
62.893988
 11
-71.607063
 21
62.893988
  0
LINE
  8
型材断面
  6
CONTINUOUS
 10
-71.25351
 20
62.540432
 11
-86.27348
 21
47.520463
  0
LINE
  8
型材断面
  6
CONTINUOUS
 10
-67.605213
 20
58.892135
 11
-82.625185
 21
43.872163
  0
LINE
  8
型材断面
  6
CONTINUOUS
 10
-66.900205
 20
63.245442
 11
-87.750187
 21
42.39546
  0
LINE
  8
型材断面
  6
DASHDOT
 10
-72.750185
 20
57.39546
 11
-87.750185
 21
57.39546
  0
LINE
  8
型材断面
  6
CONTINUOUS
 10
-71.966223
 20
61.827722
 11
-87.750185
 21
61.827722
  0
LINE
  8
型材断面
  6
CONTINUOUS
 10
-66.900205
 20
63.245442
 11
-87.750185
 21
63.245442
  0
LINE
  8
型材断面
  6
DASHDOT
 10
-72.750185
 20
57.39546
 11
-72.750185
 21
42.39546
  0
LINE
  8
型材断面
  6
CONTINUOUS
 10
-66.900205
 20
63.245442
 11
-66.900205
 21
42.39546
  0
LINE
  8
型材断面
  6
CONTINUOUS
 10
-68.317925
 20
58.179422
 11
-68.317925
 21
42.39546
  0
LINE
  8
型材断面
  6
DASHDOT
 10
-87.750185
 20
42.39546
 11
-72.750185
 21
42.39546
  0
LINE
  8
型材断面
  6
CONTINUOUS
 10
-92.875185
 20
37.270457
 11
-92.875185
 21
42.395457
  0
LINE
  8
型材断面
  6
CONTINUOUS
 10
-92.875185
 20
37.270457
 11
-87.750185
 21
37.270457
  0
LINE
  8
型材断面
  6
CONTINUOUS
 10
-107.895158
 20
22.250488
 11
-107.895158
 21
25.898785
  0
LINE
  8
型材断面
  6
CONTINUOUS
 10
-107.895158
 20
22.250488
 11
-104.24686
 21
22.250488
  0
LINE
  8
型材断面
  6
CONTINUOUS
 10
-108.248712
 20
21.896933
 11
-108.248712
 21
26.252338
  0
LINE
  8
型材断面
  6
CONTINUOUS
 10
-108.248712
 20
26.252338
 11
-107.187218
 21
27.313832
  0
LINE
  8
型材断面
  6
CONTINUOUS
 10
-103.893305
 20
21.896935
 11
-102.831812
 21
22.958427
  0
LINE
  8
型材断面
  6
CONTINUOUS
 10
-108.248712
 20
21.896933
 11
-103.893307
 21
21.896933
  0
LINE
  8
型材断面
  6
CONTINUOUS
 10
-104.24686
 20
22.250488
 11
-89.22689
 21
37.270457
  0
LINE
  8
型材断面
  6
CONTINUOUS
 10
-107.895158
 20
25.898785
 11
-92.875185
 21
40.918757
  0
LINE
  8
型材断面
  6
CONTINUOUS
 10
-108.600165
 20
21.545478
 11
-87.750183
 21
42.39546
  0
LINE
  8
型材断面
  6
DASHDOT
 10
-102.750185
 20
27.39546
 11
-87.750185
 21
27.39546
  0
LINE
  8
型材断面
  6
CONTINUOUS
 10
-103.534148
 20
22.963198
 11
-87.750185
 21
22.963198
  0
LINE
  8
型材断面
  6
CONTINUOUS
 10
-108.600165
 20
21.545478
 11
-87.750185
 21
21.545478
  0
LINE
  8
型材断面
  6
CONTINUOUS
 10
-108.600165
 20
21.545478
 11
-108.600165
 21
42.39546
  0
LINE
  8
型材断面
  6
CONTINUOUS
 10
-107.182445
 20
26.611498
 11
-107.182445
 21
42.39546
  0
LINE
  8
型材断面
  6
CONTINUOUS
 10
-82.625185
 20
37.270457
 11
-82.625185
 21
42.395457
  0
LINE
  8
型材断面
  6
CONTINUOUS
 10
-82.625185
 20
37.270457
 11
-87.750185
 21
37.270457
  0
LINE
  8
型材断面
  6
CONTINUOUS
 10
-67.605213
 20
22.250488
 11
-67.605213
 21
25.898785
  0
LINE
  8
型材断面
  6
CONTINUOUS
 10
-67.605213
 20
22.250488
 11
-71.25351
 21
22.250488
  0
LINE
  8
型材断面
  6
CONTINUOUS
 10
-67.251657
 20
21.896933
 11
-67.251657
 21
26.252338
  0
LINE
  8
型材断面
  6
CONTINUOUS
 10
-67.251657
 20
26.252338
 11
-68.313152
 21
27.313832
  0
LINE
  8
型材断面
  6
CONTINUOUS
 10
-71.607065
 20
21.896935
 11
-72.668558
 21
22.958427
  0
LINE
  8
型材断面
  6
CONTINUOUS
 10
-67.251657
 20
21.896933
 11
-71.607063
 21
21.896933
  0
LINE
  8
型材断面
  6
CONTINUOUS
 10
-71.25351
 20
22.250488
 11
-86.27348
 21
37.270457
  0
LINE
  8
型材断面
  6
CONTINUOUS
 10
-67.605213
 20
25.898785
 11
-82.625185
 21
40.918757
  0
LINE
  8
型材断面
  6
CONTINUOUS
 10
-66.900205
 20
21.545478
 11
-87.750187
 21
42.39546
  0
LINE
  8
型材断面
  6
DASHDOT
 10
-72.750185
 20
27.39546
 11
-87.750185
 21
27.39546
  0
LINE
  8
型材断面
  6
CONTINUOUS
 10
-71.966223
 20
22.963198
 11
-87.750185
 21
22.963198
  0
LINE
  8
型材断面
  6
CONTINUOUS
 10
-66.900205
 20
21.545478
 11
-87.750185
 21
21.545478
  0
LINE
  8
型材断面
  6
CONTINUOUS
 10
-66.900205
 20
21.545478
 11
-66.900205
 21
42.39546
  0
LINE
  8
型材断面
  6
CONTINUOUS
 10
-68.317925
 20
26.611498
 11
-68.317925
 21
42.39546
  0
LINE
  8
型材断面
  6
DOT
 10
-75.989525
 20
57.39546
 11
-75.989525
 21
42.39546
  0
LINE
  8
型材断面
  6
DOT
 10
-77.989525
 20
57.39546
 11
-77.989525
 21
42.39546
  0
LINE
  8
型材断面
  6
DOT
 10
-75.989525
 20
27.39546
 11
-75.989525
 21
42.39546
  0
LINE
  8
型材断面
  6
DOT
 10
-77.989525
 20
27.39546
 11
-77.989525
 21
42.39546
  0
LINE
  8
型材断面
  6
CONTINUOUS
 10
-110.774055
 20
32.945457
 11
-114.659815
 21
33.839543
  0
LINE
  8
型材断面
  6
CONTINUOUS
 10
-110.774055
 20
32.945457
 11
-114.659815
 21
32.051373
  0
LINE
  8
型材断面
  6
CONTINUOUS
 10
-114.659815
 20
32.051373
 11
-114.659815
 21
33.839543
  0
LINE
  8
型材断面
  6
CONTINUOUS
 10
-110.774055
 20
42.39546
 11
-114.659815
 21
40.152015
  0
LINE
  8
型材断面
  6
CONTINUOUS
 10
-110.774055
 20
42.39546
 11
-114.659815
 21
44.638905
  0
LINE
  8
型材断面
  6
CONTINUOUS
 10
-114.659815
 20
44.638905
 11
-114.659815
 21
40.152015
  0
LINE
  8
型材断面
  6
CONTINUOUS
 10
-110.774055
 20
51.845463
 11
-114.659815
 21
50.951377
  0
LINE
  8
型材断面
  6
CONTINUOUS
 10
-110.774055
 20
51.845463
 11
-114.659815
 21
52.739547
  0
LINE
  8
型材断面
  6
CONTINUOUS
 10
-114.659815
 20
52.739547
 11
-114.659815
 21
50.951377
  0
LINE
  8
型材断面
  6
CONTINUOUS
 10
-64.726305
 20
32.945457
 11
-60.840545
 21
33.839543
  0
LINE
  8
型材断面
  6
CONTINUOUS
 10
-64.726305
 20
32.945457
 11
-60.840545
 21
32.051373
  0
LINE
  8
型材断面
  6
CONTINUOUS
 10
-60.840545
 20
32.051373
 11
-60.840545
 21
33.839543
  0
LINE
  8
型材断面
  6
CONTINUOUS
 10
-64.726305
 20
42.39546
 11
-60.840545
 21
40.152015
  0
LINE
  8
型材断面
  6
CONTINUOUS
 10
-64.726305
 20
42.39546
 11
-60.840545
 21
44.638905
  0
LINE
  8
型材断面
  6
CONTINUOUS
 10
-60.840545
 20
44.638905
 11
-60.840545
 21
40.152015
  0
LINE
  8
型材断面
  6
CONTINUOUS
 10
-64.726305
 20
51.845463
 11
-60.840545
 21
50.951377
  0
LINE
  8
型材断面
  6
CONTINUOUS
 10
-64.726305
 20
51.845463
 11
-60.840545
 21
52.739547
  0
LINE
  8
型材断面
  6
CONTINUOUS
 10
-60.840545
 20
52.739547
 11
-60.840545
 21
50.951377
  0
LINE
  8
型材断面
  6
CONTINUOUS
 10
-87.750183
 20
65.419333
 11
-89.993628
 21
69.305092
  0
LINE
  8
型材断面
  6
CONTINUOUS
 10
-87.750183
 20
65.419333
 11
-85.506737
 21
69.305092
  0
LINE
  8
型材断面
  6
CONTINUOUS
 10
-85.506737
 20
69.305092
 11
-89.993628
 21
69.305092
  0
LINE
  8
型材断面
  6
CONTINUOUS
 10
-87.750183
 20
19.371582
 11
-89.993628
 21
15.485822
  0
LINE
  8
型材断面
  6
CONTINUOUS
 10
-87.750183
 20
19.371582
 11
-85.506737
 21
15.485822
  0
LINE
  8
型材断面
  6
CONTINUOUS
 10
-85.506737
 20
15.485822
 11
-89.993628
 21
15.485822
  0
POLYLINE
  8
型材断面
  6
CONTINUOUS
 66
     1
 70
     1
  0
VERTEX
  8
型材断面
 10
-78.543337
 20
13.44395
  0
VERTEX
  8
型材断面
 10
-97.09855
 20
13.44395
  0
VERTEX
  8
型材断面
 10
-97.09855
 20
8.651915
  0
VERTEX
  8
型材断面
 10
-78.543337
 20
8.651915
  0
SEQEND
  0
POLYLINE
  8
型材断面
  6
CONTINUOUS
 66
     1
 70
     1
  0
VERTEX
  8
型材断面
 10
-78.543337
 20
75.835913
  0
VERTEX
  8
型材断面
 10
-97.09855
 20
75.835913
  0
VERTEX
  8
型材断面
 10
-97.09855
 20
71.043878
  0
VERTEX
  8
型材断面
 10
-78.543337
 20
71.043878
  0
SEQEND
  0
LINE
  8
型材断面
  6
CONTINUOUS
 62
    47
 10
-105.725685
 20
-61.162485
 11
-105.725405
 21
-61.162485
  0
ARC
  8
型材断面
  6
CONTINUOUS
 62
    47
 10
-105.735185
 20
-61.247484
 40
0.015
 50
180.0
 51
270.0
  0
LINE
  8
型材断面
  6
CONTINUOUS
 62
    47
 10
-108.600388
 20
-57.362485
 11
-108.600382
 21
-57.612485
  0
LINE
  8
型材断面
  6
CONTINUOUS
 62
    47
 10
-108.243335
 20
-57.005433
 11
-108.600388
 21
-57.362485
  0
LINE
  8
型材断面
  6
CONTINUOUS
 62
    47
 10
-105.750185
 20
-61.247485
 11
-105.750185
 21
-61.187485
  0
ARC
  8
型材断面
  6
CONTINUOUS
 62
    47
 10
-105.725185
 20
-61.187484
 40
0.025
 50
89.999657
 51
180.0
  0
LINE
  8
型材断面
  6
CONTINUOUS
 62
    47
 10
-104.975185
 20
-67.23756
 11
-104.975185
 21
-66.48756
  0
LINE
  8
型材断面
  6
CONTINUOUS
 62
    47
 10
-105.725185
 20
-66.48756
 11
-105.725185
 21
-61.51256
  0
LINE
  8
型材断面
  6
CONTINUOUS
 62
    47
 10
-104.574965
 20
-61.37756
 11
-104.574965
 21
-61.262485
  0
LINE
  8
型材断面
  6
CONTINUOUS
 62
    47
 10
-104.324965
 20
-61.51256
 11
-104.324965
 21
-61.37756
  0
LINE
  8
型材断面
  6
CONTINUOUS
 62
    47
 10
-105.725185
 20
-61.16249
 11
-105.725185
 21
-59.752485
  0
LINE
  8
型材断面
  6
CONTINUOUS
 62
    47
 10
-107.100185
 20
-59.752485
 11
-107.100185
 21
-58.290005
  0
LINE
  8
型材断面
  6
CONTINUOUS
 62
    47
 10
-107.100185
 20
-58.290005
 11
-107.777703
 21
-57.612485
  0
LINE
  8
型材断面
  6
CONTINUOUS
 62
    47
 10
-108.243335
 20
-57.005433
 11
-107.182668
 21
-55.944768
  0
LINE
  8
型材断面
  6
CONTINUOUS
 10
-102.801322
 20
-55.944768
 11
-103.861988
 21
-57.005433
  0
LINE
  8
型材断面
  6
CONTINUOUS
 10
-104.06909
 20
-56.505433
 11
-107.743335
 21
-56.505433
  0
LINE
  8
型材断面
  6
CONTINUOUS
 10
-103.861988
 20
-57.005433
 11
-108.243335
 21
-57.005433
  0
LINE
  8
型材断面
  6
CONTINUOUS
 10
-92.875185
 20
-41.4605
 11
-87.750185
 21
-41.4605
  0
LINE
  8
型材断面
  6
CONTINUOUS
 10
-92.875185
 20
-41.4605
 11
-92.804475
 21
-41.53121
  0
LINE
  8
型材断面
  6
CONTINUOUS
 10
-87.750185
 20
-41.53121
 11
-92.804475
 21
-41.53121
  0
LINE
  8
型材断面
  6
CONTINUOUS
 10
-92.875185
 20
-41.4605
 11
-87.750185
 21
-36.335498
  0
LINE
  8
型材断面
  6
CONTINUOUS
 10
-82.625185
 20
-41.4605
 11
-87.750185
 21
-41.4605
  0
LINE
  8
型材断面
  6
CONTINUOUS
 10
-82.625185
 20
-41.4605
 11
-82.695895
 21
-41.53121
  0
LINE
  8
型材断面
  6
CONTINUOUS
 10
-87.750185
 20
-41.53121
 11
-82.695895
 21
-41.53121
  0
LINE
  8
型材断面
  6
CONTINUOUS
 10
-82.625185
 20
-41.4605
 11
-87.750185
 21
-36.335498
  0
LINE
  8
型材断面
  6
CONTINUOUS
 10
-107.18267
 20
-55.944768
 11
-92.76912
 21
-41.53121
  0
LINE
  8
型材断面
  6
CONTINUOUS
 10
-104.06909
 20
-56.505433
 11
-89.094877
 21
-41.53121
  0
LINE
  8
型材断面
  6
CONTINUOUS
 10
-108.600388
 20
-57.362485
 11
-87.750185
 21
-57.362485
  0
LINE
  8
型材断面
  6
CONTINUOUS
 62
    47
 10
-108.600382
 20
-57.612485
 11
-87.750185
 21
-57.612485
  0
LINE
  8
型材断面
  6
CONTINUOUS
 10
-107.100185
 20
-58.290005
 11
-87.750185
 21
-58.290005
  0
LINE
  8
型材断面
  6
CONTINUOUS
 62
    47
 10
-107.100185
 20
-59.752485
 11
-87.750185
 21
-59.752485
  0
LINE
  8
型材断面
  6
CONTINUOUS
 10
-103.508425
 20
-55.944768
 11
-87.750185
 21
-55.944768
  0
LINE
  8
型材断面
  6
CONTINUOUS
 62
    47
 10
-105.725185
 20
-61.51256
 11
-87.750185
 21
-61.51256
  0
LINE
  8
型材断面
  6
CONTINUOUS
 62
    47
 10
-105.735185
 20
-61.262485
 11
-87.750185
 21
-61.262485
  0
LINE
  8
型材断面
  6
CONTINUOUS
 62
    47
 10
-104.574965
 20
-61.37756
 11
-87.750185
 21
-61.37756
  0
LINE
  8
型材断面
  6
CONTINUOUS
 62
    47
 10
-104.975185
 20
-67.23756
 11
-87.750185
 21
-67.23756
  0
LINE
  8
型材断面
  6
CONTINUOUS
 62
    47
 10
-105.725185
 20
-66.48756
 11
-87.750185
 21
-66.48756
  0
LINE
  8
型材断面
  6
CONTINUOUS
 62
    47
 10
-69.774685
 20
-61.162485
 11
-69.774965
 21
-61.162485
  0
ARC
  8
型材断面
  6
CONTINUOUS
 62
    47
 10
-69.765185
 20
-61.247484
 40
0.015
 50
270.0
 51
360.0
  0
LINE
  8
型材断面
  6
CONTINUOUS
 62
    47
 10
-66.899982
 20
-57.362485
 11
-66.899988
 21
-57.612485
  0
LINE
  8
型材断面
  6
CONTINUOUS
 62
    47
 10
-67.257035
 20
-57.005433
 11
-66.899982
 21
-57.362485
  0
LINE
  8
型材断面
  6
CONTINUOUS
 62
    47
 10
-69.750185
 20
-61.247485
 11
-69.750185
 21
-61.187485
  0
ARC
  8
型材断面
  6
CONTINUOUS
 62
    47
 10
-69.775185
 20
-61.187484
 40
0.025
 50
0.0
 51
90.000343
  0
LINE
  8
型材断面
  6
CONTINUOUS
 62
    47
 10
-70.525185
 20
-67.23756
 11
-70.525185
 21
-66.48756
  0
LINE
  8
型材断面
  6
CONTINUOUS
 62
    47
 10
-69.775185
 20
-66.48756
 11
-69.775185
 21
-61.51256
  0
LINE
  8
型材断面
  6
CONTINUOUS
 62
    47
 10
-70.925405
 20
-61.37756
 11
-70.925405
 21
-61.262485
  0
LINE
  8
型材断面
  6
CONTINUOUS
 62
    47
 10
-71.175405
 20
-61.51256
 11
-71.175405
 21
-61.37756
  0
LINE
  8
型材断面
  6
CONTINUOUS
 62
    47
 10
-69.775185
 20
-61.16249
 11
-69.775185
 21
-59.752485
  0
LINE
  8
型材断面
  6
CONTINUOUS
 62
    47
 10
-68.400185
 20
-59.752485
 11
-68.400185
 21
-58.290005
  0
LINE
  8
型材断面
  6
CONTINUOUS
 62
    47
 10
-68.400185
 20
-58.290005
 11
-67.722667
 21
-57.612485
  0
LINE
  8
型材断面
  6
CONTINUOUS
 62
    47
 10
-67.257035
 20
-57.005433
 11
-68.317702
 21
-55.944768
  0
LINE
  8
型材断面
  6
CONTINUOUS
 10
-72.699047
 20
-55.944768
 11
-71.638382
 21
-57.005433
  0
LINE
  8
型材断面
  6
CONTINUOUS
 10
-71.43128
 20
-56.505433
 11
-67.757035
 21
-56.505433
  0
LINE
  8
型材断面
  6
CONTINUOUS
 10
-71.638382
 20
-57.005433
 11
-67.257035
 21
-57.005433
  0
LINE
  8
型材断面
  6
CONTINUOUS
 10
-68.3177
 20
-55.944768
 11
-82.73125
 21
-41.53121
  0
LINE
  8
型材断面
  6
CONTINUOUS
 10
-71.43128
 20
-56.505433
 11
-86.405493
 21
-41.53121
  0
LINE
  8
型材断面
  6
CONTINUOUS
 10
-66.899982
 20
-57.362485
 11
-87.750185
 21
-57.362485
  0
LINE
  8
型材断面
  6
CONTINUOUS
 62
    47
 10
-66.899988
 20
-57.612485
 11
-87.750185
 21
-57.612485
  0
LINE
  8
型材断面
  6
CONTINUOUS
 10
-68.400185
 20
-58.290005
 11
-87.750185
 21
-58.290005
  0
LINE
  8
型材断面
  6
CONTINUOUS
 62
    47
 10
-68.400185
 20
-59.752485
 11
-87.750185
 21
-59.752485
  0
LINE
  8
型材断面
  6
CONTINUOUS
 10
-71.991945
 20
-55.944768
 11
-87.750185
 21
-55.944768
  0
LINE
  8
型材断面
  6
CONTINUOUS
 62
    47
 10
-69.775185
 20
-61.51256
 11
-87.750185
 21
-61.51256
  0
LINE
  8
型材断面
  6
CONTINUOUS
 62
    47
 10
-69.765185
 20
-61.262485
 11
-87.750185
 21
-61.262485
  0
LINE
  8
型材断面
  6
CONTINUOUS
 62
    47
 10
-70.925405
 20
-61.37756
 11
-87.750185
 21
-61.37756
  0
LINE
  8
型材断面
  6
CONTINUOUS
 62
    47
 10
-70.525185
 20
-67.23756
 11
-87.750185
 21
-67.23756
  0
LINE
  8
型材断面
  6
CONTINUOUS
 62
    47
 10
-69.775185
 20
-66.48756
 11
-87.750185
 21
-66.48756
  0
LINE
  8
型材断面
  6
DASHDOT
 10
-102.750185
 20
42.39546
 11
-102.750185
 21
-67.23756
  0
LINE
  8
型材断面
  6
DASHDOT
 10
-72.750185
 20
42.39546
 11
-72.750185
 21
-67.23756
  0
LINE
  8
型材断面
  6
DASHDOT
 10
-87.750185
 20
42.39546
 11
-87.750185
 21
-67.23756
  0
LINE
  8
型材断面
  6
CONTINUOUS
 62
    47
 10
25.530665
 20
-61.162485
 11
25.530945
 21
-61.162485
  0
ARC
  8
型材断面
  6
CONTINUOUS
 62
    47
 10
25.521165
 20
-61.247484
 40
0.015
 50
180.0
 51
270.0
  0
LINE
  8
型材断面
  6
CONTINUOUS
 62
    47
 10
22.655962
 20
-57.362485
 11
22.655968
 21
-57.612485
  0
LINE
  8
型材断面
  6
CONTINUOUS
 62
    47
 10
23.013015
 20
-57.005433
 11
22.655962
 21
-57.362485
  0
LINE
  8
型材断面
  6
CONTINUOUS
 62
    47
 10
25.506165
 20
-61.247485
 11
25.506165
 21
-61.187485
  0
ARC
  8
型材断面
  6
CONTINUOUS
 62
    47
 10
25.531165
 20
-61.187484
 40
0.025
 50
89.999657
 51
180.0
  0
LINE
  8
型材断面
  6
CONTINUOUS
 62
    47
 10
26.281165
 20
-67.23756
 11
26.281165
 21
-66.48756
  0
LINE
  8
型材断面
  6
CONTINUOUS
 62
    47
 10
25.531165
 20
-66.48756
 11
25.531165
 21
-61.51256
  0
LINE
  8
型材断面
  6
CONTINUOUS
 62
    47
 10
26.681385
 20
-61.37756
 11
26.681385
 21
-61.262485
  0
LINE
  8
型材断面
  6
CONTINUOUS
 62
    47
 10
26.931385
 20
-61.51256
 11
26.931385
 21
-61.37756
  0
LINE
  8
型材断面
  6
CONTINUOUS
 62
    47
 10
25.531165
 20
-61.16249
 11
25.531165
 21
-59.752485
  0
LINE
  8
型材断面
  6
CONTINUOUS
 62
    47
 10
24.156165
 20
-59.752485
 11
24.156165
 21
-58.290005
  0
LINE
  8
型材断面
  6
CONTINUOUS
 62
    47
 10
24.156165
 20
-58.290005
 11
23.478648
 21
-57.612485
  0
LINE
  8
型材断面
  6
CONTINUOUS
 62
    47
 10
23.013015
 20
-57.005433
 11
24.073682
 21
-55.944768
  0
LINE
  8
型材断面
  6
CONTINUOUS
 10
28.455027
 20
-55.944768
 11
27.394362
 21
-57.005433
  0
LINE
  8
型材断面
  6
CONTINUOUS
 10
27.18726
 20
-56.505433
 11
23.513015
 21
-56.505433
  0
LINE
  8
型材断面
  6
CONTINUOUS
 10
27.394362
 20
-57.005433
 11
23.013015
 21
-57.005433
  0
LINE
  8
型材断面
  6
CONTINUOUS
 10
38.381165
 20
-41.4605
 11
43.506165
 21
-41.4605
  0
LINE
  8
型材断面
  6
CONTINUOUS
 10
38.381165
 20
-41.4605
 11
38.451875
 21
-41.53121
  0
LINE
  8
型材断面
  6
CONTINUOUS
 10
43.506165
 20
-41.53121
 11
38.451875
 21
-41.53121
  0
LINE
  8
型材断面
  6
CONTINUOUS
 10
38.381165
 20
-41.4605
 11
43.506165
 21
-36.335498
  0
LINE
  8
型材断面
  6
CONTINUOUS
 10
48.631165
 20
-41.4605
 11
43.506165
 21
-41.4605
  0
LINE
  8
型材断面
  6
CONTINUOUS
 10
48.631165
 20
-41.4605
 11
48.560455
 21
-41.53121
  0
LINE
  8
型材断面
  6
CONTINUOUS
 10
43.506165
 20
-41.53121
 11
48.560455
 21
-41.53121
  0
LINE
  8
型材断面
  6
CONTINUOUS
 10
48.631165
 20
-41.4605
 11
43.506165
 21
-36.335498
  0
LINE
  8
型材断面
  6
CONTINUOUS
 10
24.07368
 20
-55.944768
 11
38.48723
 21
-41.53121
  0
LINE
  8
型材断面
  6
CONTINUOUS
 10
27.18726
 20
-56.505433
 11
42.161472
 21
-41.53121
  0
LINE
  8
型材断面
  6
CONTINUOUS
 10
22.655962
 20
-57.362485
 11
43.506165
 21
-57.362485
  0
LINE
  8
型材断面
  6
CONTINUOUS
 62
    47
 10
22.655968
 20
-57.612485
 11
43.506165
 21
-57.612485
  0
LINE
  8
型材断面
  6
CONTINUOUS
 10
24.156165
 20
-58.290005
 11
43.506165
 21
-58.290005
  0
LINE
  8
型材断面
  6
CONTINUOUS
 62
    47
 10
24.156165
 20
-59.752485
 11
43.506165
 21
-59.752485
  0
LINE
  8
型材断面
  6
CONTINUOUS
 10
27.747925
 20
-55.944768
 11
43.506165
 21
-55.944768
  0
LINE
  8
型材断面
  6
CONTINUOUS
 62
    47
 10
25.531165
 20
-61.51256
 11
43.506165
 21
-61.51256
  0
LINE
  8
型材断面
  6
CONTINUOUS
 62
    47
 10
25.521165
 20
-61.262485
 11
43.506165
 21
-61.262485
  0
LINE
  8
型材断面
  6
CONTINUOUS
 62
    47
 10
26.681385
 20
-61.37756
 11
43.506165
 21
-61.37756
  0
LINE
  8
型材断面
  6
CONTINUOUS
 62
    47
 10
26.281165
 20
-67.23756
 11
43.506165
 21
-67.23756
  0
LINE
  8
型材断面
  6
CONTINUOUS
 62
    47
 10
25.531165
 20
-66.48756
 11
43.506165
 21
-66.48756
  0
LINE
  8
型材断面
  6
CONTINUOUS
 62
    47
 10
61.481665
 20
-61.162485
 11
61.481385
 21
-61.162485
  0
ARC
  8
型材断面
  6
CONTINUOUS
 62
    47
 10
61.491165
 20
-61.247484
 40
0.015
 50
270.0
 51
360.0
  0
LINE
  8
型材断面
  6
CONTINUOUS
 62
    47
 10
64.356367
 20
-57.362485
 11
64.356363
 21
-57.612485
  0
LINE
  8
型材断面
  6
CONTINUOUS
 62
    47
 10
63.999315
 20
-57.005433
 11
64.356367
 21
-57.362485
  0
LINE
  8
型材断面
  6
CONTINUOUS
 62
    47
 10
61.506165
 20
-61.247485
 11
61.506165
 21
-61.187485
  0
ARC
  8
型材断面
  6
CONTINUOUS
 62
    47
 10
61.481165
 20
-61.187484
 40
0.025
 50
0.0
 51
90.000343
  0
LINE
  8
型材断面
  6
CONTINUOUS
 62
    47
 10
60.731165
 20
-67.23756
 11
60.731165
 21
-66.48756
  0
LINE
  8
型材断面
  6
CONTINUOUS
 62
    47
 10
61.481165
 20
-66.48756
 11
61.481165
 21
-61.51256
  0
LINE
  8
型材断面
  6
CONTINUOUS
 62
    47
 10
60.330945
 20
-61.37756
 11
60.330945
 21
-61.262485
  0
LINE
  8
型材断面
  6
CONTINUOUS
 62
    47
 10
60.080945
 20
-61.51256
 11
60.080945
 21
-61.37756
  0
LINE
  8
型材断面
  6
CONTINUOUS
 62
    47
 10
61.481165
 20
-61.16249
 11
61.481165
 21
-59.752485
  0
LINE
  8
型材断面
  6
CONTINUOUS
 62
    47
 10
62.856165
 20
-59.752485
 11
62.856165
 21
-58.290005
  0
LINE
  8
型材断面
  6
CONTINUOUS
 62
    47
 10
62.856165
 20
-58.290005
 11
63.533683
 21
-57.612485
  0
LINE
  8
型材断面
  6
CONTINUOUS
 62
    47
 10
63.999315
 20
-57.005433
 11
62.938647
 21
-55.944768
  0
LINE
  8
型材断面
  6
CONTINUOUS
 10
58.557302
 20
-55.944768
 11
59.617967
 21
-57.005433
  0
LINE
  8
型材断面
  6
CONTINUOUS
 10
59.82507
 20
-56.505433
 11
63.499315
 21
-56.505433
  0
LINE
  8
型材断面
  6
CONTINUOUS
 10
59.617967
 20
-57.005433
 11
63.999315
 21
-57.005433
  0
LINE
  8
型材断面
  6
CONTINUOUS
 10
62.93865
 20
-55.944768
 11
48.5251
 21
-41.53121
  0
LINE
  8
型材断面
  6
CONTINUOUS
 10
59.82507
 20
-56.505433
 11
44.850857
 21
-41.53121
  0
LINE
  8
型材断面
  6
CONTINUOUS
 10
64.356367
 20
-57.362485
 11
43.506165
 21
-57.362485
  0
LINE
  8
型材断面
  6
CONTINUOUS
 62
    47
 10
64.356363
 20
-57.612485
 11
43.506165
 21
-57.612485
  0
LINE
  8
型材断面
  6
CONTINUOUS
 10
62.856165
 20
-58.290005
 11
43.506165
 21
-58.290005
  0
LINE
  8
型材断面
  6
CONTINUOUS
 62
    47
 10
62.856165
 20
-59.752485
 11
43.506165
 21
-59.752485
  0
LINE
  8
型材断面
  6
CONTINUOUS
 10
59.264405
 20
-55.944768
 11
43.506165
 21
-55.944768
  0
LINE
  8
型材断面
  6
CONTINUOUS
 62
    47
 10
61.481165
 20
-61.51256
 11
43.506165
 21
-61.51256
  0
LINE
  8
型材断面
  6
CONTINUOUS
 62
    47
 10
61.491165
 20
-61.262485
 11
43.506165
 21
-61.262485
  0
LINE
  8
型材断面
  6
CONTINUOUS
 62
    47
 10
60.330945
 20
-61.37756
 11
43.506165
 21
-61.37756
  0
LINE
  8
型材断面
  6
CONTINUOUS
 62
    47
 10
60.731165
 20
-67.23756
 11
43.506165
 21
-67.23756
  0
LINE
  8
型材断面
  6
CONTINUOUS
 62
    47
 10
61.481165
 20
-66.48756
 11
43.506165
 21
-66.48756
  0
LINE
  8
型材断面
  6
DOT
 62
    47
 10
25.530665
 20
-53.662485
 11
25.530945
 21
-53.662485
  0
ARC
  8
型材断面
  6
DOT
 62
    47
 10
25.521165
 20
-53.747484
 40
0.015
 50
180.0
 51
270.0
  0
LINE
  8
型材断面
  6
DOT
 62
    47
 10
22.655962
 20
-49.862485
 11
22.655968
 21
-50.112485
  0
LINE
  8
型材断面
  6
DOT
 62
    47
 10
23.013015
 20
-49.505433
 11
22.655962
 21
-49.862485
  0
LINE
  8
型材断面
  6
DOT
 62
    47
 10
25.506165
 20
-53.747485
 11
25.506165
 21
-53.687485
  0
ARC
  8
型材断面
  6
DOT
 62
    47
 10
25.531165
 20
-53.687484
 40
0.025
 50
89.999657
 51
180.0
  0
LINE
  8
型材断面
  6
DOT
 62
    47
 10
26.681385
 20
-53.87756
 11
26.681385
 21
-53.762485
  0
LINE
  8
型材断面
  6
DOT
 62
    47
 10
25.531165
 20
-53.66249
 11
25.531165
 21
-52.252485
  0
LINE
  8
型材断面
  6
DOT
 62
    47
 10
24.156165
 20
-52.252485
 11
24.156165
 21
-50.790005
  0
LINE
  8
型材断面
  6
DOT
 62
    47
 10
24.156165
 20
-50.790005
 11
23.478648
 21
-50.112485
  0
LINE
  8
型材断面
  6
DOT
 62
    47
 10
23.013015
 20
-49.505433
 11
24.073682
 21
-48.444768
  0
LINE
  8
型材断面
  6
DOT
 10
28.455027
 20
-48.444768
 11
27.394362
 21
-49.505433
  0
LINE
  8
型材断面
  6
DOT
 10
27.18726
 20
-49.005433
 11
23.513015
 21
-49.005433
  0
LINE
  8
型材断面
  6
DOT
 10
27.394362
 20
-49.505433
 11
23.013015
 21
-49.505433
  0
LINE
  8
型材断面
  6
DOT
 10
38.381165
 20
-33.9605
 11
43.506165
 21
-33.9605
  0
LINE
  8
型材断面
  6
DOT
 10
38.381165
 20
-33.9605
 11
38.451875
 21
-34.03121
  0
LINE
  8
型材断面
  6
DOT
 10
43.506165
 20
-34.03121
 11
38.451875
 21
-34.03121
  0
LINE
  8
型材断面
  6
DOT
 10
38.381165
 20
-33.9605
 11
43.506165
 21
-28.835498
  0
LINE
  8
型材断面
  6
DOT
 10
48.631165
 20
-33.9605
 11
43.506165
 21
-33.9605
  0
LINE
  8
型材断面
  6
DOT
 10
48.631165
 20
-33.9605
 11
48.560455
 21
-34.03121
  0
LINE
  8
型材断面
  6
DOT
 10
43.506165
 20
-34.03121
 11
48.560455
 21
-34.03121
  0
LINE
  8
型材断面
  6
DOT
 10
48.631165
 20
-33.9605
 11
43.506165
 21
-28.835498
  0
LINE
  8
型材断面
  6
DOT
 10
24.07368
 20
-48.444768
 11
38.48723
 21
-34.03121
  0
LINE
  8
型材断面
  6
DOT
 10
27.18726
 20
-49.005433
 11
42.161472
 21
-34.03121
  0
LINE
  8
型材断面
  6
DOT
 10
22.655962
 20
-49.862485
 11
43.506165
 21
-49.862485
  0
LINE
  8
型材断面
  6
DOT
 62
    47
 10
22.655968
 20
-50.112485
 11
43.506165
 21
-50.112485
  0
LINE
  8
型材断面
  6
DOT
 10
24.156165
 20
-50.790005
 11
43.506165
 21
-50.790005
  0
LINE
  8
型材断面
  6
DOT
 62
    47
 10
24.156165
 20
-52.252485
 11
43.506165
 21
-52.252485
  0
LINE
  8
型材断面
  6
DOT
 10
27.747925
 20
-48.444768
 11
43.506165
 21
-48.444768
  0
LINE
  8
型材断面
  6
DOT
 62
    47
 10
25.521165
 20
-53.762485
 11
43.506165
 21
-53.762485
  0
LINE
  8
型材断面
  6
DOT
 62
    47
 10
26.681385
 20
-53.87756
 11
43.506165
 21
-53.87756
  0
LINE
  8
型材断面
  6
DOT
 62
    47
 10
61.481665
 20
-53.662485
 11
61.481385
 21
-53.662485
  0
ARC
  8
型材断面
  6
DOT
 62
    47
 10
61.491165
 20
-53.747484
 40
0.015
 50
270.0
 51
360.0
  0
LINE
  8
型材断面
  6
DOT
 62
    47
 10
64.356367
 20
-49.862485
 11
64.356363
 21
-50.112485
  0
LINE
  8
型材断面
  6
DOT
 62
    47
 10
63.999315
 20
-49.505433
 11
64.356367
 21
-49.862485
  0
LINE
  8
型材断面
  6
DOT
 62
    47
 10
61.506165
 20
-53.747485
 11
61.506165
 21
-53.687485
  0
ARC
  8
型材断面
  6
DOT
 62
    47
 10
61.481165
 20
-53.687484
 40
0.025
 50
0.0
 51
90.000343
  0
LINE
  8
型材断面
  6
DOT
 62
    47
 10
60.330945
 20
-53.87756
 11
60.330945
 21
-53.762485
  0
LINE
  8
型材断面
  6
DOT
 62
    47
 10
61.481165
 20
-53.66249
 11
61.481165
 21
-52.252485
  0
LINE
  8
型材断面
  6
DOT
 62
    47
 10
62.856165
 20
-52.252485
 11
62.856165
 21
-50.790005
  0
LINE
  8
型材断面
  6
DOT
 62
    47
 10
62.856165
 20
-50.790005
 11
63.533683
 21
-50.112485
  0
LINE
  8
型材断面
  6
DOT
 62
    47
 10
63.999315
 20
-49.505433
 11
62.938647
 21
-48.444768
  0
LINE
  8
型材断面
  6
DOT
 10
58.557302
 20
-48.444768
 11
59.617967
 21
-49.505433
  0
LINE
  8
型材断面
  6
DOT
 10
59.82507
 20
-49.005433
 11
63.499315
 21
-49.005433
  0
LINE
  8
型材断面
  6
DOT
 10
59.617967
 20
-49.505433
 11
63.999315
 21
-49.505433
  0
LINE
  8
型材断面
  6
DOT
 10
62.93865
 20
-48.444768
 11
48.5251
 21
-34.03121
  0
LINE
  8
型材断面
  6
DOT
 10
59.82507
 20
-49.005433
 11
44.850857
 21
-34.03121
  0
LINE
  8
型材断面
  6
DOT
 10
64.356367
 20
-49.862485
 11
43.506165
 21
-49.862485
  0
LINE
  8
型材断面
  6
DOT
 62
    47
 10
64.356363
 20
-50.112485
 11
43.506165
 21
-50.112485
  0
LINE
  8
型材断面
  6
DOT
 10
62.856165
 20
-50.790005
 11
43.506165
 21
-50.790005
  0
LINE
  8
型材断面
  6
DOT
 62
    47
 10
62.856165
 20
-52.252485
 11
43.506165
 21
-52.252485
  0
LINE
  8
型材断面
  6
DOT
 10
59.264405
 20
-48.444768
 11
43.506165
 21
-48.444768
  0
LINE
  8
型材断面
  6
DOT
 62
    47
 10
61.491165
 20
-53.762485
 11
43.506165
 21
-53.762485
  0
LINE
  8
型材断面
  6
DOT
 62
    47
 10
60.330945
 20
-53.87756
 11
43.506165
 21
-53.87756
  0
LINE
  8
型材断面
  6
CONTINUOUS
 10
113.785462
 20
-68.537625
 11
137.717085
 21
-68.537625
  0
LINE
  8
型材断面
  6
CONTINUOUS
 10
1.482467
 20
-22.009117
 11
54.139148
 21
-22.009117
  0
LINE
  8
ガラス
  6
CONTINUOUS
 10
-85.370128
 20
57.119403
 11
-89.242763
 21
53.246767
  0
LINE
  8
ガラス
  6
CONTINUOUS
 10
-86.968485
 20
56.23908
 11
-88.36244
 21
54.845125
  0
LINE
  8
ガラス
  6
CONTINUOUS
 10
-86.25045
 20
55.521045
 11
-87.644405
 21
54.12709
  0
LINE
  8
ガラス
  6
CONTINUOUS
 10
-85.370128
 20
32.21439
 11
-89.242763
 21
28.341755
  0
LINE
  8
ガラス
  6
CONTINUOUS
 10
-86.968485
 20
31.334067
 11
-88.36244
 21
29.940113
  0
LINE
  8
ガラス
  6
CONTINUOUS
 10
-86.25045
 20
30.616033
 11
-87.644405
 21
29.222077
  0
LINE
  8
ガラス
  6
CONTINUOUS
 10
-74.021853
 20
44.439475
 11
-77.894488
 21
40.56684
  0
LINE
  8
ガラス
  6
CONTINUOUS
 10
-75.62021
 20
43.559152
 11
-77.014165
 21
42.165198
  0
LINE
  8
ガラス
  6
CONTINUOUS
 10
-74.902175
 20
42.841117
 11
-76.29613
 21
41.447163
  0
LINE
  8
ガラス
  6
CONTINUOUS
 10
-98.217667
 20
44.439475
 11
-102.090302
 21
40.56684
  0
LINE
  8
ガラス
  6
CONTINUOUS
 10
-99.816025
 20
43.559152
 11
-101.20998
 21
42.165198
  0
LINE
  8
ガラス
  6
CONTINUOUS
 10
-99.09799
 20
42.841117
 11
-100.491945
 21
41.447163
  0
LINE
  8
ガラス
  6
CONTINUOUS
 10
-85.655945
 20
-48.140523
 11
-89.52858
 21
-52.013158
  0
LINE
  8
ガラス
  6
CONTINUOUS
 10
-86.536268
 20
-49.73888
 11
-87.930223
 21
-51.132835
  0
LINE
  8
ガラス
  6
CONTINUOUS
 10
-87.254302
 20
-49.020845
 11
-88.648258
 21
-50.4148
  0
TEXT
  7
TextStyle03
  8
文字
  6
CONTINUOUS
 10
14.825
 20
4.65
  1
は排水穴位置を示す
 40
3.0
 72
     5
 11
44.825
 21
4.65
  0
TEXT
  7
TextStyle03
  8
文字
  6
CONTINUOUS
 10
14.825
 20
-3.2
  1
はケーシング位置を示す
 40
3.0
 72
     5
 11
51.575
 21
-3.2
  0
TEXT
  7
TextStyle03
  8
文字
  6
CONTINUOUS
 10
14.825
 20
-6.575
  1
４ヶ所中1ヶ所に設定
 40
3.0
 72
     5
 11
46.5125
 21
-6.575
  0
TEXT
  7
TextStyle03
  8
文字
  6
CONTINUOUS
 10
-109.125
 20
83.775
  1
アンカーピッチ
 40
3.0
 72
     5
 11
-85.875
 21
83.775
  0
TEXT
  7
TextStyle03
  8
文字
  6
CONTINUOUS
 10
-47.8
 20
34.775
  1
ﾊﾞﾗﾝｽｽﾃｰ
 40
3.0
 72
     5
 11
-34.4875
 21
34.775
  0
TEXT
  7
TextStyle03
  8
文字
  6
CONTINUOUS
 10
-96.1
 20
9.625
  1
可動装置側
 40
3.0
 72
     5
 11
-79.6
 21
9.625
  0
TEXT
  7
TextStyle03
  8
文字
  6
CONTINUOUS
 10
-96.1
 20
72.0
  1
可動装置側
 40
3.0
 72
     5
 11
-79.6
 21
72.0
  0
TEXT
  7
TextStyle03
  8
文字
  6
CONTINUOUS
 10
9.225
 20
-13.725
  1
アンカー数量　４ヶ所
 40
3.0
 72
     5
 11
42.6
 21
-13.725
  0
TEXT
  7
TextStyle03
  8
文字
  6
CONTINUOUS
 10
66.325
 20
95.525
  1
ＮＳコード：ＮＳ４ＣＺ
 40
5.0
 72
     5
 11
127.575
 21
95.525
  0
TEXT
  7
TextStyle03
  8
文字
  6
CONTINUOUS
 10
149.65
 20
-89.0
  1
×４枚
 40
3.0
 72
     5
 11
159.4
 21
-89.0
  0
TEXT
  7
TextStyle03
  8
文字
  6
CONTINUOUS
 10
117.375
 20
-67.325
  1
ガラス寸法
 40
3.0
 72
     5
 11
133.875
 21
-67.325
  0
TEXT
  7
TextStyle03
  8
文字
  6
CONTINUOUS
 10
9.15
 20
-20.575
  1
アームユニット数　２ヶ所
 40
3.0
 72
     5
 11
49.275
 21
-20.575
  0
TEXT
  7
TextStyle03
  8
文字
  6
CONTINUOUS
 10
66.625
 20
117.825
  1
シリーズ：ＴＦ２４
 40
5.0
 72
     5
 11
116.625
 21
117.825
  0
TEXT
  7
TextStyle03
  8
文字
  6
CONTINUOUS
 10
66.625
 20
112.2
  1
　　　　　四角錘（上下可動）600×600タイプ
 40
5.0
 72
     5
 11
184.125
 21
112.2
  0
TEXT
  7
TextStyle03
  8
文字
  6
CONTINUOUS
 10
66.625
 20
106.575
  1
図面名　：外観姿図
 40
5.0
 72
     5
 11
116.625
 21
106.575
  0
TEXT
  7
TextStyle03
  8
文字
  6
CONTINUOUS
 10
66.625
 20
100.95
  1
　　　　　　
 40
5.0
 72
     5
 11
99.75
 21
100.95
  0
INSERT
  2
*DIM_0002
  8
寸法
  6
CONTINUOUS
 10
0.0
 20
0.0
  0
INSERT
  2
*DIM_0003
  8
寸法
  6
CONTINUOUS
 10
0.0
 20
0.0
  0
INSERT
  2
*DIM_0004
  8
寸法
  6
CONTINUOUS
 10
0.0
 20
0.0
  0
INSERT
  2
*GRP_0005
  8
寸法
  6
CONTINUOUS
 10
0.0
 20
0.0
  0
INSERT
  2
*DIM_0006
  8
寸法
  6
CONTINUOUS
 10
0.0
 20
0.0
  0
INSERT
  2
*DIM_0007
  8
寸法
  6
CONTINUOUS
 10
0.0
 20
0.0
  0
INSERT
  2
*DIM_0008
  8
寸法
  6
CONTINUOUS
 10
0.0
 20
0.0
  0
INSERT
  2
*DIM_0009
  8
寸法
  6
CONTINUOUS
 10
0.0
 20
0.0
  0
INSERT
  2
*DIM_0010
  8
寸法
  6
CONTINUOUS
 10
0.0
 20
0.0
  0
INSERT
  2
*DIM_0011
  8
寸法
  6
CONTINUOUS
 10
0.0
 20
0.0
  0
INSERT
  2
*DIM_0012
  8
寸法
  6
CONTINUOUS
 10
0.0
 20
0.0
  0
INSERT
  2
*DIM_0013
  8
寸法
  6
CONTINUOUS
 10
0.0
 20
0.0
  0
INSERT
  2
*DIM_0014
  8
寸法
  6
CONTINUOUS
 10
0.0
 20
0.0
  0
INSERT
  2
*DIM_0015
  8
寸法
  6
CONTINUOUS
 10
0.0
 20
0.0
  0
LINE
  8
曲げ物
  6
CONTINUOUS
 10
165.106022
 20
-90.687698
 11
130.326022
 21
-90.687698
  0
LINE
  8
曲げ物
  6
CONTINUOUS
 10
130.326022
 20
-90.687698
 11
147.716022
 21
-66.094628
  0
LINE
  8
曲げ物
  6
CONTINUOUS
 10
165.106022
 20
-90.687698
 11
147.716022
 21
-66.094628
  0
ENDSEC
  0
EOF
