  0
SECTION
  2
HEADER
  9
$EXTMIN
 10
-210.0
 20
-148.5
  9
$EXTMAX
 10
210.0
 20
148.5
  9
$PDMODE
 70
    32
  9
$PDSIZE
 40
1.5
  9
$LTSCALE
 40
10.0
  0
ENDSEC
  0
SECTION
  2
TABLES
  0
TABLE
  2
LTYPE
 70
    15
  0
LTYPE
  2
CONTINUOUS
 70
    64
  3
実線
 72
    65
 73
     0
 40
0.0
  0
LTYPE
  2
DASHED
 70
    64
  3
破線A
 72
    65
 73
     2
 40
0.6
 49
0.4
 49
-0.2
  0
LTYPE
  2
DASHEDX2
 70
    64
  3
破線B
 72
    65
 73
     2
 40
1.3
 49
0.9
 49
-0.4
  0
LTYPE
  2
DASHDOT
 70
    64
  3
１点鎖線A
 72
    65
 73
     4
 40
0.5375
 49
0.375
 49
-0.05
 49
0.0625
 49
-0.05
  0
LTYPE
  2
DASHDOTX2
 70
    64
  3
１点鎖線B
 72
    65
 73
     4
 40
1.075
 49
0.75
 49
-0.1
 49
0.125
 49
-0.1
  0
LTYPE
  2
DIVIDE2
 70
    64
  3
２点鎖線A
 72
    65
 73
     6
 40
0.5125
 49
0.3
 49
-0.0375
 49
0.05
 49
-0.0375
 49
0.05
 49
-0.0375
  0
LTYPE
  2
DIVIDE
 70
    64
  3
２点鎖線B
 72
    65
 73
     6
 40
1.05
 49
0.55
 49
-0.1
 49
0.1
 49
-0.1
 49
0.1
 49
-0.1
  0
LTYPE
  2
DOT
 70
    64
  3
点線A
 72
    65
 73
     2
 40
0.1125
 49
0.0625
 49
-0.05
  0
LTYPE
  2
DOTX2
 70
    64
  3
点線B
 72
    65
 73
     2
 40
0.275
 49
0.15
 49
-0.125
  0
LTYPE
  2
CONTINUOUS
 70
    64
  3
実線
 72
    65
 73
     0
 40
0.0
  0
LTYPE
  2
CONTINUOUS
 70
    64
  3
実線
 72
    65
 73
     0
 40
0.0
  0
LTYPE
  2
CONTINUOUS
 70
    64
  3
実線
 72
    65
 73
     0
 40
0.0
  0
LTYPE
  2
CONTINUOUS
 70
    64
  3
実線
 72
    65
 73
     0
 40
0.0
  0
LTYPE
  2
CONTINUOUS
 70
    64
  3
実線
 72
    65
 73
     0
 40
0.0
  0
LTYPE
  2
CONTINUOUS
 70
    64
  3
実線
 72
    65
 73
     0
 40
0.0
  0
ENDTAB
  0
TABLE
  2
LAYER
 70
    34
  0
LAYER
  2
通り芯
 70
     0
 62
    15
  6
CONTINUOUS
  0
LAYER
  2
補助線
 70
     0
 62
    16
  6
DOT
  0
LAYER
  2
躯体
 70
     0
 62
    31
  6
CONTINUOUS
  0
LAYER
  2
型材
 70
     0
 62
    32
  6
CONTINUOUS
  0
LAYER
  2
型材断面
 70
     0
 62
    47
  6
CONTINUOUS
  0
LAYER
  2
ガラス
 70
     0
 62
    48
  6
CONTINUOUS
  0
LAYER
  2
ゴム等
 70
     0
 62
    63
  6
CONTINUOUS
  0
LAYER
  2
ボルト／ビス
 70
     0
 62
    64
  6
CONTINUOUS
  0
LAYER
  2
文字
 70
     0
 62
    79
  6
CONTINUOUS
  0
LAYER
  2
寸法
 70
     0
 62
    80
  6
CONTINUOUS
  0
LAYER
  2
ﾊｯﾁﾝｸﾞ
 70
     0
 62
    95
  6
CONTINUOUS
  0
LAYER
  2
別途部材
 70
     0
 62
    96
  6
CONTINUOUS
  0
LAYER
  2
曲げ物
 70
     0
 62
   111
  6
CONTINUOUS
  0
LAYER
  2
鉄骨等
 70
     0
 62
   112
  6
CONTINUOUS
  0
LAYER
  2
St
 70
     0
 62
   127
  6
CONTINUOUS
  0
LAYER
  2
その他部品等
 70
     0
 62
   128
  6
CONTINUOUS
  0
LAYER
  2
ｶﾞｽｹｯﾄ
 70
     0
 62
   143
  6
CONTINUOUS
  0
LAYER
  2
ｽｹｯﾁ
 70
     0
 62
    14
  6
CONTINUOUS
  0
LAYER
  2
0
 70
     0
 62
    17
  6
CONTINUOUS
  0
LAYER
  2
1
 70
     0
 62
    30
  6
CONTINUOUS
  0
LAYER
  2
4
 70
     0
 62
    33
  6
CONTINUOUS
  0
LAYER
  2
ﾚｲﾔ3
 70
     0
 62
    46
  6
CONTINUOUS
  0
LAYER
  2
外形線
 70
     0
 62
    49
  6
CONTINUOUS
  0
LAYER
  2
部品
 70
     0
 62
    14
  6
CONTINUOUS
  0
LAYER
  2
サッシ芯
 70
     0
 62
    17
  6
DASHDOTX2
  0
LAYER
  2
寸法線
 70
     0
 62
    62
  6
CONTINUOUS
  0
LAYER
  2
姿図外形線
 70
     0
 62
    65
  6
CONTINUOUS
  0
LAYER
  2
姿補助線
 70
     0
 62
    30
  6
CONTINUOUS
  0
LAYER
  2
透視線
 70
     0
 62
    78
  6
DOT
  0
LAYER
  2
用紙
 70
     0
 62
    81
  6
CONTINUOUS
  0
LAYER
  2
実線図枠
 70
     0
 62
    94
  6
CONTINUOUS
  0
LAYER
  2
補助図枠
 70
     0
 62
    97
  6
CONTINUOUS
  0
LAYER
  2
建具記号
 70
     0
 62
   110
  6
CONTINUOUS
  0
LAYER
  2
補助文字
 70
     0
 62
   113
  6
CONTINUOUS
  0
ENDTAB
  0
TABLE
  2
STYLE
 70
    10
  0
STYLE
  2
STANDARD
 70
     0
 40
1.0
 41
1.0
 42
1.0
 50
0.0
 71
     0
  3
TXT
  4
BIGFONT
  0
STYLE
  2
TATE
 70
     4
 40
1.0
 41
1.0
 42
1.0
 50
0.0
 71
     0
  3
TXT
  4
BIGFONT
  0
STYLE
  2
TextStyle03
 70
     0
 40
1.0
 41
1.0
 42
1.0
 50
0.0
 71
     0
  3
MONOTXT
  4
BIGFONT
  0
STYLE
  2
TextStyle04
 70
     0
 40
1.0
 41
1.0
 42
1.0
 50
0.0
 71
     0
  3
MONOTXT
  4
BIGFONT
  0
STYLE
  2
TextStyle05
 70
     0
 40
1.0
 41
1.0
 42
1.0
 50
0.0
 71
     0
  3
MONOTXT
  4
BIGFONT
  0
STYLE
  2
TextStyle06
 70
     0
 40
1.0
 41
1.0
 42
1.0
 50
0.0
 71
     0
  3
MONOTXT
  4
BIGFONT
  0
STYLE
  2
TextStyle07
 70
     0
 40
1.0
 41
1.0
 42
1.0
 50
0.0
 71
     0
  3
MONOTXT
  4
BIGFONT
  0
STYLE
  2
TextStyle08
 70
     0
 40
1.0
 41
1.0
 42
1.0
 50
0.0
 71
     0
  3
MONOTXT
  4
BIGFONT
  0
STYLE
  2
TextStyle09
 70
     0
 40
1.0
 41
1.0
 42
1.0
 50
0.0
 71
     0
  3
MONOTXT
  4
BIGFONT
  0
STYLE
  2
TextStyle10
 70
     0
 40
1.0
 41
1.0
 42
1.0
 50
0.0
 71
     0
  3
MONOTXT
  4
BIGFONT
  0
ENDTAB
  0
ENDSEC
  0
SECTION
  2
BLOCKS
  0
BLOCK
  2
*GRP_0001
 70
    65
 10
0.0
 20
0.0
  0
LINE
  8
型材断面
  6
CONTINUOUS
 10
195.0
 20
133.5
 11
195.0
 21
-133.5
  0
LINE
  8
型材断面
  6
CONTINUOUS
 10
195.0
 20
-133.5
 11
-185.0
 21
-133.5
  0
LINE
  8
型材断面
  6
CONTINUOUS
 10
-185.0
 20
-133.5
 11
-185.0
 21
133.5
  0
LINE
  8
型材断面
  6
CONTINUOUS
 10
195.0
 20
133.5
 11
-185.0
 21
133.5
  0
LINE
  8
型材断面
  6
CONTINUOUS
 10
145.0
 20
-133.5
 11
145.0
 21
-118.5
  0
LINE
  8
型材断面
  6
CONTINUOUS
 10
195.0
 20
-118.5
 11
145.0
 21
-118.5
  0
ENDBLK
  0
BLOCK
  2
*DIM_0002
 70
    65
 10
0.0
 20
0.0
  0
LINE
  8
寸法
  6
BYBLOCK
 62
     0
 10
-92.875187
 20
-52.619758
 11
-92.875187
 21
-36.280112
  0
LINE
  8
寸法
  6
BYBLOCK
 62
     0
 10
-82.625183
 20
-52.619758
 11
-82.625183
 21
-36.280112
  0
LINE
  8
寸法
  6
BYBLOCK
 62
     0
 10
-92.875187
 20
-36.280112
 11
-82.625183
 21
-36.280112
  0
POINT
  8
寸法
 62
     0
 10
-92.875187
 20
-36.280112
  0
POINT
  8
寸法
 62
     0
 10
-82.625183
 20
-36.280112
  0
TEXT
  7
TextStyle03
  8
寸法
  6
CONTINUOUS
 62
     0
 10
-90.2125
 20
-35.875
  1
205
 40
3.0
 72
     5
 11
-85.3375
 21
-35.875
  0
ENDBLK
  0
BLOCK
  2
*DIM_0003
 70
    65
 10
0.0
 20
0.0
  0
LINE
  8
寸法
  6
BYBLOCK
 62
     0
 10
-73.25809
 20
-48.49476
 11
-72.536697
 21
-48.49476
  0
LINE
  8
寸法
  6
BYBLOCK
 62
     0
 10
-81.625183
 20
-53.619758
 11
-72.536697
 21
-53.619758
  0
LINE
  8
寸法
  6
BYBLOCK
 62
     0
 10
-72.536697
 20
-48.49476
 11
-72.536697
 21
-53.619758
  0
POINT
  8
寸法
 62
     0
 10
-72.536697
 20
-48.49476
  0
POINT
  8
寸法
 62
     0
 10
-72.536697
 20
-53.619758
  0
TEXT
  7
TextStyle03
  8
寸法
  6
CONTINUOUS
 62
     0
 10
-69.55
 20
-55.15
  1
102.5
 40
3.0
 50
90.0
 72
     5
 11
-69.55
 21
-46.9
  0
ENDBLK
  0
BLOCK
  2
*DIM_0004
 70
    65
 10
0.0
 20
0.0
  0
LINE
  8
寸法
  6
BYBLOCK
 62
     0
 10
-31.775185
 20
-113.646843
 11
-18.58125
 21
-113.646843
  0
LINE
  8
寸法
  6
BYBLOCK
 62
     0
 10
-28.899982
 20
-104.521767
 11
-18.58125
 21
-104.521767
  0
LINE
  8
寸法
  6
BYBLOCK
 62
     0
 10
-18.58125
 20
-113.646843
 11
-18.58125
 21
-104.521767
  0
POINT
  8
寸法
 62
     0
 10
-18.58125
 20
-113.646843
  0
POINT
  8
寸法
 62
     0
 10
-18.58125
 20
-104.521767
  0
TEXT
  7
TextStyle03
  8
寸法
  6
CONTINUOUS
 62
     0
 10
-18.975
 20
-113.225
  1
182.5
 40
3.0
 50
90.0
 72
     5
 11
-18.975
 21
-104.975
  0
ENDBLK
  0
BLOCK
  2
*DIM_0005
 70
    65
 10
0.0
 20
0.0
  0
LINE
  8
寸法
  6
BYBLOCK
 62
     0
 10
-84.750185
 20
-48.49476
 11
-18.58125
 21
-48.49476
  0
LINE
  8
寸法
  6
BYBLOCK
 62
     0
 10
-18.58125
 20
-104.521767
 11
-18.58125
 21
-48.49476
  0
POINT
  8
寸法
 62
     0
 10
-18.58125
 20
-48.49476
  0
TEXT
  7
TextStyle03
  8
寸法
  6
CONTINUOUS
 62
     0
 10
-18.975
 20
-81.49375
  1
1120.5
 40
3.0
 50
90.0
 72
     5
 11
-18.975
 21
-71.55625
  0
ENDBLK
  0
BLOCK
  2
*DIM_0006
 70
    65
 10
0.0
 20
0.0
  0
LINE
  8
寸法
  6
BYBLOCK
 62
     0
 10
-37.43443
 20
92.395463
 11
-16.885002
 21
92.395463
  0
LINE
  8
寸法
  6
BYBLOCK
 62
     0
 10
-29.410555
 20
86.845463
 11
-16.885002
 21
86.845463
  0
LINE
  8
寸法
  6
BYBLOCK
 62
     0
 10
-16.885002
 20
92.395463
 11
-16.885002
 21
86.845463
  0
POINT
  8
寸法
 62
     0
 10
-16.885002
 20
92.395463
  0
POINT
  8
寸法
 62
     0
 10
-16.885002
 20
86.845463
  0
TEXT
  7
TextStyle03
  8
寸法
  6
CONTINUOUS
 62
     0
 10
-17.3
 20
87.1625
  1
111
 40
3.0
 50
90.0
 72
     5
 11
-17.3
 21
92.0375
  0
ENDBLK
  0
BLOCK
  2
*DIM_0007
 70
    65
 10
0.0
 20
0.0
  0
LINE
  8
寸法
  6
BYBLOCK
 62
     0
 10
-37.43443
 20
-7.604543
 11
-16.885002
 21
-7.604543
  0
LINE
  8
寸法
  6
BYBLOCK
 62
     0
 10
-29.410555
 20
-2.054543
 11
-16.885002
 21
-2.054543
  0
LINE
  8
寸法
  6
BYBLOCK
 62
     0
 10
-16.885002
 20
-7.604543
 11
-16.885002
 21
-2.054543
  0
POINT
  8
寸法
 62
     0
 10
-16.885002
 20
-7.604543
  0
POINT
  8
寸法
 62
     0
 10
-16.885002
 20
-2.054543
  0
TEXT
  7
TextStyle03
  8
寸法
  6
CONTINUOUS
 62
     0
 10
-17.275
 20
-7.2875
  1
111
 40
3.0
 50
90.0
 72
     5
 11
-17.275
 21
-2.4125
  0
ENDBLK
  0
BLOCK
  2
*GRP_0008
 70
    65
 10
0.0
 20
0.0
  0
POLYLINE
  8
寸法
  6
BYBLOCK
 62
     0
 66
     1
  0
VERTEX
  8
寸法
 10
-40.989525
 20
18.679433
  0
VERTEX
  8
寸法
 10
-34.573023
 20
12.26293
  0
VERTEX
  8
寸法
 10
-28.665895
 20
12.26293
  0
SEQEND
  0
ENDBLK
  0
BLOCK
  2
*DIM_0009
 70
    65
 10
0.0
 20
0.0
  0
LINE
  8
寸法
  6
BYBLOCK
 62
     0
 10
-122.750185
 20
117.65046
 11
-122.750185
 21
128.581215
  0
LINE
  8
寸法
  6
BYBLOCK
 62
     0
 10
-87.750185
 20
117.65046
 11
-87.750185
 21
128.581215
  0
LINE
  8
寸法
  6
BYBLOCK
 62
     0
 10
-122.750185
 20
128.581215
 11
-87.750185
 21
128.581215
  0
POINT
  8
寸法
 62
     0
 10
-122.750185
 20
128.581215
  0
POINT
  8
寸法
 62
     0
 10
-87.750185
 20
128.581215
  0
TEXT
  7
TextStyle03
  8
寸法
  6
CONTINUOUS
 62
     0
 10
-107.7125
 20
128.95
  1
700
 40
3.0
 72
     5
 11
-102.8375
 21
128.95
  0
ENDBLK
  0
BLOCK
  2
*DIM_0010
 70
    65
 10
0.0
 20
0.0
  0
LINE
  8
寸法
  6
BYBLOCK
 62
     0
 10
-52.750185
 20
117.65046
 11
-52.750185
 21
128.581215
  0
LINE
  8
寸法
  6
BYBLOCK
 62
     0
 10
-87.750185
 20
128.581215
 11
-52.750185
 21
128.581215
  0
POINT
  8
寸法
 62
     0
 10
-52.750185
 20
128.581215
  0
TEXT
  7
TextStyle03
  8
寸法
  6
CONTINUOUS
 62
     0
 10
-72.7125
 20
128.95
  1
700
 40
3.0
 72
     5
 11
-67.8375
 21
128.95
  0
ENDBLK
  0
BLOCK
  2
*DIM_0011
 70
    65
 10
0.0
 20
0.0
  0
LINE
  8
寸法
  6
BYBLOCK
 62
     0
 10
-163.005185
 20
77.39546
 11
-173.93594
 21
77.395463
  0
LINE
  8
寸法
  6
BYBLOCK
 62
     0
 10
-163.005188
 20
42.39546
 11
-173.935942
 21
42.395463
  0
LINE
  8
寸法
  6
BYBLOCK
 62
     0
 10
-173.93594
 20
77.395463
 11
-173.935942
 21
42.395463
  0
POINT
  8
寸法
 62
     0
 10
-173.93594
 20
77.395463
  0
POINT
  8
寸法
 62
     0
 10
-173.935942
 20
42.395463
  0
TEXT
  7
TextStyle03
  8
寸法
  6
CONTINUOUS
 62
     0
 10
-174.325
 20
57.4375
  1
700
 40
3.0
 50
90.0
 72
     5
 11
-174.325
 21
62.3125
  0
ENDBLK
  0
BLOCK
  2
*DIM_0012
 70
    65
 10
0.0
 20
0.0
  0
LINE
  8
寸法
  6
BYBLOCK
 62
     0
 10
-163.005188
 20
42.39546
 11
-173.935942
 21
42.395465
  0
LINE
  8
寸法
  6
BYBLOCK
 62
     0
 10
-163.00519
 20
7.39546
 11
-173.935945
 21
7.395465
  0
LINE
  8
寸法
  6
BYBLOCK
 62
     0
 10
-173.935942
 20
42.395465
 11
-173.935945
 21
7.395465
  0
POINT
  8
寸法
 62
     0
 10
-173.935945
 20
7.395465
  0
TEXT
  7
TextStyle03
  8
寸法
  6
CONTINUOUS
 62
     0
 10
-174.325
 20
22.4375
  1
700
 40
3.0
 50
90.0
 72
     5
 11
-174.325
 21
27.3125
  0
ENDBLK
  0
BLOCK
  2
*GRP_0013
 70
    65
 10
0.0
 20
0.0
  0
POLYLINE
  8
寸法
  6
BYBLOCK
 62
     0
 66
     1
  0
VERTEX
  8
寸法
 10
-134.510835
 20
73.701475
  0
VERTEX
  8
寸法
 10
-140.927333
 20
80.11798
  0
VERTEX
  8
寸法
 10
-146.83446
 20
80.117982
  0
SEQEND
  0
ENDBLK
  0
BLOCK
  2
*GRP_0014
 70
    65
 10
0.0
 20
0.0
  0
LINE
  8
補助線
  6
DOT
 62
    64
 10
131.06332
 20
-109.53819
 11
131.24908
 21
-109.705495
  0
LINE
  8
補助線
  6
DOT
 62
    64
 10
131.239853
 20
-109.528963
 11
131.072547
 21
-109.714722
  0
LINE
  8
補助線
  6
DOT
 62
    64
 10
115.17643
 20
-95.23046
 11
114.990662
 21
-95.063155
  0
LINE
  8
補助線
  6
DOT
 62
    64
 10
115.167195
 20
-95.053923
 11
114.999892
 21
-95.239693
  0
LINE
  8
補助線
  6
DOT
 62
    64
 10
99.103572
 20
-80.755642
 11
98.917802
 21
-80.588347
  0
LINE
  8
補助線
  6
DOT
 62
    64
 10
99.094335
 20
-80.57911
 11
98.927043
 21
-80.76488
  0
LINE
  8
型材断面
  6
DOT
 10
132.364252
 20
-109.027607
 11
132.419645
 21
-110.086817
  0
LINE
  8
型材断面
  6
DOT
 10
132.419645
 20
-110.086817
 11
131.750435
 21
-110.829895
  0
LINE
  8
型材断面
  6
DOT
 10
131.750435
 20
-110.829895
 11
130.691225
 21
-110.885287
  0
LINE
  8
型材断面
  6
DOT
 10
99.475648
 20
-79.40854
 11
98.416438
 21
-79.463955
  0
LINE
  8
型材断面
  6
DOT
 10
98.416438
 20
-79.463955
 11
97.747235
 21
-80.207035
  0
LINE
  8
型材断面
  6
DOT
 10
97.747235
 20
-80.207035
 11
97.802648
 21
-81.266245
  0
LINE
  8
型材断面
  6
DOT
 10
132.364252
 20
-109.027607
 11
99.476087
 21
-79.408518
  0
LINE
  8
型材断面
  6
DOT
 10
130.691225
 20
-110.885287
 11
97.802625
 21
-81.26582
  0
LINE
  8
ボルト／ビス
  6
DOT
 62
    64
 10
131.465293
 20
-109.27863
 11
131.607975
 21
-109.717922
  0
LINE
  8
ボルト／ビス
  6
DOT
 62
    64
 10
131.465293
 20
-109.27863
 11
131.01352
 21
-109.182555
  0
LINE
  8
ボルト／ビス
  6
DOT
 62
    64
 10
130.847107
 20
-109.965055
 11
131.29888
 21
-110.06113
  0
LINE
  8
ボルト／ビス
  6
DOT
 62
    64
 10
130.847107
 20
-109.965055
 11
130.704425
 21
-109.525763
  0
CIRCLE
  8
ボルト／ビス
  6
DOT
 62
    64
 10
131.1562
 20
-109.621843
 40
0.4
  0
LINE
  8
ボルト／ビス
  6
DOT
 62
    64
 10
131.01352
 20
-109.182555
 11
130.704425
 21
-109.525763
  0
LINE
  8
ボルト／ビス
  6
DOT
 62
    64
 10
131.607975
 20
-109.717922
 11
131.29888
 21
-110.06113
  0
LINE
  8
ボルト／ビス
  6
DOT
 62
    64
 10
115.392642
 20
-94.8036
 11
114.940863
 21
-94.707517
  0
LINE
  8
ボルト／ビス
  6
DOT
 62
    64
 10
115.392642
 20
-94.8036
 11
115.535325
 21
-95.242885
  0
LINE
  8
ボルト／ビス
  6
DOT
 62
    64
 10
114.77445
 20
-95.490017
 11
114.63177
 21
-95.050727
  0
LINE
  8
ボルト／ビス
  6
DOT
 62
    64
 10
114.77445
 20
-95.490017
 11
115.226225
 21
-95.586095
  0
CIRCLE
  8
ボルト／ビス
  6
DOT
 62
    64
 10
115.083542
 20
-95.146807
 40
0.4
  0
LINE
  8
ボルト／ビス
  6
DOT
 62
    64
 10
115.535325
 20
-95.242885
 11
115.226225
 21
-95.586095
  0
LINE
  8
ボルト／ビス
  6
DOT
 62
    64
 10
114.940863
 20
-94.707517
 11
114.63177
 21
-95.050727
  0
LINE
  8
ボルト／ビス
  6
DOT
 62
    64
 10
99.31978
 20
-80.328783
 11
98.868
 21
-80.232708
  0
LINE
  8
ボルト／ビス
  6
DOT
 62
    64
 10
99.31978
 20
-80.328783
 11
99.46246
 21
-80.768067
  0
LINE
  8
ボルト／ビス
  6
DOT
 62
    64
 10
98.701595
 20
-81.01521
 11
98.558913
 21
-80.575922
  0
LINE
  8
ボルト／ビス
  6
DOT
 62
    64
 10
98.701595
 20
-81.01521
 11
99.153375
 21
-81.111283
  0
CIRCLE
  8
ボルト／ビス
  6
DOT
 62
    64
 10
99.010687
 20
-80.671995
 40
0.4
  0
LINE
  8
ボルト／ビス
  6
DOT
 62
    64
 10
99.46246
 20
-80.768067
 11
99.153375
 21
-81.111283
  0
LINE
  8
ボルト／ビス
  6
DOT
 62
    64
 10
98.868
 20
-80.232708
 11
98.558913
 21
-80.575922
  0
ENDBLK
  0
BLOCK
  2
*GRP_0015
 70
    65
 10
0.0
 20
0.0
  0
LINE
  8
補助線
  6
DOT
 62
    64
 10
99.10377
 20
-109.53819
 11
98.91801
 21
-109.705495
  0
LINE
  8
補助線
  6
DOT
 62
    64
 10
98.927238
 20
-109.528963
 11
99.094542
 21
-109.714722
  0
LINE
  8
補助線
  6
DOT
 62
    64
 10
114.99066
 20
-95.23046
 11
115.176427
 21
-95.063155
  0
LINE
  8
補助線
  6
DOT
 62
    64
 10
114.999895
 20
-95.053923
 11
115.167197
 21
-95.239693
  0
LINE
  8
補助線
  6
DOT
 62
    64
 10
131.063517
 20
-80.755642
 11
131.249287
 21
-80.588347
  0
LINE
  8
補助線
  6
DOT
 62
    64
 10
131.072755
 20
-80.57911
 11
131.240048
 21
-80.76488
  0
LINE
  8
型材断面
  6
DOT
 10
97.802837
 20
-109.027607
 11
97.747445
 21
-110.086817
  0
LINE
  8
型材断面
  6
DOT
 10
97.747445
 20
-110.086817
 11
98.416655
 21
-110.829895
  0
LINE
  8
型材断面
  6
DOT
 10
98.416655
 20
-110.829895
 11
99.475865
 21
-110.885287
  0
LINE
  8
型材断面
  6
DOT
 10
130.691443
 20
-79.40854
 11
131.750653
 21
-79.463955
  0
LINE
  8
型材断面
  6
DOT
 10
131.750653
 20
-79.463955
 11
132.419855
 21
-80.207035
  0
LINE
  8
型材断面
  6
DOT
 10
132.419855
 20
-80.207035
 11
132.364443
 21
-81.266245
  0
LINE
  8
型材断面
  6
DOT
 10
97.802837
 20
-109.027607
 11
130.691002
 21
-79.408518
  0
LINE
  8
型材断面
  6
DOT
 10
99.475865
 20
-110.885287
 11
132.364465
 21
-81.26582
  0
LINE
  8
ボルト／ビス
  6
DOT
 62
    64
 10
98.701798
 20
-109.27863
 11
98.559115
 21
-109.717922
  0
LINE
  8
ボルト／ビス
  6
DOT
 62
    64
 10
98.701798
 20
-109.27863
 11
99.15357
 21
-109.182555
  0
LINE
  8
ボルト／ビス
  6
DOT
 62
    64
 10
99.319982
 20
-109.965055
 11
98.86821
 21
-110.06113
  0
LINE
  8
ボルト／ビス
  6
DOT
 62
    64
 10
99.319982
 20
-109.965055
 11
99.462665
 21
-109.525763
  0
CIRCLE
  8
ボルト／ビス
  6
DOT
 62
    64
 10
99.01089
 20
-109.621843
 40
0.4
  0
LINE
  8
ボルト／ビス
  6
DOT
 62
    64
 10
99.15357
 20
-109.182555
 11
99.462665
 21
-109.525763
  0
LINE
  8
ボルト／ビス
  6
DOT
 62
    64
 10
98.559115
 20
-109.717922
 11
98.86821
 21
-110.06113
  0
LINE
  8
ボルト／ビス
  6
DOT
 62
    64
 10
114.774447
 20
-94.8036
 11
115.226227
 21
-94.707517
  0
LINE
  8
ボルト／ビス
  6
DOT
 62
    64
 10
114.774447
 20
-94.8036
 11
114.631765
 21
-95.242885
  0
LINE
  8
ボルト／ビス
  6
DOT
 62
    64
 10
115.39264
 20
-95.490017
 11
115.53532
 21
-95.050727
  0
LINE
  8
ボルト／ビス
  6
DOT
 62
    64
 10
115.39264
 20
-95.490017
 11
114.940865
 21
-95.586095
  0
CIRCLE
  8
ボルト／ビス
  6
DOT
 62
    64
 10
115.083547
 20
-95.146807
 40
0.4
  0
LINE
  8
ボルト／ビス
  6
DOT
 62
    64
 10
114.631765
 20
-95.242885
 11
114.940865
 21
-95.586095
  0
LINE
  8
ボルト／ビス
  6
DOT
 62
    64
 10
115.226227
 20
-94.707517
 11
115.53532
 21
-95.050727
  0
LINE
  8
ボルト／ビス
  6
DOT
 62
    64
 10
130.84731
 20
-80.328783
 11
131.29909
 21
-80.232708
  0
LINE
  8
ボルト／ビス
  6
DOT
 62
    64
 10
130.84731
 20
-80.328783
 11
130.70463
 21
-80.768067
  0
LINE
  8
ボルト／ビス
  6
DOT
 62
    64
 10
131.465495
 20
-81.01521
 11
131.608178
 21
-80.575922
  0
LINE
  8
ボルト／ビス
  6
DOT
 62
    64
 10
131.465495
 20
-81.01521
 11
131.013715
 21
-81.111283
  0
CIRCLE
  8
ボルト／ビス
  6
DOT
 62
    64
 10
131.156402
 20
-80.671995
 40
0.4
  0
LINE
  8
ボルト／ビス
  6
DOT
 62
    64
 10
130.70463
 20
-80.768067
 11
131.013715
 21
-81.111283
  0
LINE
  8
ボルト／ビス
  6
DOT
 62
    64
 10
131.29909
 20
-80.232708
 11
131.608178
 21
-80.575922
  0
ENDBLK
  0
BLOCK
  2
*GRP_0016
 70
    65
 10
0.0
 20
0.0
  0
LINE
  8
補助線
  6
DOT
 62
    64
 10
35.2492
 20
-109.53819
 11
35.06344
 21
-109.705495
  0
LINE
  8
補助線
  6
DOT
 62
    64
 10
35.072667
 20
-109.528963
 11
35.239972
 21
-109.714722
  0
LINE
  8
補助線
  6
DOT
 62
    64
 10
51.13609
 20
-95.23046
 11
51.321858
 21
-95.063155
  0
LINE
  8
補助線
  6
DOT
 62
    64
 10
51.145325
 20
-95.053923
 11
51.312628
 21
-95.239693
  0
LINE
  8
補助線
  6
DOT
 62
    64
 10
67.208948
 20
-80.755642
 11
67.394717
 21
-80.588347
  0
LINE
  8
補助線
  6
DOT
 62
    64
 10
67.218185
 20
-80.57911
 11
67.385477
 21
-80.76488
  0
LINE
  8
型材断面
  6
DOT
 10
33.948267
 20
-109.027607
 11
33.892875
 21
-110.086817
  0
LINE
  8
型材断面
  6
DOT
 10
33.892875
 20
-110.086817
 11
34.562085
 21
-110.829895
  0
LINE
  8
型材断面
  6
DOT
 10
34.562085
 20
-110.829895
 11
35.621295
 21
-110.885287
  0
LINE
  8
型材断面
  6
DOT
 10
66.836873
 20
-79.40854
 11
67.896083
 21
-79.463955
  0
LINE
  8
型材断面
  6
DOT
 10
67.896083
 20
-79.463955
 11
68.565285
 21
-80.207035
  0
LINE
  8
型材断面
  6
DOT
 10
68.565285
 20
-80.207035
 11
68.509872
 21
-81.266245
  0
LINE
  8
型材断面
  6
DOT
 10
33.948267
 20
-109.027607
 11
66.836433
 21
-79.408518
  0
LINE
  8
型材断面
  6
DOT
 10
35.621295
 20
-110.885287
 11
68.509895
 21
-81.26582
  0
LINE
  8
ボルト／ビス
  6
DOT
 62
    64
 10
34.847228
 20
-109.27863
 11
34.704545
 21
-109.717922
  0
LINE
  8
ボルト／ビス
  6
DOT
 62
    64
 10
34.847228
 20
-109.27863
 11
35.299
 21
-109.182555
  0
LINE
  8
ボルト／ビス
  6
DOT
 62
    64
 10
35.465412
 20
-109.965055
 11
35.01364
 21
-110.06113
  0
LINE
  8
ボルト／ビス
  6
DOT
 62
    64
 10
35.465412
 20
-109.965055
 11
35.608095
 21
-109.525763
  0
CIRCLE
  8
ボルト／ビス
  6
DOT
 62
    64
 10
35.15632
 20
-109.621843
 40
0.4
  0
LINE
  8
ボルト／ビス
  6
DOT
 62
    64
 10
35.299
 20
-109.182555
 11
35.608095
 21
-109.525763
  0
LINE
  8
ボルト／ビス
  6
DOT
 62
    64
 10
34.704545
 20
-109.717922
 11
35.01364
 21
-110.06113
  0
LINE
  8
ボルト／ビス
  6
DOT
 62
    64
 10
50.919878
 20
-94.8036
 11
51.371658
 21
-94.707517
  0
LINE
  8
ボルト／ビス
  6
DOT
 62
    64
 10
50.919878
 20
-94.8036
 11
50.777195
 21
-95.242885
  0
LINE
  8
ボルト／ビス
  6
DOT
 62
    64
 10
51.53807
 20
-95.490017
 11
51.68075
 21
-95.050727
  0
LINE
  8
ボルト／ビス
  6
DOT
 62
    64
 10
51.53807
 20
-95.490017
 11
51.086295
 21
-95.586095
  0
CIRCLE
  8
ボルト／ビス
  6
DOT
 62
    64
 10
51.228977
 20
-95.146807
 40
0.4
  0
LINE
  8
ボルト／ビス
  6
DOT
 62
    64
 10
50.777195
 20
-95.242885
 11
51.086295
 21
-95.586095
  0
LINE
  8
ボルト／ビス
  6
DOT
 62
    64
 10
51.371658
 20
-94.707517
 11
51.68075
 21
-95.050727
  0
LINE
  8
ボルト／ビス
  6
DOT
 62
    64
 10
66.99274
 20
-80.328783
 11
67.44452
 21
-80.232708
  0
LINE
  8
ボルト／ビス
  6
DOT
 62
    64
 10
66.99274
 20
-80.328783
 11
66.85006
 21
-80.768067
  0
LINE
  8
ボルト／ビス
  6
DOT
 62
    64
 10
67.610925
 20
-81.01521
 11
67.753608
 21
-80.575922
  0
LINE
  8
ボルト／ビス
  6
DOT
 62
    64
 10
67.610925
 20
-81.01521
 11
67.159145
 21
-81.111283
  0
CIRCLE
  8
ボルト／ビス
  6
DOT
 62
    64
 10
67.301832
 20
-80.671995
 40
0.4
  0
LINE
  8
ボルト／ビス
  6
DOT
 62
    64
 10
66.85006
 20
-80.768067
 11
67.159145
 21
-81.111283
  0
LINE
  8
ボルト／ビス
  6
DOT
 62
    64
 10
67.44452
 20
-80.232708
 11
67.753608
 21
-80.575922
  0
ENDBLK
  0
BLOCK
  2
*GRP_0017
 70
    65
 10
0.0
 20
0.0
  0
LINE
  8
補助線
  6
DOT
 62
    64
 10
67.20875
 20
-109.53819
 11
67.39451
 21
-109.705495
  0
LINE
  8
補助線
  6
DOT
 62
    64
 10
67.385282
 20
-109.528963
 11
67.217978
 21
-109.714722
  0
LINE
  8
補助線
  6
DOT
 62
    64
 10
51.32186
 20
-95.23046
 11
51.136093
 21
-95.063155
  0
LINE
  8
補助線
  6
DOT
 62
    64
 10
51.312625
 20
-95.053923
 11
51.145322
 21
-95.239693
  0
LINE
  8
補助線
  6
DOT
 62
    64
 10
35.249002
 20
-80.755642
 11
35.063233
 21
-80.588347
  0
LINE
  8
補助線
  6
DOT
 62
    64
 10
35.239765
 20
-80.57911
 11
35.072473
 21
-80.76488
  0
LINE
  8
型材断面
  6
DOT
 10
68.509683
 20
-109.027607
 11
68.565075
 21
-110.086817
  0
LINE
  8
型材断面
  6
DOT
 10
68.565075
 20
-110.086817
 11
67.895865
 21
-110.829895
  0
LINE
  8
型材断面
  6
DOT
 10
67.895865
 20
-110.829895
 11
66.836655
 21
-110.885287
  0
LINE
  8
型材断面
  6
DOT
 10
35.621077
 20
-79.40854
 11
34.561867
 21
-79.463955
  0
LINE
  8
型材断面
  6
DOT
 10
34.561867
 20
-79.463955
 11
33.892665
 21
-80.207035
  0
LINE
  8
型材断面
  6
DOT
 10
33.892665
 20
-80.207035
 11
33.948077
 21
-81.266245
  0
LINE
  8
型材断面
  6
DOT
 10
68.509683
 20
-109.027607
 11
35.621517
 21
-79.408518
  0
LINE
  8
型材断面
  6
DOT
 10
66.836655
 20
-110.885287
 11
33.948055
 21
-81.26582
  0
LINE
  8
ボルト／ビス
  6
DOT
 62
    64
 10
67.610722
 20
-109.27863
 11
67.753405
 21
-109.717922
  0
LINE
  8
ボルト／ビス
  6
DOT
 62
    64
 10
67.610722
 20
-109.27863
 11
67.15895
 21
-109.182555
  0
LINE
  8
ボルト／ビス
  6
DOT
 62
    64
 10
66.992538
 20
-109.965055
 11
67.44431
 21
-110.06113
  0
LINE
  8
ボルト／ビス
  6
DOT
 62
    64
 10
66.992538
 20
-109.965055
 11
66.849855
 21
-109.525763
  0
CIRCLE
  8
ボルト／ビス
  6
DOT
 62
    64
 10
67.30163
 20
-109.621843
 40
0.4
  0
LINE
  8
ボルト／ビス
  6
DOT
 62
    64
 10
67.15895
 20
-109.182555
 11
66.849855
 21
-109.525763
  0
LINE
  8
ボルト／ビス
  6
DOT
 62
    64
 10
67.753405
 20
-109.717922
 11
67.44431
 21
-110.06113
  0
LINE
  8
ボルト／ビス
  6
DOT
 62
    64
 10
51.538073
 20
-94.8036
 11
51.086292
 21
-94.707517
  0
LINE
  8
ボルト／ビス
  6
DOT
 62
    64
 10
51.538073
 20
-94.8036
 11
51.680755
 21
-95.242885
  0
LINE
  8
ボルト／ビス
  6
DOT
 62
    64
 10
50.91988
 20
-95.490017
 11
50.7772
 21
-95.050727
  0
LINE
  8
ボルト／ビス
  6
DOT
 62
    64
 10
50.91988
 20
-95.490017
 11
51.371655
 21
-95.586095
  0
CIRCLE
  8
ボルト／ビス
  6
DOT
 62
    64
 10
51.228973
 20
-95.146807
 40
0.4
  0
LINE
  8
ボルト／ビス
  6
DOT
 62
    64
 10
51.680755
 20
-95.242885
 11
51.371655
 21
-95.586095
  0
LINE
  8
ボルト／ビス
  6
DOT
 62
    64
 10
51.086292
 20
-94.707517
 11
50.7772
 21
-95.050727
  0
LINE
  8
ボルト／ビス
  6
DOT
 62
    64
 10
35.46521
 20
-80.328783
 11
35.01343
 21
-80.232708
  0
LINE
  8
ボルト／ビス
  6
DOT
 62
    64
 10
35.46521
 20
-80.328783
 11
35.60789
 21
-80.768067
  0
LINE
  8
ボルト／ビス
  6
DOT
 62
    64
 10
34.847025
 20
-81.01521
 11
34.704342
 21
-80.575922
  0
LINE
  8
ボルト／ビス
  6
DOT
 62
    64
 10
34.847025
 20
-81.01521
 11
35.298805
 21
-81.111283
  0
CIRCLE
  8
ボルト／ビス
  6
DOT
 62
    64
 10
35.156118
 20
-80.671995
 40
0.4
  0
LINE
  8
ボルト／ビス
  6
DOT
 62
    64
 10
35.60789
 20
-80.768067
 11
35.298805
 21
-81.111283
  0
LINE
  8
ボルト／ビス
  6
DOT
 62
    64
 10
35.01343
 20
-80.232708
 11
34.704342
 21
-80.575922
  0
ENDBLK
  0
BLOCK
  2
*DIM_0018
 70
    65
 10
0.0
 20
0.0
  0
LINE
  8
寸法
  6
BYBLOCK
 62
     0
 10
-143.600388
 20
-101.521767
 11
-143.600388
 21
-30.375235
  0
LINE
  8
寸法
  6
BYBLOCK
 62
     0
 10
-143.600388
 20
-30.375235
 11
-137.750185
 21
-30.375235
  0
POINT
  8
寸法
 62
     0
 10
-143.600388
 20
-30.375235
  0
POINT
  8
寸法
 62
     0
 10
-137.750185
 20
-30.375235
  0
TEXT
  7
TextStyle03
  8
寸法
  6
CONTINUOUS
 62
     0
 10
-143.1375
 20
-30.025
  1
117
 40
3.0
 72
     5
 11
-138.2625
 21
-30.025
  0
ENDBLK
  0
BLOCK
  2
*DIM_0019
 70
    65
 10
0.0
 20
0.0
  0
LINE
  8
寸法
  6
BYBLOCK
 62
     0
 10
-31.899982
 20
-101.521767
 11
-31.899982
 21
-30.375235
  0
LINE
  8
寸法
  6
BYBLOCK
 62
     0
 10
-37.750185
 20
-30.375235
 11
-31.899982
 21
-30.375235
  0
POINT
  8
寸法
 62
     0
 10
-31.899982
 20
-30.375235
  0
TEXT
  7
TextStyle03
  8
寸法
  6
CONTINUOUS
 62
     0
 10
-37.2875
 20
-30.025
  1
117
 40
3.0
 72
     5
 11
-32.4125
 21
-30.025
  0
ENDBLK
  0
BLOCK
  2
*DIM_0020
 70
    65
 10
0.0
 20
0.0
  0
LINE
  8
寸法
  6
BYBLOCK
 62
     0
 10
-137.750185
 20
-30.375235
 11
-37.750185
 21
-30.375235
  0
POINT
  8
寸法
 62
     0
 10
-37.750185
 20
-30.375235
  0
TEXT
  7
TextStyle03
  8
寸法
  6
CONTINUOUS
 62
     0
 10
-99.49375
 20
-30.025
  1
呼称寸法＝2000
 40
3.0
 72
     5
 11
-76.05625
 21
-30.025
  0
ENDBLK
  0
BLOCK
  2
*DIM_0021
 70
    65
 10
0.0
 20
0.0
  0
LINE
  8
寸法
  6
BYBLOCK
 62
     0
 10
115.192377
 20
-3.56227
 11
115.192377
 21
-16.224603
  0
LINE
  8
寸法
  6
BYBLOCK
 62
     0
 10
166.707378
 20
-3.56227
 11
166.707378
 21
-16.224603
  0
LINE
  8
寸法
  6
BYBLOCK
 62
     0
 10
115.192377
 20
-16.224603
 11
166.707378
 21
-16.224603
  0
POINT
  8
寸法
 62
     0
 10
115.192377
 20
-16.224603
  0
POINT
  8
寸法
 62
     0
 10
166.707378
 20
-16.224603
  0
TEXT
  7
TextStyle03
  8
寸法
  6
CONTINUOUS
 62
     0
 10
135.95625
 20
-15.85
  1
1030.3
 40
3.0
 72
     5
 11
145.89375
 21
-15.85
  0
ENDBLK
  0
BLOCK
  2
*DIM_0022
 70
    65
 10
0.0
 20
0.0
  0
LINE
  8
寸法
  6
BYBLOCK
 62
     0
 10
169.707378
 20
-0.56227
 11
178.784525
 21
-0.56227
  0
LINE
  8
寸法
  6
BYBLOCK
 62
     0
 10
169.707378
 20
72.290627
 11
178.784525
 21
72.290627
  0
LINE
  8
寸法
  6
BYBLOCK
 62
     0
 10
178.784525
 20
-0.56227
 11
178.784525
 21
72.290627
  0
POINT
  8
寸法
 62
     0
 10
178.784525
 20
-0.56227
  0
POINT
  8
寸法
 62
     0
 10
178.784525
 20
72.290627
  0
TEXT
  7
TextStyle03
  8
寸法
  6
CONTINUOUS
 62
     0
 10
178.4
 20
30.88125
  1
1457.1
 40
3.0
 50
90.0
 72
     5
 11
178.4
 21
40.81875
  0
ENDBLK
  0
BLOCK
  2
*DIM_0023
 70
    65
 10
0.0
 20
0.0
  0
LINE
  8
寸法
  6
BYBLOCK
 62
     0
 10
142.006463
 20
-104.521767
 11
152.128125
 21
-104.521767
  0
LINE
  8
寸法
  6
BYBLOCK
 62
     0
 10
142.006463
 20
-79.521767
 11
152.128125
 21
-79.521767
  0
LINE
  8
寸法
  6
BYBLOCK
 62
     0
 10
152.128125
 20
-104.521767
 11
152.128125
 21
-79.521767
  0
POINT
  8
寸法
 62
     0
 10
152.128125
 20
-104.521767
  0
POINT
  8
寸法
 62
     0
 10
152.128125
 20
-79.521767
  0
TEXT
  7
TextStyle03
  8
寸法
  6
CONTINUOUS
 62
     0
 10
151.75
 20
-101.11875
  1
上昇436以上
 40
3.0
 50
90.0
 72
     5
 11
151.75
 21
-82.93125
  0
ENDBLK
  0
ENDSEC
  0
SECTION
  2
ENTITIES
  0
POLYLINE
  8
通り芯
  6
CONTINUOUS
 66
     1
 70
     1
  0
VERTEX
  8
通り芯
 10
-210.0
 20
-148.5
  0
VERTEX
  8
通り芯
 10
210.0
 20
-148.5
  0
VERTEX
  8
通り芯
 10
210.0
 20
148.5
  0
VERTEX
  8
通り芯
 10
-210.0
 20
148.5
  0
SEQEND
  0
INSERT
  2
*GRP_0001
  8
型材断面
  6
CONTINUOUS
 10
0.0
 20
0.0
  0
LINE
  8
型材断面
  6
CONTINUOUS
 10
10.516347
 20
8.164417
 11
8.272903
 21
4.278658
  0
LINE
  8
型材断面
  6
CONTINUOUS
 10
10.516347
 20
8.164417
 11
12.759793
 21
4.278658
  0
LINE
  8
型材断面
  6
CONTINUOUS
 10
12.759793
 20
4.278658
 11
8.272903
 21
4.278658
  0
LINE
  8
型材断面
  6
CONTINUOUS
 10
10.516347
 20
0.47487
 11
11.410433
 21
-3.41089
  0
LINE
  8
型材断面
  6
CONTINUOUS
 10
10.516347
 20
0.47487
 11
9.622263
 21
-3.41089
  0
LINE
  8
型材断面
  6
CONTINUOUS
 10
9.622263
 20
-3.41089
 11
11.410433
 21
-3.41089
  0
LINE
  8
型材断面
  6
CONTINUOUS
 10
1.482467
 20
2.870765
 11
54.139148
 21
2.870765
  0
LINE
  8
型材断面
  6
CONTINUOUS
 10
1.482467
 20
-8.329227
 11
54.139148
 21
-8.329227
  0
LINE
  8
型材断面
  6
CONTINUOUS
 10
1.482467
 20
-15.169172
 11
54.139148
 21
-15.169172
  0
LINE
  8
型材断面
  6
CONTINUOUS
 10
-92.875185
 20
47.520463
 11
-87.750185
 21
47.520463
  0
LINE
  8
型材断面
  6
CONTINUOUS
 10
-92.875185
 20
47.520463
 11
-92.875185
 21
42.39546
  0
LINE
  8
型材断面
  6
CONTINUOUS
 10
-142.895158
 20
97.540432
 11
-142.895158
 21
93.892135
  0
LINE
  8
型材断面
  6
CONTINUOUS
 10
-142.895158
 20
97.540432
 11
-139.24686
 21
97.540432
  0
LINE
  8
型材断面
  6
CONTINUOUS
 10
-143.248712
 20
97.893988
 11
-143.248712
 21
93.538582
  0
LINE
  8
型材断面
  6
CONTINUOUS
 10
-143.248712
 20
93.538582
 11
-142.187218
 21
92.477088
  0
LINE
  8
型材断面
  6
CONTINUOUS
 10
-138.893305
 20
97.893985
 11
-137.831812
 21
96.832493
  0
LINE
  8
型材断面
  6
CONTINUOUS
 10
-143.248712
 20
97.893988
 11
-138.893307
 21
97.893988
  0
LINE
  8
型材断面
  6
DASHDOT
 10
-137.750185
 20
92.39546
 11
-87.750185
 21
92.39546
  0
LINE
  8
型材断面
  6
DASHDOT
 10
-87.750185
 20
42.39546
 11
-87.750185
 21
92.39546
  0
LINE
  8
型材断面
  6
DASHDOT
 10
-137.750185
 20
92.39546
 11
-137.750185
 21
42.39546
  0
LINE
  8
型材断面
  6
DASHDOT
 10
-87.750185
 20
42.39546
 11
-137.750185
 21
42.39546
  0
LINE
  8
型材断面
  6
DOT
 10
-134.510845
 20
92.39546
 11
-134.510845
 21
42.39546
  0
LINE
  8
型材断面
  6
DOT
 10
-132.510845
 20
92.39546
 11
-132.510845
 21
42.39546
  0
LINE
  8
型材断面
  6
CONTINUOUS
 10
-143.600165
 20
98.245442
 11
-87.750185
 21
98.245442
  0
LINE
  8
型材断面
  6
CONTINUOUS
 10
-143.600165
 20
98.245442
 11
-143.600165
 21
42.39546
  0
LINE
  8
型材断面
  6
CONTINUOUS
 10
-139.24686
 20
97.540432
 11
-89.226887
 21
47.520463
  0
LINE
  8
型材断面
  6
CONTINUOUS
 10
-142.895158
 20
93.892135
 11
-92.875185
 21
43.87216
  0
LINE
  8
型材断面
  6
CONTINUOUS
 10
-143.600165
 20
98.245442
 11
-87.750185
 21
42.39546
  0
LINE
  8
型材断面
  6
CONTINUOUS
 10
-82.625185
 20
47.520463
 11
-87.750185
 21
47.520463
  0
LINE
  8
型材断面
  6
CONTINUOUS
 10
-82.625185
 20
47.520463
 11
-82.625185
 21
42.39546
  0
LINE
  8
型材断面
  6
CONTINUOUS
 10
-32.605213
 20
97.540432
 11
-32.605213
 21
93.892135
  0
LINE
  8
型材断面
  6
CONTINUOUS
 10
-32.605213
 20
97.540432
 11
-36.25351
 21
97.540432
  0
LINE
  8
型材断面
  6
CONTINUOUS
 10
-32.251657
 20
97.893988
 11
-32.251657
 21
93.538582
  0
LINE
  8
型材断面
  6
CONTINUOUS
 10
-32.251657
 20
93.538582
 11
-33.313152
 21
92.477088
  0
LINE
  8
型材断面
  6
CONTINUOUS
 10
-36.607065
 20
97.893985
 11
-37.668558
 21
96.832493
  0
LINE
  8
型材断面
  6
CONTINUOUS
 10
-32.251657
 20
97.893988
 11
-36.607063
 21
97.893988
  0
LINE
  8
型材断面
  6
DASHDOT
 10
-37.750185
 20
92.39546
 11
-87.750185
 21
92.39546
  0
LINE
  8
型材断面
  6
DASHDOT
 10
-37.750185
 20
92.39546
 11
-37.750185
 21
42.39546
  0
LINE
  8
型材断面
  6
DASHDOT
 10
-87.750185
 20
42.39546
 11
-37.750185
 21
42.39546
  0
LINE
  8
型材断面
  6
DOT
 10
-40.989525
 20
92.39546
 11
-40.989525
 21
42.39546
  0
LINE
  8
型材断面
  6
DOT
 10
-42.989525
 20
92.39546
 11
-42.989525
 21
42.39546
  0
LINE
  8
型材断面
  6
CONTINUOUS
 10
-31.900205
 20
98.245442
 11
-87.750185
 21
98.245442
  0
LINE
  8
型材断面
  6
CONTINUOUS
 10
-31.900205
 20
98.245442
 11
-31.900205
 21
42.39546
  0
LINE
  8
型材断面
  6
CONTINUOUS
 10
-36.25351
 20
97.540432
 11
-86.273482
 21
47.520463
  0
LINE
  8
型材断面
  6
CONTINUOUS
 10
-32.605213
 20
93.892135
 11
-82.625185
 21
43.87216
  0
LINE
  8
型材断面
  6
CONTINUOUS
 10
-31.900205
 20
98.245442
 11
-87.750185
 21
42.39546
  0
LINE
  8
型材断面
  6
CONTINUOUS
 10
-92.875185
 20
37.270457
 11
-87.750185
 21
37.270457
  0
LINE
  8
型材断面
  6
CONTINUOUS
 10
-92.875185
 20
37.270457
 11
-92.875185
 21
42.39546
  0
LINE
  8
型材断面
  6
CONTINUOUS
 10
-142.895158
 20
-12.749513
 11
-142.895158
 21
-9.101215
  0
LINE
  8
型材断面
  6
CONTINUOUS
 10
-142.895158
 20
-12.749513
 11
-139.24686
 21
-12.749513
  0
LINE
  8
型材断面
  6
CONTINUOUS
 10
-143.248712
 20
-13.103067
 11
-143.248712
 21
-8.747663
  0
LINE
  8
型材断面
  6
CONTINUOUS
 10
-143.248712
 20
-8.747663
 11
-142.187218
 21
-7.686168
  0
LINE
  8
型材断面
  6
CONTINUOUS
 10
-138.893305
 20
-13.103065
 11
-137.831812
 21
-12.041572
  0
LINE
  8
型材断面
  6
CONTINUOUS
 10
-143.248712
 20
-13.103067
 11
-138.893307
 21
-13.103067
  0
LINE
  8
型材断面
  6
DASHDOT
 10
-137.750185
 20
-7.60454
 11
-87.750185
 21
-7.60454
  0
LINE
  8
型材断面
  6
DOT
 10
-134.510845
 20
-7.60454
 11
-134.510845
 21
42.39546
  0
LINE
  8
型材断面
  6
DOT
 10
-132.510845
 20
-7.60454
 11
-132.510845
 21
42.39546
  0
LINE
  8
型材断面
  6
CONTINUOUS
 10
-143.600165
 20
-13.454522
 11
-87.750185
 21
-13.454522
  0
LINE
  8
型材断面
  6
CONTINUOUS
 10
-143.600165
 20
-13.454522
 11
-143.600165
 21
42.39546
  0
LINE
  8
型材断面
  6
CONTINUOUS
 10
-139.24686
 20
-12.749513
 11
-89.226887
 21
37.270457
  0
LINE
  8
型材断面
  6
CONTINUOUS
 10
-142.895158
 20
-9.101215
 11
-92.875185
 21
40.91876
  0
LINE
  8
型材断面
  6
CONTINUOUS
 10
-143.600165
 20
-13.454522
 11
-87.750185
 21
42.39546
  0
LINE
  8
型材断面
  6
CONTINUOUS
 10
-82.625185
 20
37.270457
 11
-87.750185
 21
37.270457
  0
LINE
  8
型材断面
  6
CONTINUOUS
 10
-82.625185
 20
37.270457
 11
-82.625185
 21
42.39546
  0
LINE
  8
型材断面
  6
CONTINUOUS
 10
-32.605213
 20
-12.749513
 11
-32.605213
 21
-9.101215
  0
LINE
  8
型材断面
  6
CONTINUOUS
 10
-32.605213
 20
-12.749513
 11
-36.25351
 21
-12.749513
  0
LINE
  8
型材断面
  6
CONTINUOUS
 10
-32.251657
 20
-13.103067
 11
-32.251657
 21
-8.747663
  0
LINE
  8
型材断面
  6
CONTINUOUS
 10
-32.251657
 20
-8.747663
 11
-33.313152
 21
-7.686168
  0
LINE
  8
型材断面
  6
CONTINUOUS
 10
-36.607065
 20
-13.103065
 11
-37.668558
 21
-12.041572
  0
LINE
  8
型材断面
  6
CONTINUOUS
 10
-32.251657
 20
-13.103067
 11
-36.607063
 21
-13.103067
  0
LINE
  8
型材断面
  6
DASHDOT
 10
-37.750185
 20
-7.60454
 11
-87.750185
 21
-7.60454
  0
LINE
  8
型材断面
  6
DOT
 10
-40.989525
 20
-7.60454
 11
-40.989525
 21
42.39546
  0
LINE
  8
型材断面
  6
DOT
 10
-42.989525
 20
-7.60454
 11
-42.989525
 21
42.39546
  0
LINE
  8
型材断面
  6
CONTINUOUS
 10
-31.900205
 20
-13.454522
 11
-87.750185
 21
-13.454522
  0
LINE
  8
型材断面
  6
CONTINUOUS
 10
-31.900205
 20
-13.454522
 11
-31.900205
 21
42.39546
  0
LINE
  8
型材断面
  6
CONTINUOUS
 10
-36.25351
 20
-12.749513
 11
-86.273482
 21
37.270457
  0
LINE
  8
型材断面
  6
CONTINUOUS
 10
-32.605213
 20
-9.101215
 11
-82.625185
 21
40.91876
  0
LINE
  8
型材断面
  6
CONTINUOUS
 10
-31.900205
 20
-13.454522
 11
-87.750185
 21
42.39546
  0
LINE
  8
型材断面
  6
CONTINUOUS
 10
-86.000185
 20
97.540432
 11
-89.500185
 21
97.540432
  0
LINE
  8
型材断面
  6
CONTINUOUS
 10
-85.500185
 20
97.893985
 11
-90.000185
 21
97.893985
  0
LINE
  8
型材断面
  6
CONTINUOUS
 10
-90.000185
 20
97.893985
 11
-90.000185
 21
96.827722
  0
LINE
  8
型材断面
  6
CONTINUOUS
 10
-85.500185
 20
97.893985
 11
-85.500185
 21
96.827722
  0
LINE
  8
型材断面
  6
CONTINUOUS
 10
-138.534148
 20
96.827722
 11
-89.500185
 21
96.827722
  0
LINE
  8
型材断面
  6
CONTINUOUS
 10
-36.966223
 20
96.827722
 11
-86.000185
 21
96.827722
  0
LINE
  8
型材断面
  6
CONTINUOUS
 10
-86.000185
 20
-12.749513
 11
-89.500185
 21
-12.749513
  0
LINE
  8
型材断面
  6
CONTINUOUS
 10
-85.500185
 20
-13.103065
 11
-90.000185
 21
-13.103065
  0
LINE
  8
型材断面
  6
CONTINUOUS
 10
-90.000185
 20
-13.103065
 11
-90.000185
 21
-12.036802
  0
LINE
  8
型材断面
  6
CONTINUOUS
 10
-85.500185
 20
-13.103065
 11
-85.500185
 21
-12.036802
  0
LINE
  8
型材断面
  6
CONTINUOUS
 10
-32.605213
 20
40.645457
 11
-32.605213
 21
44.145457
  0
LINE
  8
型材断面
  6
CONTINUOUS
 10
-32.25166
 20
40.145457
 11
-32.25166
 21
44.645457
  0
LINE
  8
型材断面
  6
CONTINUOUS
 10
-32.25166
 20
44.645457
 11
-33.317922
 21
44.645457
  0
LINE
  8
型材断面
  6
CONTINUOUS
 10
-32.25166
 20
40.145457
 11
-33.317922
 21
40.145457
  0
LINE
  8
型材断面
  6
CONTINUOUS
 10
-142.895158
 20
40.645457
 11
-142.895158
 21
44.145457
  0
LINE
  8
型材断面
  6
CONTINUOUS
 10
-143.24871
 20
40.145457
 11
-143.24871
 21
44.645457
  0
LINE
  8
型材断面
  6
CONTINUOUS
 10
-143.24871
 20
44.645457
 11
-142.182448
 21
44.645457
  0
LINE
  8
型材断面
  6
CONTINUOUS
 10
-143.24871
 20
40.145457
 11
-142.182448
 21
40.145457
  0
LINE
  8
型材断面
  6
CONTINUOUS
 10
-86.000185
 20
97.540432
 11
-86.000185
 21
47.79376
  0
LINE
  8
型材断面
  6
CONTINUOUS
 10
-88.519783
 20
47.520463
 11
-89.500185
 21
48.500865
  0
LINE
  8
型材断面
  6
CONTINUOUS
 10
-89.500185
 20
97.540432
 11
-89.500185
 21
47.79376
  0
LINE
  8
型材断面
  6
CONTINUOUS
 10
-86.980587
 20
47.520463
 11
-86.000185
 21
48.500865
  0
LINE
  8
型材断面
  6
CONTINUOUS
 10
-86.000185
 20
-12.749513
 11
-86.000185
 21
36.99716
  0
LINE
  8
型材断面
  6
CONTINUOUS
 10
-88.519783
 20
37.270457
 11
-89.500185
 21
36.290055
  0
LINE
  8
型材断面
  6
CONTINUOUS
 10
-89.500185
 20
-12.749513
 11
-89.500185
 21
36.99716
  0
LINE
  8
型材断面
  6
CONTINUOUS
 10
-86.980587
 20
37.270457
 11
-86.000185
 21
36.290055
  0
LINE
  8
型材断面
  6
CONTINUOUS
 10
-32.605213
 20
40.645457
 11
-82.351885
 21
40.64546
  0
LINE
  8
型材断面
  6
CONTINUOUS
 10
-82.625183
 20
43.165057
 11
-81.64478
 21
44.14546
  0
LINE
  8
型材断面
  6
CONTINUOUS
 10
-32.605213
 20
44.145457
 11
-82.351885
 21
44.14546
  0
LINE
  8
型材断面
  6
CONTINUOUS
 10
-82.625183
 20
41.625863
 11
-81.64478
 21
40.64546
  0
LINE
  8
型材断面
  6
CONTINUOUS
 10
-142.895158
 20
40.645457
 11
-93.148485
 21
40.64546
  0
LINE
  8
型材断面
  6
CONTINUOUS
 10
-92.875187
 20
43.165057
 11
-93.85559
 21
44.14546
  0
LINE
  8
型材断面
  6
CONTINUOUS
 10
-142.895158
 20
44.145457
 11
-93.148485
 21
44.14546
  0
LINE
  8
型材断面
  6
CONTINUOUS
 10
-92.875187
 20
41.625863
 11
-93.85559
 21
40.64546
  0
LINE
  8
型材断面
  6
CONTINUOUS
 10
-142.182445
 20
-8.388502
 11
-142.182445
 21
40.645457
  0
LINE
  8
型材断面
  6
CONTINUOUS
 10
-142.182445
 20
93.179422
 11
-142.182445
 21
44.145457
  0
LINE
  8
型材断面
  6
CONTINUOUS
 10
-33.317925
 20
-8.388502
 11
-33.317925
 21
40.645457
  0
LINE
  8
型材断面
  6
CONTINUOUS
 10
-33.317925
 20
93.179422
 11
-33.317925
 21
44.145457
  0
LINE
  8
型材断面
  6
CONTINUOUS
 10
-138.534148
 20
-12.036802
 11
-89.500185
 21
-12.036802
  0
LINE
  8
型材断面
  6
CONTINUOUS
 10
-36.966223
 20
-12.036802
 11
-86.000185
 21
-12.036802
  0
LINE
  8
型材断面
  6
CONTINUOUS
 62
    47
 10
-140.725685
 20
-108.321767
 11
-140.725405
 21
-108.321767
  0
ARC
  8
型材断面
  6
CONTINUOUS
 62
    47
 10
-140.735185
 20
-108.406767
 40
0.015
 50
180.0
 51
270.0
  0
LINE
  8
型材断面
  6
CONTINUOUS
 62
    47
 10
-143.600388
 20
-104.521767
 11
-143.600382
 21
-104.771767
  0
LINE
  8
型材断面
  6
CONTINUOUS
 62
    47
 10
-143.243335
 20
-104.164715
 11
-143.600388
 21
-104.521767
  0
LINE
  8
型材断面
  6
CONTINUOUS
 62
    47
 10
-140.750185
 20
-108.406768
 11
-140.750185
 21
-108.346767
  0
ARC
  8
型材断面
  6
CONTINUOUS
 62
    47
 10
-140.725185
 20
-108.346767
 40
0.025
 50
89.999657
 51
180.0
  0
LINE
  8
型材断面
  6
CONTINUOUS
 62
    47
 10
-139.975185
 20
-114.396843
 11
-139.975185
 21
-113.646843
  0
LINE
  8
型材断面
  6
CONTINUOUS
 62
    47
 10
-140.725185
 20
-113.646843
 11
-140.725185
 21
-108.671843
  0
LINE
  8
型材断面
  6
CONTINUOUS
 62
    47
 10
-139.574965
 20
-108.536842
 11
-139.574965
 21
-108.421767
  0
LINE
  8
型材断面
  6
CONTINUOUS
 62
    47
 10
-139.324965
 20
-108.671843
 11
-139.324965
 21
-108.536842
  0
LINE
  8
型材断面
  6
CONTINUOUS
 62
    47
 10
-140.725185
 20
-108.321773
 11
-140.725185
 21
-106.911768
  0
LINE
  8
型材断面
  6
CONTINUOUS
 62
    47
 10
-142.100185
 20
-106.911768
 11
-142.100185
 21
-105.449288
  0
LINE
  8
型材断面
  6
CONTINUOUS
 62
    47
 10
-142.100185
 20
-105.449288
 11
-142.777703
 21
-104.771767
  0
LINE
  8
型材断面
  6
CONTINUOUS
 62
    47
 10
-143.243335
 20
-104.164715
 11
-142.182668
 21
-103.10405
  0
LINE
  8
型材断面
  6
CONTINUOUS
 10
-137.801322
 20
-103.10405
 11
-138.861988
 21
-104.164715
  0
LINE
  8
型材断面
  6
CONTINUOUS
 10
-139.06909
 20
-103.664715
 11
-142.743335
 21
-103.664715
  0
LINE
  8
型材断面
  6
CONTINUOUS
 10
-138.861988
 20
-104.164715
 11
-143.243335
 21
-104.164715
  0
LINE
  8
型材断面
  6
CONTINUOUS
 10
-87.750185
 20
-58.494765
 11
-87.750185
 21
-31.425
  0
LINE
  8
型材断面
  6
CONTINUOUS
 10
-92.875185
 20
-53.619762
 11
-87.750185
 21
-53.619762
  0
LINE
  8
型材断面
  6
CONTINUOUS
 10
-92.875185
 20
-53.619762
 11
-92.804475
 21
-53.690473
  0
LINE
  8
型材断面
  6
CONTINUOUS
 10
-87.750185
 20
-53.690473
 11
-92.804475
 21
-53.690473
  0
LINE
  8
型材断面
  6
CONTINUOUS
 10
-92.875185
 20
-53.619762
 11
-87.750185
 21
-48.49476
  0
LINE
  8
型材断面
  6
CONTINUOUS
 10
-82.625185
 20
-53.619762
 11
-87.750185
 21
-53.619762
  0
LINE
  8
型材断面
  6
CONTINUOUS
 10
-82.625185
 20
-53.619762
 11
-82.695895
 21
-53.690473
  0
LINE
  8
型材断面
  6
CONTINUOUS
 10
-87.750185
 20
-53.690473
 11
-82.695895
 21
-53.690473
  0
LINE
  8
型材断面
  6
CONTINUOUS
 10
-82.625185
 20
-53.619762
 11
-87.750185
 21
-48.49476
  0
LINE
  8
型材断面
  6
CONTINUOUS
 10
-139.06909
 20
-103.664715
 11
-89.09488
 21
-53.690473
  0
LINE
  8
型材断面
  6
CONTINUOUS
 10
-142.18267
 20
-103.10405
 11
-92.76912
 21
-53.690473
  0
LINE
  8
型材断面
  6
CONTINUOUS
 10
-143.600388
 20
-104.521767
 11
-87.750185
 21
-104.521767
  0
LINE
  8
型材断面
  6
CONTINUOUS
 62
    47
 10
-143.600382
 20
-104.771767
 11
-87.750185
 21
-104.771767
  0
LINE
  8
型材断面
  6
CONTINUOUS
 10
-142.100185
 20
-105.449288
 11
-87.750185
 21
-105.449288
  0
LINE
  8
型材断面
  6
CONTINUOUS
 62
    47
 10
-140.725185
 20
-108.671843
 11
-87.750185
 21
-108.671843
  0
LINE
  8
型材断面
  6
CONTINUOUS
 62
    47
 10
-140.735185
 20
-108.421767
 11
-87.750185
 21
-108.421767
  0
LINE
  8
型材断面
  6
CONTINUOUS
 62
    47
 10
-142.100185
 20
-106.911768
 11
-87.750185
 21
-106.911768
  0
LINE
  8
型材断面
  6
CONTINUOUS
 62
    47
 10
-139.574965
 20
-108.536842
 11
-87.750185
 21
-108.536842
  0
LINE
  8
型材断面
  6
CONTINUOUS
 62
    47
 10
-139.975185
 20
-114.396843
 11
-87.750185
 21
-114.396843
  0
LINE
  8
型材断面
  6
CONTINUOUS
 62
    47
 10
-140.725185
 20
-113.646843
 11
-87.750185
 21
-113.646843
  0
LINE
  8
型材断面
  6
CONTINUOUS
 62
    47
 10
-34.774685
 20
-108.321767
 11
-34.774965
 21
-108.321767
  0
ARC
  8
型材断面
  6
CONTINUOUS
 62
    47
 10
-34.765185
 20
-108.406767
 40
0.015
 50
270.0
 51
360.0
  0
LINE
  8
型材断面
  6
CONTINUOUS
 62
    47
 10
-31.899982
 20
-104.521767
 11
-31.899988
 21
-104.771767
  0
LINE
  8
型材断面
  6
CONTINUOUS
 62
    47
 10
-32.257035
 20
-104.164715
 11
-31.899982
 21
-104.521767
  0
LINE
  8
型材断面
  6
CONTINUOUS
 62
    47
 10
-34.750185
 20
-108.406768
 11
-34.750185
 21
-108.346767
  0
ARC
  8
型材断面
  6
CONTINUOUS
 62
    47
 10
-34.775185
 20
-108.346767
 40
0.025
 50
0.0
 51
90.000343
  0
LINE
  8
型材断面
  6
CONTINUOUS
 62
    47
 10
-35.525185
 20
-114.396843
 11
-35.525185
 21
-113.646843
  0
LINE
  8
型材断面
  6
CONTINUOUS
 62
    47
 10
-34.775185
 20
-113.646843
 11
-34.775185
 21
-108.671843
  0
LINE
  8
型材断面
  6
CONTINUOUS
 62
    47
 10
-35.925405
 20
-108.536842
 11
-35.925405
 21
-108.421767
  0
LINE
  8
型材断面
  6
CONTINUOUS
 62
    47
 10
-36.175405
 20
-108.671843
 11
-36.175405
 21
-108.536842
  0
LINE
  8
型材断面
  6
CONTINUOUS
 62
    47
 10
-34.775185
 20
-108.321773
 11
-34.775185
 21
-106.911768
  0
LINE
  8
型材断面
  6
CONTINUOUS
 62
    47
 10
-33.400185
 20
-106.911768
 11
-33.400185
 21
-105.449288
  0
LINE
  8
型材断面
  6
CONTINUOUS
 62
    47
 10
-33.400185
 20
-105.449288
 11
-32.722667
 21
-104.771767
  0
LINE
  8
型材断面
  6
CONTINUOUS
 62
    47
 10
-32.257035
 20
-104.164715
 11
-33.317702
 21
-103.10405
  0
LINE
  8
型材断面
  6
CONTINUOUS
 10
-37.699047
 20
-103.10405
 11
-36.638382
 21
-104.164715
  0
LINE
  8
型材断面
  6
CONTINUOUS
 10
-36.43128
 20
-103.664715
 11
-32.757035
 21
-103.664715
  0
LINE
  8
型材断面
  6
CONTINUOUS
 10
-36.638382
 20
-104.164715
 11
-32.257035
 21
-104.164715
  0
LINE
  8
型材断面
  6
CONTINUOUS
 10
-36.43128
 20
-103.664715
 11
-86.40549
 21
-53.690473
  0
LINE
  8
型材断面
  6
CONTINUOUS
 10
-33.3177
 20
-103.10405
 11
-82.73125
 21
-53.690473
  0
LINE
  8
型材断面
  6
CONTINUOUS
 10
-31.899982
 20
-104.521767
 11
-87.750185
 21
-104.521767
  0
LINE
  8
型材断面
  6
CONTINUOUS
 62
    47
 10
-31.899988
 20
-104.771767
 11
-87.750185
 21
-104.771767
  0
LINE
  8
型材断面
  6
CONTINUOUS
 10
-33.400185
 20
-105.449288
 11
-87.750185
 21
-105.449288
  0
LINE
  8
型材断面
  6
CONTINUOUS
 62
    47
 10
-34.775185
 20
-108.671843
 11
-87.750185
 21
-108.671843
  0
LINE
  8
型材断面
  6
CONTINUOUS
 62
    47
 10
-34.765185
 20
-108.421767
 11
-87.750185
 21
-108.421767
  0
LINE
  8
型材断面
  6
CONTINUOUS
 62
    47
 10
-33.400185
 20
-106.911768
 11
-87.750185
 21
-106.911768
  0
LINE
  8
型材断面
  6
CONTINUOUS
 62
    47
 10
-35.925405
 20
-108.536842
 11
-87.750185
 21
-108.536842
  0
LINE
  8
型材断面
  6
CONTINUOUS
 62
    47
 10
-35.525185
 20
-114.396843
 11
-87.750185
 21
-114.396843
  0
LINE
  8
型材断面
  6
CONTINUOUS
 62
    47
 10
-34.775185
 20
-113.646843
 11
-87.750185
 21
-113.646843
  0
LINE
  8
型材断面
  6
CONTINUOUS
 10
-89.500185
 20
-103.664715
 11
-86.000185
 21
-103.664715
  0
LINE
  8
型材断面
  6
CONTINUOUS
 10
-85.500185
 20
-104.164715
 11
-90.000185
 21
-104.164715
  0
LINE
  8
型材断面
  6
CONTINUOUS
 10
-90.000185
 20
-104.164715
 11
-90.000185
 21
-103.10405
  0
LINE
  8
型材断面
  6
CONTINUOUS
 10
-85.500185
 20
-104.164715
 11
-85.500185
 21
-103.10405
  0
LINE
  8
型材断面
  6
CONTINUOUS
 10
-138.508425
 20
-103.10405
 11
-89.500185
 21
-103.10405
  0
LINE
  8
型材断面
  6
CONTINUOUS
 10
-36.991945
 20
-103.10405
 11
-86.000185
 21
-103.10405
  0
LINE
  8
型材断面
  6
CONTINUOUS
 10
-89.500185
 20
-103.664715
 11
-89.500185
 21
-53.619762
  0
LINE
  8
型材断面
  6
CONTINUOUS
 10
-86.000185
 20
-103.664715
 11
-86.000185
 21
-53.619762
  0
LINE
  8
型材断面
  6
DASHDOT
 10
-137.750185
 20
42.39546
 11
-137.750185
 21
-114.396843
  0
LINE
  8
型材断面
  6
DASHDOT
 10
-87.750185
 20
42.39546
 11
-87.750185
 21
-114.396843
  0
LINE
  8
型材断面
  6
DASHDOT
 10
-37.750185
 20
42.39546
 11
-37.750185
 21
-114.396843
  0
LINE
  8
型材断面
  6
CONTINUOUS
 10
-145.77406
 20
-2.054543
 11
-149.65982
 21
-1.160458
  0
LINE
  8
型材断面
  6
CONTINUOUS
 10
-145.77406
 20
-2.054543
 11
-149.65982
 21
-2.948628
  0
LINE
  8
型材断面
  6
CONTINUOUS
 10
-149.65982
 20
-2.948628
 11
-149.65982
 21
-1.160458
  0
LINE
  8
型材断面
  6
CONTINUOUS
 10
-87.750185
 20
-15.628415
 11
-89.99363
 21
-19.514175
  0
LINE
  8
型材断面
  6
CONTINUOUS
 10
-87.750185
 20
-15.628415
 11
-85.50674
 21
-19.514175
  0
LINE
  8
型材断面
  6
CONTINUOUS
 10
-85.50674
 20
-19.514175
 11
-89.99363
 21
-19.514175
  0
LINE
  8
型材断面
  6
CONTINUOUS
 10
-145.774063
 20
42.39546
 11
-149.659822
 21
40.152015
  0
LINE
  8
型材断面
  6
CONTINUOUS
 10
-145.774063
 20
42.39546
 11
-149.659822
 21
44.638905
  0
LINE
  8
型材断面
  6
CONTINUOUS
 10
-149.659822
 20
44.638905
 11
-149.659822
 21
40.152015
  0
LINE
  8
型材断面
  6
CONTINUOUS
 10
-145.77406
 20
86.845463
 11
-149.65982
 21
85.951377
  0
LINE
  8
型材断面
  6
CONTINUOUS
 10
-145.77406
 20
86.845463
 11
-149.65982
 21
87.739547
  0
LINE
  8
型材断面
  6
CONTINUOUS
 10
-149.65982
 20
87.739547
 11
-149.65982
 21
85.951377
  0
LINE
  8
型材断面
  6
CONTINUOUS
 10
-87.750185
 20
100.419335
 11
-89.99363
 21
104.305095
  0
LINE
  8
型材断面
  6
CONTINUOUS
 10
-87.750185
 20
100.419335
 11
-85.50674
 21
104.305095
  0
LINE
  8
型材断面
  6
CONTINUOUS
 10
-85.50674
 20
104.305095
 11
-89.99363
 21
104.305095
  0
LINE
  8
型材断面
  6
CONTINUOUS
 10
-29.72631
 20
-2.054543
 11
-25.84055
 21
-1.160458
  0
LINE
  8
型材断面
  6
CONTINUOUS
 10
-29.72631
 20
-2.054543
 11
-25.84055
 21
-2.948628
  0
LINE
  8
型材断面
  6
CONTINUOUS
 10
-25.84055
 20
-2.948628
 11
-25.84055
 21
-1.160458
  0
LINE
  8
型材断面
  6
CONTINUOUS
 10
-29.726307
 20
42.39546
 11
-25.840547
 21
40.152015
  0
LINE
  8
型材断面
  6
CONTINUOUS
 10
-29.726307
 20
42.39546
 11
-25.840547
 21
44.638905
  0
LINE
  8
型材断面
  6
CONTINUOUS
 10
-25.840547
 20
44.638905
 11
-25.840547
 21
40.152015
  0
LINE
  8
型材断面
  6
CONTINUOUS
 10
-29.72631
 20
86.845463
 11
-25.84055
 21
85.951377
  0
LINE
  8
型材断面
  6
CONTINUOUS
 10
-29.72631
 20
86.845463
 11
-25.84055
 21
87.739547
  0
LINE
  8
型材断面
  6
CONTINUOUS
 10
-25.84055
 20
87.739547
 11
-25.84055
 21
85.951377
  0
POLYLINE
  8
型材断面
  6
CONTINUOUS
 66
     1
 70
     1
  0
VERTEX
  8
型材断面
 10
-78.467185
 20
110.614107
  0
VERTEX
  8
型材断面
 10
-97.022397
 20
110.614107
  0
VERTEX
  8
型材断面
 10
-97.022397
 20
105.822072
  0
VERTEX
  8
型材断面
 10
-78.467185
 20
105.822072
  0
SEQEND
  0
POLYLINE
  8
型材断面
  6
CONTINUOUS
 66
     1
 70
     1
  0
VERTEX
  8
型材断面
 10
-78.467185
 20
-20.707107
  0
VERTEX
  8
型材断面
 10
-97.022397
 20
-20.707107
  0
VERTEX
  8
型材断面
 10
-97.022397
 20
-25.499143
  0
VERTEX
  8
型材断面
 10
-78.467185
 20
-25.499143
  0
SEQEND
  0
LINE
  8
型材断面
  6
CONTINUOUS
 62
    47
 10
30.18076
 20
-108.321767
 11
30.18104
 21
-108.321767
  0
ARC
  8
型材断面
  6
CONTINUOUS
 62
    47
 10
30.171259
 20
-108.406767
 40
0.015
 50
180.0
 51
270.0
  0
LINE
  8
型材断面
  6
CONTINUOUS
 62
    47
 10
27.306057
 20
-104.521767
 11
27.306063
 21
-104.771767
  0
LINE
  8
型材断面
  6
CONTINUOUS
 62
    47
 10
27.66311
 20
-104.164715
 11
27.306057
 21
-104.521767
  0
LINE
  8
型材断面
  6
CONTINUOUS
 62
    47
 10
30.15626
 20
-108.406768
 11
30.15626
 21
-108.346767
  0
ARC
  8
型材断面
  6
CONTINUOUS
 62
    47
 10
30.181259
 20
-108.346767
 40
0.025
 50
89.999657
 51
180.0
  0
LINE
  8
型材断面
  6
CONTINUOUS
 62
    47
 10
30.93126
 20
-114.396843
 11
30.93126
 21
-113.646843
  0
LINE
  8
型材断面
  6
CONTINUOUS
 62
    47
 10
30.18126
 20
-113.646843
 11
30.18126
 21
-108.671843
  0
LINE
  8
型材断面
  6
CONTINUOUS
 62
    47
 10
31.33148
 20
-108.536842
 11
31.33148
 21
-108.421767
  0
LINE
  8
型材断面
  6
CONTINUOUS
 62
    47
 10
31.58148
 20
-108.671843
 11
31.58148
 21
-108.536842
  0
LINE
  8
型材断面
  6
CONTINUOUS
 62
    47
 10
30.18126
 20
-108.321773
 11
30.18126
 21
-106.911768
  0
LINE
  8
型材断面
  6
CONTINUOUS
 62
    47
 10
28.80626
 20
-106.911768
 11
28.80626
 21
-105.449288
  0
LINE
  8
型材断面
  6
CONTINUOUS
 62
    47
 10
28.80626
 20
-105.449288
 11
28.128743
 21
-104.771767
  0
LINE
  8
型材断面
  6
CONTINUOUS
 62
    47
 10
27.66311
 20
-104.164715
 11
28.723777
 21
-103.10405
  0
LINE
  8
型材断面
  6
CONTINUOUS
 10
33.105122
 20
-103.10405
 11
32.044457
 21
-104.164715
  0
LINE
  8
型材断面
  6
CONTINUOUS
 10
31.837355
 20
-103.664715
 11
28.16311
 21
-103.664715
  0
LINE
  8
型材断面
  6
CONTINUOUS
 10
32.044457
 20
-104.164715
 11
27.66311
 21
-104.164715
  0
LINE
  8
型材断面
  6
CONTINUOUS
 10
78.03126
 20
-53.619762
 11
83.15626
 21
-53.619762
  0
LINE
  8
型材断面
  6
CONTINUOUS
 10
78.03126
 20
-53.619762
 11
78.10197
 21
-53.690473
  0
LINE
  8
型材断面
  6
CONTINUOUS
 10
83.15626
 20
-53.690473
 11
78.10197
 21
-53.690473
  0
LINE
  8
型材断面
  6
CONTINUOUS
 10
78.03126
 20
-53.619762
 11
83.15626
 21
-48.49476
  0
LINE
  8
型材断面
  6
CONTINUOUS
 10
88.28126
 20
-53.619762
 11
83.15626
 21
-53.619762
  0
LINE
  8
型材断面
  6
CONTINUOUS
 10
88.28126
 20
-53.619762
 11
88.21055
 21
-53.690473
  0
LINE
  8
型材断面
  6
CONTINUOUS
 10
83.15626
 20
-53.690473
 11
88.21055
 21
-53.690473
  0
LINE
  8
型材断面
  6
CONTINUOUS
 10
88.28126
 20
-53.619762
 11
83.15626
 21
-48.49476
  0
LINE
  8
型材断面
  6
CONTINUOUS
 10
31.837355
 20
-103.664715
 11
81.811565
 21
-53.690473
  0
LINE
  8
型材断面
  6
CONTINUOUS
 10
28.723775
 20
-103.10405
 11
78.137325
 21
-53.690473
  0
LINE
  8
型材断面
  6
CONTINUOUS
 10
27.306057
 20
-104.521767
 11
83.15626
 21
-104.521767
  0
LINE
  8
型材断面
  6
CONTINUOUS
 62
    47
 10
27.306063
 20
-104.771767
 11
83.15626
 21
-104.771767
  0
LINE
  8
型材断面
  6
CONTINUOUS
 10
28.80626
 20
-105.449288
 11
83.15626
 21
-105.449288
  0
LINE
  8
型材断面
  6
CONTINUOUS
 62
    47
 10
30.18126
 20
-108.671843
 11
83.15626
 21
-108.671843
  0
LINE
  8
型材断面
  6
CONTINUOUS
 62
    47
 10
30.17126
 20
-108.421767
 11
83.15626
 21
-108.421767
  0
LINE
  8
型材断面
  6
CONTINUOUS
 62
    47
 10
28.80626
 20
-106.911768
 11
83.15626
 21
-106.911768
  0
LINE
  8
型材断面
  6
CONTINUOUS
 62
    47
 10
31.33148
 20
-108.536842
 11
83.15626
 21
-108.536842
  0
LINE
  8
型材断面
  6
CONTINUOUS
 62
    47
 10
30.93126
 20
-114.396843
 11
83.15626
 21
-114.396843
  0
LINE
  8
型材断面
  6
CONTINUOUS
 62
    47
 10
30.18126
 20
-113.646843
 11
83.15626
 21
-113.646843
  0
LINE
  8
型材断面
  6
CONTINUOUS
 62
    47
 10
136.13176
 20
-108.321767
 11
136.13148
 21
-108.321767
  0
ARC
  8
型材断面
  6
CONTINUOUS
 62
    47
 10
136.141259
 20
-108.406767
 40
0.015
 50
270.0
 51
360.0
  0
LINE
  8
型材断面
  6
CONTINUOUS
 62
    47
 10
139.006463
 20
-104.521767
 11
139.006458
 21
-104.771767
  0
LINE
  8
型材断面
  6
CONTINUOUS
 62
    47
 10
138.64941
 20
-104.164715
 11
139.006463
 21
-104.521767
  0
LINE
  8
型材断面
  6
CONTINUOUS
 62
    47
 10
136.15626
 20
-108.406768
 11
136.15626
 21
-108.346767
  0
ARC
  8
型材断面
  6
CONTINUOUS
 62
    47
 10
136.131259
 20
-108.346767
 40
0.025
 50
0.0
 51
90.000343
  0
LINE
  8
型材断面
  6
CONTINUOUS
 62
    47
 10
135.38126
 20
-114.396843
 11
135.38126
 21
-113.646843
  0
LINE
  8
型材断面
  6
CONTINUOUS
 62
    47
 10
136.13126
 20
-113.646843
 11
136.13126
 21
-108.671843
  0
LINE
  8
型材断面
  6
CONTINUOUS
 62
    47
 10
134.98104
 20
-108.536842
 11
134.98104
 21
-108.421767
  0
LINE
  8
型材断面
  6
CONTINUOUS
 62
    47
 10
134.73104
 20
-108.671843
 11
134.73104
 21
-108.536842
  0
LINE
  8
型材断面
  6
CONTINUOUS
 62
    47
 10
136.13126
 20
-108.321773
 11
136.13126
 21
-106.911768
  0
LINE
  8
型材断面
  6
CONTINUOUS
 62
    47
 10
137.50626
 20
-106.911768
 11
137.50626
 21
-105.449288
  0
LINE
  8
型材断面
  6
CONTINUOUS
 62
    47
 10
137.50626
 20
-105.449288
 11
138.183777
 21
-104.771767
  0
LINE
  8
型材断面
  6
CONTINUOUS
 62
    47
 10
138.64941
 20
-104.164715
 11
137.588743
 21
-103.10405
  0
LINE
  8
型材断面
  6
CONTINUOUS
 10
133.207397
 20
-103.10405
 11
134.268063
 21
-104.164715
  0
LINE
  8
型材断面
  6
CONTINUOUS
 10
134.475165
 20
-103.664715
 11
138.14941
 21
-103.664715
  0
LINE
  8
型材断面
  6
CONTINUOUS
 10
134.268063
 20
-104.164715
 11
138.64941
 21
-104.164715
  0
LINE
  8
型材断面
  6
CONTINUOUS
 10
134.475165
 20
-103.664715
 11
84.500955
 21
-53.690473
  0
LINE
  8
型材断面
  6
CONTINUOUS
 10
137.588745
 20
-103.10405
 11
88.175195
 21
-53.690473
  0
LINE
  8
型材断面
  6
CONTINUOUS
 10
139.006463
 20
-104.521767
 11
83.15626
 21
-104.521767
  0
LINE
  8
型材断面
  6
CONTINUOUS
 62
    47
 10
139.006458
 20
-104.771767
 11
83.15626
 21
-104.771767
  0
LINE
  8
型材断面
  6
CONTINUOUS
 10
137.50626
 20
-105.449288
 11
83.15626
 21
-105.449288
  0
LINE
  8
型材断面
  6
CONTINUOUS
 62
    47
 10
136.13126
 20
-108.671843
 11
83.15626
 21
-108.671843
  0
LINE
  8
型材断面
  6
CONTINUOUS
 62
    47
 10
136.14126
 20
-108.421767
 11
83.15626
 21
-108.421767
  0
LINE
  8
型材断面
  6
CONTINUOUS
 62
    47
 10
137.50626
 20
-106.911768
 11
83.15626
 21
-106.911768
  0
LINE
  8
型材断面
  6
CONTINUOUS
 62
    47
 10
134.98104
 20
-108.536842
 11
83.15626
 21
-108.536842
  0
LINE
  8
型材断面
  6
CONTINUOUS
 62
    47
 10
135.38126
 20
-114.396843
 11
83.15626
 21
-114.396843
  0
LINE
  8
型材断面
  6
CONTINUOUS
 62
    47
 10
136.13126
 20
-113.646843
 11
83.15626
 21
-113.646843
  0
LINE
  8
型材断面
  6
CONTINUOUS
 10
81.40626
 20
-103.664715
 11
84.90626
 21
-103.664715
  0
LINE
  8
型材断面
  6
CONTINUOUS
 10
85.40626
 20
-104.164715
 11
80.90626
 21
-104.164715
  0
LINE
  8
型材断面
  6
CONTINUOUS
 10
80.90626
 20
-104.164715
 11
80.90626
 21
-103.10405
  0
LINE
  8
型材断面
  6
CONTINUOUS
 10
85.40626
 20
-104.164715
 11
85.40626
 21
-103.10405
  0
LINE
  8
型材断面
  6
CONTINUOUS
 10
32.39802
 20
-103.10405
 11
81.40626
 21
-103.10405
  0
LINE
  8
型材断面
  6
CONTINUOUS
 10
133.9145
 20
-103.10405
 11
84.90626
 21
-103.10405
  0
LINE
  8
型材断面
  6
CONTINUOUS
 10
81.40626
 20
-103.664715
 11
81.40626
 21
-53.619762
  0
LINE
  8
型材断面
  6
CONTINUOUS
 10
84.90626
 20
-103.664715
 11
84.90626
 21
-53.619762
  0
LINE
  8
型材断面
  6
DOT
 62
    47
 10
30.18076
 20
-83.321767
 11
30.18104
 21
-83.321767
  0
ARC
  8
型材断面
  6
DOT
 62
    47
 10
30.171259
 20
-83.406767
 40
0.015
 50
180.0
 51
270.0
  0
LINE
  8
型材断面
  6
DOT
 62
    47
 10
27.306057
 20
-79.521767
 11
27.306063
 21
-79.771767
  0
LINE
  8
型材断面
  6
DOT
 62
    47
 10
27.66311
 20
-79.164715
 11
27.306057
 21
-79.521767
  0
LINE
  8
型材断面
  6
DOT
 62
    47
 10
30.15626
 20
-83.406768
 11
30.15626
 21
-83.346767
  0
ARC
  8
型材断面
  6
DOT
 62
    47
 10
30.181259
 20
-83.346767
 40
0.025
 50
89.999657
 51
180.0
  0
LINE
  8
型材断面
  6
DOT
 62
    47
 10
31.33148
 20
-83.536842
 11
31.33148
 21
-83.421767
  0
LINE
  8
型材断面
  6
DOT
 62
    47
 10
30.18126
 20
-83.321773
 11
30.18126
 21
-81.911768
  0
LINE
  8
型材断面
  6
DOT
 62
    47
 10
28.80626
 20
-81.911768
 11
28.80626
 21
-80.449287
  0
LINE
  8
型材断面
  6
DOT
 62
    47
 10
28.80626
 20
-80.449287
 11
28.128743
 21
-79.771767
  0
LINE
  8
型材断面
  6
DOT
 62
    47
 10
27.66311
 20
-79.164715
 11
28.723777
 21
-78.10405
  0
LINE
  8
型材断面
  6
DOT
 10
33.105122
 20
-78.10405
 11
32.044457
 21
-79.164715
  0
LINE
  8
型材断面
  6
DOT
 10
31.837355
 20
-78.664715
 11
28.16311
 21
-78.664715
  0
LINE
  8
型材断面
  6
DOT
 10
32.044457
 20
-79.164715
 11
27.66311
 21
-79.164715
  0
LINE
  8
型材断面
  6
DOT
 10
78.03126
 20
-28.619762
 11
83.15626
 21
-28.619762
  0
LINE
  8
型材断面
  6
DOT
 10
78.03126
 20
-28.619762
 11
78.10197
 21
-28.690473
  0
LINE
  8
型材断面
  6
DOT
 10
83.15626
 20
-28.690473
 11
78.10197
 21
-28.690473
  0
LINE
  8
型材断面
  6
DOT
 10
78.03126
 20
-28.619762
 11
83.15626
 21
-23.49476
  0
LINE
  8
型材断面
  6
DOT
 10
88.28126
 20
-28.619762
 11
83.15626
 21
-28.619762
  0
LINE
  8
型材断面
  6
DOT
 10
88.28126
 20
-28.619762
 11
88.21055
 21
-28.690473
  0
LINE
  8
型材断面
  6
DOT
 10
83.15626
 20
-28.690473
 11
88.21055
 21
-28.690473
  0
LINE
  8
型材断面
  6
DOT
 10
88.28126
 20
-28.619762
 11
83.15626
 21
-23.49476
  0
LINE
  8
型材断面
  6
DOT
 10
31.837355
 20
-78.664715
 11
81.811565
 21
-28.690473
  0
LINE
  8
型材断面
  6
DOT
 10
28.723775
 20
-78.10405
 11
78.137325
 21
-28.690473
  0
LINE
  8
型材断面
  6
DOT
 10
27.306057
 20
-79.521767
 11
83.15626
 21
-79.521767
  0
LINE
  8
型材断面
  6
DOT
 62
    47
 10
27.306063
 20
-79.771767
 11
83.15626
 21
-79.771767
  0
LINE
  8
型材断面
  6
DOT
 10
28.80626
 20
-80.449287
 11
83.15626
 21
-80.449287
  0
LINE
  8
型材断面
  6
DOT
 62
    47
 10
30.17126
 20
-83.421767
 11
83.15626
 21
-83.421767
  0
LINE
  8
型材断面
  6
DOT
 62
    47
 10
28.80626
 20
-81.911768
 11
83.15626
 21
-81.911768
  0
LINE
  8
型材断面
  6
DOT
 62
    47
 10
31.33148
 20
-83.536842
 11
83.15626
 21
-83.536842
  0
LINE
  8
型材断面
  6
DOT
 62
    47
 10
136.13176
 20
-83.321767
 11
136.13148
 21
-83.321767
  0
ARC
  8
型材断面
  6
DOT
 62
    47
 10
136.141259
 20
-83.406767
 40
0.015
 50
270.0
 51
360.0
  0
LINE
  8
型材断面
  6
DOT
 62
    47
 10
139.006463
 20
-79.521767
 11
139.006458
 21
-79.771767
  0
LINE
  8
型材断面
  6
DOT
 62
    47
 10
138.64941
 20
-79.164715
 11
139.006463
 21
-79.521767
  0
LINE
  8
型材断面
  6
DOT
 62
    47
 10
136.15626
 20
-83.406768
 11
136.15626
 21
-83.346767
  0
ARC
  8
型材断面
  6
DOT
 62
    47
 10
136.131259
 20
-83.346767
 40
0.025
 50
0.0
 51
90.000343
  0
LINE
  8
型材断面
  6
DOT
 62
    47
 10
134.98104
 20
-83.536842
 11
134.98104
 21
-83.421767
  0
LINE
  8
型材断面
  6
DOT
 62
    47
 10
136.13126
 20
-83.321773
 11
136.13126
 21
-81.911768
  0
LINE
  8
型材断面
  6
DOT
 62
    47
 10
137.50626
 20
-81.911768
 11
137.50626
 21
-80.449287
  0
LINE
  8
型材断面
  6
DOT
 62
    47
 10
137.50626
 20
-80.449287
 11
138.183777
 21
-79.771767
  0
LINE
  8
型材断面
  6
DOT
 62
    47
 10
138.64941
 20
-79.164715
 11
137.588743
 21
-78.10405
  0
LINE
  8
型材断面
  6
DOT
 10
133.207397
 20
-78.10405
 11
134.268063
 21
-79.164715
  0
LINE
  8
型材断面
  6
DOT
 10
134.475165
 20
-78.664715
 11
138.14941
 21
-78.664715
  0
LINE
  8
型材断面
  6
DOT
 10
134.268063
 20
-79.164715
 11
138.64941
 21
-79.164715
  0
LINE
  8
型材断面
  6
DOT
 10
134.475165
 20
-78.664715
 11
84.500955
 21
-28.690473
  0
LINE
  8
型材断面
  6
DOT
 10
137.588745
 20
-78.10405
 11
88.175195
 21
-28.690473
  0
LINE
  8
型材断面
  6
DOT
 10
139.006463
 20
-79.521767
 11
83.15626
 21
-79.521767
  0
LINE
  8
型材断面
  6
DOT
 62
    47
 10
139.006458
 20
-79.771767
 11
83.15626
 21
-79.771767
  0
LINE
  8
型材断面
  6
DOT
 10
137.50626
 20
-80.449287
 11
83.15626
 21
-80.449287
  0
LINE
  8
型材断面
  6
DOT
 62
    47
 10
136.14126
 20
-83.421767
 11
83.15626
 21
-83.421767
  0
LINE
  8
型材断面
  6
DOT
 62
    47
 10
137.50626
 20
-81.911768
 11
83.15626
 21
-81.911768
  0
LINE
  8
型材断面
  6
DOT
 62
    47
 10
134.98104
 20
-83.536842
 11
83.15626
 21
-83.536842
  0
LINE
  8
型材断面
  6
DOT
 10
81.40626
 20
-78.664715
 11
84.90626
 21
-78.664715
  0
LINE
  8
型材断面
  6
DOT
 10
85.40626
 20
-79.164715
 11
80.90626
 21
-79.164715
  0
LINE
  8
型材断面
  6
DOT
 10
80.90626
 20
-79.164715
 11
80.90626
 21
-78.10405
  0
LINE
  8
型材断面
  6
DOT
 10
85.40626
 20
-79.164715
 11
85.40626
 21
-78.10405
  0
LINE
  8
型材断面
  6
DOT
 10
32.39802
 20
-78.10405
 11
81.40626
 21
-78.10405
  0
LINE
  8
型材断面
  6
DOT
 10
133.9145
 20
-78.10405
 11
84.90626
 21
-78.10405
  0
LINE
  8
型材断面
  6
DOT
 10
81.40626
 20
-78.664715
 11
81.40626
 21
-28.619762
  0
LINE
  8
型材断面
  6
DOT
 10
84.90626
 20
-78.664715
 11
84.90626
 21
-28.619762
  0
INSERT
  2
*GRP_0014
  8
型材断面
  6
DOT
 10
0.0
 20
0.0
  0
INSERT
  2
*GRP_0015
  8
型材断面
  6
DOT
 10
0.0
 20
0.0
  0
INSERT
  2
*GRP_0016
  8
型材断面
  6
DOT
 10
0.0
 20
0.0
  0
INSERT
  2
*GRP_0017
  8
型材断面
  6
DOT
 10
0.0
 20
0.0
  0
LINE
  8
型材断面
  6
CONTINUOUS
 10
118.056735
 20
56.552347
 11
141.988357
 21
56.552347
  0
LINE
  8
型材断面
  6
CONTINUOUS
 10
1.482467
 20
-22.009117
 11
54.139148
 21
-22.009117
  0
LINE
  8
ガラス
  6
CONTINUOUS
 10
-100.829307
 20
79.464443
 11
-104.701943
 21
75.591807
  0
LINE
  8
ガラス
  6
CONTINUOUS
 10
-102.427665
 20
78.58412
 11
-103.82162
 21
77.190165
  0
LINE
  8
ガラス
  6
CONTINUOUS
 10
-101.70963
 20
77.866085
 11
-103.103585
 21
76.47213
  0
LINE
  8
ガラス
  6
CONTINUOUS
 10
-73.157432
 20
79.464443
 11
-77.030068
 21
75.591807
  0
LINE
  8
ガラス
  6
CONTINUOUS
 10
-74.75579
 20
78.58412
 11
-76.149745
 21
77.190165
  0
LINE
  8
ガラス
  6
CONTINUOUS
 10
-74.037755
 20
77.866085
 11
-75.43171
 21
76.47213
  0
LINE
  8
ガラス
  6
CONTINUOUS
 10
-100.829307
 20
11.401943
 11
-104.701943
 21
7.529307
  0
LINE
  8
ガラス
  6
CONTINUOUS
 10
-102.427665
 20
10.52162
 11
-103.82162
 21
9.127665
  0
LINE
  8
ガラス
  6
CONTINUOUS
 10
-101.70963
 20
9.803585
 11
-103.103585
 21
8.40963
  0
LINE
  8
ガラス
  6
CONTINUOUS
 10
-73.157432
 20
11.401943
 11
-77.030068
 21
7.529307
  0
LINE
  8
ガラス
  6
CONTINUOUS
 10
-74.75579
 20
10.52162
 11
-76.149745
 21
9.127665
  0
LINE
  8
ガラス
  6
CONTINUOUS
 10
-74.037755
 20
9.803585
 11
-75.43171
 21
8.40963
  0
LINE
  8
ガラス
  6
CONTINUOUS
 10
-52.379307
 20
56.442568
 11
-56.251943
 21
52.569932
  0
LINE
  8
ガラス
  6
CONTINUOUS
 10
-53.977665
 20
55.562245
 11
-55.37162
 21
54.16829
  0
LINE
  8
ガラス
  6
CONTINUOUS
 10
-53.25963
 20
54.84421
 11
-54.653585
 21
53.450255
  0
LINE
  8
ガラス
  6
CONTINUOUS
 10
-52.379307
 20
30.833193
 11
-56.251943
 21
26.960557
  0
LINE
  8
ガラス
  6
CONTINUOUS
 10
-53.977665
 20
29.95287
 11
-55.37162
 21
28.558915
  0
LINE
  8
ガラス
  6
CONTINUOUS
 10
-53.25963
 20
29.234835
 11
-54.653585
 21
27.84088
  0
LINE
  8
ガラス
  6
CONTINUOUS
 10
-118.379307
 20
56.442568
 11
-122.251943
 21
52.569932
  0
LINE
  8
ガラス
  6
CONTINUOUS
 10
-119.977665
 20
55.562245
 11
-121.37162
 21
54.16829
  0
LINE
  8
ガラス
  6
CONTINUOUS
 10
-119.25963
 20
54.84421
 11
-120.653585
 21
53.450255
  0
LINE
  8
ガラス
  6
CONTINUOUS
 10
-118.379307
 20
30.833193
 11
-122.251943
 21
26.960557
  0
LINE
  8
ガラス
  6
CONTINUOUS
 10
-119.977665
 20
29.95287
 11
-121.37162
 21
28.558915
  0
LINE
  8
ガラス
  6
CONTINUOUS
 10
-119.25963
 20
29.234835
 11
-120.653585
 21
27.84088
  0
LINE
  8
ガラス
  6
CONTINUOUS
 10
-100.780945
 20
-85.110778
 11
-104.65358
 21
-88.983413
  0
LINE
  8
ガラス
  6
CONTINUOUS
 10
-101.661268
 20
-86.709135
 11
-103.055223
 21
-88.10309
  0
LINE
  8
ガラス
  6
CONTINUOUS
 10
-102.379302
 20
-85.9911
 11
-103.773258
 21
-87.385055
  0
LINE
  8
ガラス
  6
CONTINUOUS
 10
-69.288682
 20
-85.110778
 11
-73.161318
 21
-88.983413
  0
LINE
  8
ガラス
  6
CONTINUOUS
 10
-70.169005
 20
-86.709135
 11
-71.56296
 21
-88.10309
  0
LINE
  8
ガラス
  6
CONTINUOUS
 10
-70.88704
 20
-85.9911
 11
-72.280995
 21
-87.385055
  0
TEXT
  7
TextStyle03
  8
文字
  6
CONTINUOUS
 10
14.825
 20
4.65
  1
は排水穴位置を示す
 40
3.0
 72
     5
 11
44.825
 21
4.65
  0
TEXT
  7
TextStyle03
  8
文字
  6
CONTINUOUS
 10
14.825
 20
-3.2
  1
はケーシング位置を示す
 40
3.0
 72
     5
 11
51.575
 21
-3.2
  0
TEXT
  7
TextStyle03
  8
文字
  6
CONTINUOUS
 10
14.825
 20
-6.575
  1
４ヶ所中1ヶ所に設定
 40
3.0
 72
     5
 11
46.5125
 21
-6.575
  0
TEXT
  7
TextStyle03
  8
文字
  6
CONTINUOUS
 10
-28.15
 20
11.125
  1
ﾊﾞﾗﾝｽｽﾃｰ
 40
3.0
 72
     5
 11
-14.8375
 21
11.125
  0
TEXT
  7
TextStyle03
  8
文字
  6
CONTINUOUS
 10
-96.05
 20
106.8
  1
可動装置側
 40
3.0
 72
     5
 11
-79.55
 21
106.8
  0
TEXT
  7
TextStyle03
  8
文字
  6
CONTINUOUS
 10
-160.6625
 20
78.25
  1
ﾊﾞﾗﾝｽｽﾃｰ
 40
3.0
 50
360.0
 72
     5
 11
-147.35
 21
78.25
  0
TEXT
  7
TextStyle03
  8
文字
  6
CONTINUOUS
 10
-96.05
 20
-24.5
  1
可動装置側
 40
3.0
 72
     5
 11
-79.55
 21
-24.5
  0
TEXT
  7
TextStyle03
  8
文字
  6
CONTINUOUS
 10
9.225
 20
-13.725
  1
アンカー数量　１２ヶ所
 40
3.0
 72
     5
 11
45.975
 21
-13.725
  0
TEXT
  7
TextStyle03
  8
文字
  6
CONTINUOUS
 10
-150.0
 20
124.15
  1
アンカーピッチ
 40
3.0
 72
     5
 11
-126.75
 21
124.15
  0
TEXT
  7
TextStyle03
  8
文字
  6
CONTINUOUS
 10
-170.725
 20
-17.35
  1
アンカーピッチ
 40
3.0
 50
90.0
 72
     5
 11
-170.725
 21
5.9
  0
TEXT
  7
TextStyle03
  8
文字
  6
CONTINUOUS
 10
66.325
 20
95.525
  1
ＮＳコード：ＮＳ４ＣＺ
 40
5.0
 72
     5
 11
127.575
 21
95.525
  0
TEXT
  7
TextStyle03
  8
文字
  6
CONTINUOUS
 10
121.625
 20
57.75
  1
ガラス寸法
 40
3.0
 72
     5
 11
138.125
 21
57.75
  0
TEXT
  7
TextStyle03
  8
文字
  6
CONTINUOUS
 10
145.125
 20
6.675
  1
本図×４枚
 40
3.0
 72
     5
 11
161.625
 21
6.675
  0
TEXT
  7
TextStyle03
  8
文字
  6
CONTINUOUS
 10
145.125
 20
3.3
  1
逆図×４枚
 40
3.0
 72
     5
 11
161.625
 21
3.3
  0
TEXT
  7
TextStyle03
  8
文字
  6
CONTINUOUS
 10
9.15
 20
-20.575
  1
アームユニット数　４ヶ所
 40
3.0
 72
     5
 11
49.275
 21
-20.575
  0
TEXT
  7
TextStyle03
  8
文字
  6
CONTINUOUS
 10
66.625
 20
117.825
  1
シリーズ：ＴＦ２４
 40
5.0
 72
     5
 11
116.625
 21
117.825
  0
TEXT
  7
TextStyle03
  8
文字
  6
CONTINUOUS
 10
66.625
 20
112.2
  1
　　　　　四角錘（上下可動）2000×2000タイプ
 40
5.0
 72
     5
 11
189.75
 21
112.2
  0
TEXT
  7
TextStyle03
  8
文字
  6
CONTINUOUS
 10
66.625
 20
106.575
  1
図面名　：外観姿図
 40
5.0
 72
     5
 11
116.625
 21
106.575
  0
TEXT
  7
TextStyle03
  8
文字
  6
CONTINUOUS
 10
66.625
 20
100.95
  1
　　　　　　
 40
5.0
 72
     5
 11
99.75
 21
100.95
  0
INSERT
  2
*DIM_0002
  8
寸法
  6
CONTINUOUS
 10
0.0
 20
0.0
  0
INSERT
  2
*DIM_0003
  8
寸法
  6
CONTINUOUS
 10
0.0
 20
0.0
  0
INSERT
  2
*DIM_0004
  8
寸法
  6
CONTINUOUS
 10
0.0
 20
0.0
  0
INSERT
  2
*DIM_0005
  8
寸法
  6
CONTINUOUS
 10
0.0
 20
0.0
  0
INSERT
  2
*DIM_0006
  8
寸法
  6
CONTINUOUS
 10
0.0
 20
0.0
  0
INSERT
  2
*DIM_0007
  8
寸法
  6
CONTINUOUS
 10
0.0
 20
0.0
  0
INSERT
  2
*GRP_0008
  8
寸法
  6
CONTINUOUS
 10
0.0
 20
0.0
  0
INSERT
  2
*DIM_0009
  8
寸法
  6
CONTINUOUS
 10
0.0
 20
0.0
  0
INSERT
  2
*DIM_0010
  8
寸法
  6
CONTINUOUS
 10
0.0
 20
0.0
  0
INSERT
  2
*DIM_0011
  8
寸法
  6
CONTINUOUS
 10
0.0
 20
0.0
  0
INSERT
  2
*DIM_0012
  8
寸法
  6
CONTINUOUS
 10
0.0
 20
0.0
  0
INSERT
  2
*GRP_0013
  8
寸法
  6
CONTINUOUS
 10
0.0
 20
0.0
  0
INSERT
  2
*DIM_0018
  8
寸法
  6
CONTINUOUS
 10
0.0
 20
0.0
  0
INSERT
  2
*DIM_0019
  8
寸法
  6
CONTINUOUS
 10
0.0
 20
0.0
  0
INSERT
  2
*DIM_0020
  8
寸法
  6
CONTINUOUS
 10
0.0
 20
0.0
  0
INSERT
  2
*DIM_0021
  8
寸法
  6
CONTINUOUS
 10
0.0
 20
0.0
  0
INSERT
  2
*DIM_0022
  8
寸法
  6
CONTINUOUS
 10
0.0
 20
0.0
  0
INSERT
  2
*DIM_0023
  8
寸法
  6
CONTINUOUS
 10
0.0
 20
0.0
  0
LINE
  8
曲げ物
  6
CONTINUOUS
 10
166.707378
 20
-0.56227
 11
115.192377
 21
-0.56227
  0
LINE
  8
曲げ物
  6
CONTINUOUS
 10
115.192377
 20
-0.56227
 11
166.707378
 21
72.290627
  0
LINE
  8
曲げ物
  6
CONTINUOUS
 10
166.707378
 20
-0.56227
 11
166.707378
 21
72.290627
  0
ENDSEC
  0
EOF
