  0
SECTION
  2
HEADER
  9
$EXTMIN
 10
-210.0
 20
-148.5
  9
$EXTMAX
 10
210.0
 20
148.5
  9
$PDMODE
 70
    32
  9
$PDSIZE
 40
1.5
  9
$LTSCALE
 40
10.0
  0
ENDSEC
  0
SECTION
  2
TABLES
  0
TABLE
  2
LTYPE
 70
    15
  0
LTYPE
  2
CONTINUOUS
 70
    64
  3
実線
 72
    65
 73
     0
 40
0.0
  0
LTYPE
  2
DASHED
 70
    64
  3
破線A
 72
    65
 73
     2
 40
0.6
 49
0.4
 49
-0.2
  0
LTYPE
  2
DASHEDX2
 70
    64
  3
破線B
 72
    65
 73
     2
 40
1.3
 49
0.9
 49
-0.4
  0
LTYPE
  2
DASHDOT
 70
    64
  3
１点鎖線A
 72
    65
 73
     4
 40
0.5375
 49
0.375
 49
-0.05
 49
0.0625
 49
-0.05
  0
LTYPE
  2
DASHDOTX2
 70
    64
  3
１点鎖線B
 72
    65
 73
     4
 40
1.075
 49
0.75
 49
-0.1
 49
0.125
 49
-0.1
  0
LTYPE
  2
DIVIDE2
 70
    64
  3
２点鎖線A
 72
    65
 73
     6
 40
0.5125
 49
0.3
 49
-0.0375
 49
0.05
 49
-0.0375
 49
0.05
 49
-0.0375
  0
LTYPE
  2
DIVIDE
 70
    64
  3
２点鎖線B
 72
    65
 73
     6
 40
1.05
 49
0.55
 49
-0.1
 49
0.1
 49
-0.1
 49
0.1
 49
-0.1
  0
LTYPE
  2
DOT
 70
    64
  3
点線A
 72
    65
 73
     2
 40
0.1125
 49
0.0625
 49
-0.05
  0
LTYPE
  2
DOTX2
 70
    64
  3
点線B
 72
    65
 73
     2
 40
0.275
 49
0.15
 49
-0.125
  0
LTYPE
  2
CONTINUOUS
 70
    64
  3
実線
 72
    65
 73
     0
 40
0.0
  0
LTYPE
  2
CONTINUOUS
 70
    64
  3
実線
 72
    65
 73
     0
 40
0.0
  0
LTYPE
  2
CONTINUOUS
 70
    64
  3
実線
 72
    65
 73
     0
 40
0.0
  0
LTYPE
  2
CONTINUOUS
 70
    64
  3
実線
 72
    65
 73
     0
 40
0.0
  0
LTYPE
  2
CONTINUOUS
 70
    64
  3
実線
 72
    65
 73
     0
 40
0.0
  0
LTYPE
  2
CONTINUOUS
 70
    64
  3
実線
 72
    65
 73
     0
 40
0.0
  0
ENDTAB
  0
TABLE
  2
LAYER
 70
    34
  0
LAYER
  2
通り芯
 70
     0
 62
    15
  6
CONTINUOUS
  0
LAYER
  2
補助線
 70
     0
 62
    16
  6
DOT
  0
LAYER
  2
躯体
 70
     0
 62
    31
  6
CONTINUOUS
  0
LAYER
  2
型材
 70
     0
 62
    32
  6
CONTINUOUS
  0
LAYER
  2
型材断面
 70
     0
 62
    47
  6
CONTINUOUS
  0
LAYER
  2
ガラス
 70
     0
 62
    48
  6
CONTINUOUS
  0
LAYER
  2
ゴム等
 70
     0
 62
    63
  6
CONTINUOUS
  0
LAYER
  2
ボルト／ビス
 70
     0
 62
    64
  6
CONTINUOUS
  0
LAYER
  2
文字
 70
     0
 62
    79
  6
CONTINUOUS
  0
LAYER
  2
寸法
 70
     0
 62
    80
  6
CONTINUOUS
  0
LAYER
  2
ﾊｯﾁﾝｸﾞ
 70
     0
 62
    95
  6
CONTINUOUS
  0
LAYER
  2
別途部材
 70
     0
 62
    96
  6
CONTINUOUS
  0
LAYER
  2
曲げ物
 70
     0
 62
   111
  6
CONTINUOUS
  0
LAYER
  2
鉄骨等
 70
     0
 62
   112
  6
CONTINUOUS
  0
LAYER
  2
St
 70
     0
 62
   127
  6
CONTINUOUS
  0
LAYER
  2
その他部品等
 70
     0
 62
   128
  6
CONTINUOUS
  0
LAYER
  2
ｶﾞｽｹｯﾄ
 70
     0
 62
   143
  6
CONTINUOUS
  0
LAYER
  2
ｽｹｯﾁ
 70
     0
 62
    14
  6
CONTINUOUS
  0
LAYER
  2
0
 70
     0
 62
    17
  6
CONTINUOUS
  0
LAYER
  2
1
 70
     0
 62
    30
  6
CONTINUOUS
  0
LAYER
  2
4
 70
     0
 62
    33
  6
CONTINUOUS
  0
LAYER
  2
ﾚｲﾔ3
 70
     0
 62
    46
  6
CONTINUOUS
  0
LAYER
  2
外形線
 70
     0
 62
    49
  6
CONTINUOUS
  0
LAYER
  2
部品
 70
     0
 62
    14
  6
CONTINUOUS
  0
LAYER
  2
サッシ芯
 70
     0
 62
    17
  6
DASHDOTX2
  0
LAYER
  2
寸法線
 70
     0
 62
    62
  6
CONTINUOUS
  0
LAYER
  2
姿図外形線
 70
     0
 62
    65
  6
CONTINUOUS
  0
LAYER
  2
姿補助線
 70
     0
 62
    30
  6
CONTINUOUS
  0
LAYER
  2
透視線
 70
     0
 62
    78
  6
DOT
  0
LAYER
  2
用紙
 70
     0
 62
    81
  6
CONTINUOUS
  0
LAYER
  2
実線図枠
 70
     0
 62
    94
  6
CONTINUOUS
  0
LAYER
  2
補助図枠
 70
     0
 62
    97
  6
CONTINUOUS
  0
LAYER
  2
建具記号
 70
     0
 62
   110
  6
CONTINUOUS
  0
LAYER
  2
補助文字
 70
     0
 62
   113
  6
CONTINUOUS
  0
ENDTAB
  0
TABLE
  2
STYLE
 70
    10
  0
STYLE
  2
STANDARD
 70
     0
 40
1.0
 41
1.0
 42
1.0
 50
0.0
 71
     0
  3
TXT
  4
BIGFONT
  0
STYLE
  2
TATE
 70
     4
 40
1.0
 41
1.0
 42
1.0
 50
0.0
 71
     0
  3
TXT
  4
BIGFONT
  0
STYLE
  2
TextStyle03
 70
     0
 40
1.0
 41
1.0
 42
1.0
 50
0.0
 71
     0
  3
MONOTXT
  4
BIGFONT
  0
STYLE
  2
TextStyle04
 70
     0
 40
1.0
 41
1.0
 42
1.0
 50
0.0
 71
     0
  3
MONOTXT
  4
BIGFONT
  0
STYLE
  2
TextStyle05
 70
     0
 40
1.0
 41
1.0
 42
1.0
 50
0.0
 71
     0
  3
MONOTXT
  4
BIGFONT
  0
STYLE
  2
TextStyle06
 70
     0
 40
1.0
 41
1.0
 42
1.0
 50
0.0
 71
     0
  3
MONOTXT
  4
BIGFONT
  0
STYLE
  2
TextStyle07
 70
     0
 40
1.0
 41
1.0
 42
1.0
 50
0.0
 71
     0
  3
MONOTXT
  4
BIGFONT
  0
STYLE
  2
TextStyle08
 70
     0
 40
1.0
 41
1.0
 42
1.0
 50
0.0
 71
     0
  3
MONOTXT
  4
BIGFONT
  0
STYLE
  2
TextStyle09
 70
     0
 40
1.0
 41
1.0
 42
1.0
 50
0.0
 71
     0
  3
MONOTXT
  4
BIGFONT
  0
STYLE
  2
TextStyle10
 70
     0
 40
1.0
 41
1.0
 42
1.0
 50
0.0
 71
     0
  3
MONOTXT
  4
BIGFONT
  0
ENDTAB
  0
ENDSEC
  0
SECTION
  2
BLOCKS
  0
BLOCK
  2
*GRP_0001
 70
    65
 10
0.0
 20
0.0
  0
LINE
  8
型材断面
  6
CONTINUOUS
 10
195.0
 20
133.5
 11
195.0
 21
-133.5
  0
LINE
  8
型材断面
  6
CONTINUOUS
 10
195.0
 20
-133.5
 11
-185.0
 21
-133.5
  0
LINE
  8
型材断面
  6
CONTINUOUS
 10
-185.0
 20
-133.5
 11
-185.0
 21
133.5
  0
LINE
  8
型材断面
  6
CONTINUOUS
 10
195.0
 20
133.5
 11
-185.0
 21
133.5
  0
LINE
  8
型材断面
  6
CONTINUOUS
 10
145.0
 20
-133.5
 11
145.0
 21
-118.5
  0
LINE
  8
型材断面
  6
CONTINUOUS
 10
195.0
 20
-118.5
 11
145.0
 21
-118.5
  0
ENDBLK
  0
BLOCK
  2
*GRP_0002
 70
    65
 10
0.0
 20
0.0
  0
POLYLINE
  8
寸法
  6
BYBLOCK
 62
     0
 66
     1
  0
VERTEX
  8
寸法
 10
-45.989525
 20
18.679433
  0
VERTEX
  8
寸法
 10
-39.573023
 20
12.26293
  0
VERTEX
  8
寸法
 10
-33.665895
 20
12.26293
  0
SEQEND
  0
ENDBLK
  0
BLOCK
  2
*DIM_0003
 70
    65
 10
0.0
 20
0.0
  0
LINE
  8
寸法
  6
CONTINUOUS
 10
-36.775185
 20
-113.646843
 11
-23.58125
 21
-113.646843
  0
LINE
  8
寸法
  6
CONTINUOUS
 10
-33.899982
 20
-104.521767
 11
-23.58125
 21
-104.521767
  0
LINE
  8
寸法
  6
CONTINUOUS
 10
-23.58125
 20
-113.646843
 11
-23.58125
 21
-104.521767
  0
POINT
  8
寸法
 10
-23.58125
 20
-113.646843
  0
POINT
  8
寸法
 10
-23.58125
 20
-104.521767
  0
TEXT
  7
TextStyle03
  8
寸法
  6
CONTINUOUS
 10
-23.975
 20
-113.225
  1
182.5
 40
3.0
 50
90.0
 72
     5
 11
-23.975
 21
-104.975
  0
ENDBLK
  0
BLOCK
  2
*GRP_0004
 70
    65
 10
0.0
 20
0.0
  0
POLYLINE
  8
寸法
  6
BYBLOCK
 62
     0
 66
     1
  0
VERTEX
  8
寸法
 10
-129.510835
 20
73.701475
  0
VERTEX
  8
寸法
 10
-135.927333
 20
80.11798
  0
VERTEX
  8
寸法
 10
-141.83446
 20
80.117982
  0
SEQEND
  0
ENDBLK
  0
BLOCK
  2
*DIM_0005
 70
    65
 10
0.0
 20
0.0
  0
LINE
  8
寸法
  6
CONTINUOUS
 10
-158.005185
 20
77.39546
 11
-168.93594
 21
77.39546
  0
LINE
  8
寸法
  6
CONTINUOUS
 10
-158.005188
 20
42.39546
 11
-168.935942
 21
42.39546
  0
LINE
  8
寸法
  6
CONTINUOUS
 10
-168.93594
 20
77.39546
 11
-168.935942
 21
42.39546
  0
POINT
  8
寸法
 10
-168.93594
 20
77.39546
  0
POINT
  8
寸法
 10
-168.935942
 20
42.39546
  0
TEXT
  7
TextStyle03
  8
寸法
  6
CONTINUOUS
 10
-169.325
 20
57.4375
  1
700
 40
3.0
 50
90.0
 72
     5
 11
-169.325
 21
62.3125
  0
ENDBLK
  0
BLOCK
  2
*DIM_0006
 70
    65
 10
0.0
 20
0.0
  0
LINE
  8
寸法
  6
CONTINUOUS
 10
-158.005188
 20
42.39546
 11
-168.935942
 21
42.39546
  0
LINE
  8
寸法
  6
CONTINUOUS
 10
-158.00519
 20
7.39546
 11
-168.935945
 21
7.39546
  0
LINE
  8
寸法
  6
CONTINUOUS
 10
-168.935942
 20
42.39546
 11
-168.935945
 21
7.39546
  0
POINT
  8
寸法
 10
-168.935945
 20
7.39546
  0
TEXT
  7
TextStyle03
  8
寸法
  6
CONTINUOUS
 10
-169.325
 20
22.4375
  1
700
 40
3.0
 50
90.0
 72
     5
 11
-169.325
 21
27.3125
  0
ENDBLK
  0
BLOCK
  2
*DIM_0007
 70
    65
 10
0.0
 20
0.0
  0
LINE
  8
寸法
  6
CONTINUOUS
 10
-42.43443
 20
-2.604543
 11
-21.885002
 21
-2.604543
  0
LINE
  8
寸法
  6
CONTINUOUS
 10
-34.410555
 20
2.945457
 11
-21.885002
 21
2.945457
  0
LINE
  8
寸法
  6
CONTINUOUS
 10
-21.885002
 20
-2.604543
 11
-21.885002
 21
2.945457
  0
POINT
  8
寸法
 10
-21.885002
 20
-2.604543
  0
POINT
  8
寸法
 10
-21.885002
 20
2.945457
  0
TEXT
  7
TextStyle03
  8
寸法
  6
CONTINUOUS
 10
-22.275
 20
-2.2875
  1
111
 40
3.0
 50
90.0
 72
     5
 11
-22.275
 21
2.5875
  0
ENDBLK
  0
BLOCK
  2
*DIM_0008
 70
    65
 10
0.0
 20
0.0
  0
LINE
  8
寸法
  6
CONTINUOUS
 10
-122.750185
 20
112.65046
 11
-122.750185
 21
123.581215
  0
LINE
  8
寸法
  6
CONTINUOUS
 10
-87.750185
 20
112.65046
 11
-87.750185
 21
123.581215
  0
LINE
  8
寸法
  6
CONTINUOUS
 10
-122.750185
 20
123.581215
 11
-87.750185
 21
123.581215
  0
POINT
  8
寸法
 10
-122.750185
 20
123.581215
  0
POINT
  8
寸法
 10
-87.750185
 20
123.581215
  0
TEXT
  7
TextStyle03
  8
寸法
  6
CONTINUOUS
 10
-107.7125
 20
123.95
  1
700
 40
3.0
 72
     5
 11
-102.8375
 21
123.95
  0
ENDBLK
  0
BLOCK
  2
*DIM_0009
 70
    65
 10
0.0
 20
0.0
  0
LINE
  8
寸法
  6
CONTINUOUS
 10
-87.750185
 20
112.65046
 11
-87.750185
 21
123.581215
  0
LINE
  8
寸法
  6
CONTINUOUS
 10
-52.750185
 20
112.65046
 11
-52.750185
 21
123.581215
  0
LINE
  8
寸法
  6
CONTINUOUS
 10
-87.750185
 20
123.581215
 11
-52.750185
 21
123.581215
  0
POINT
  8
寸法
 10
-52.750185
 20
123.581215
  0
TEXT
  7
TextStyle03
  8
寸法
  6
CONTINUOUS
 10
-72.7125
 20
123.95
  1
700
 40
3.0
 72
     5
 11
-67.8375
 21
123.95
  0
ENDBLK
  0
BLOCK
  2
*DIM_0010
 70
    65
 10
0.0
 20
0.0
  0
LINE
  8
寸法
  6
CONTINUOUS
 10
-42.43443
 20
87.395463
 11
-21.885002
 21
87.395463
  0
LINE
  8
寸法
  6
CONTINUOUS
 10
-34.410555
 20
81.845463
 11
-21.885002
 21
81.845463
  0
LINE
  8
寸法
  6
CONTINUOUS
 10
-21.885002
 20
87.395463
 11
-21.885002
 21
81.845463
  0
POINT
  8
寸法
 10
-21.885002
 20
87.395463
  0
POINT
  8
寸法
 10
-21.885002
 20
81.845463
  0
TEXT
  7
TextStyle03
  8
寸法
  6
CONTINUOUS
 10
-22.275
 20
82.1625
  1
111
 40
3.0
 50
90.0
 72
     5
 11
-22.275
 21
87.0375
  0
ENDBLK
  0
BLOCK
  2
*DIM_0011
 70
    65
 10
0.0
 20
0.0
  0
LINE
  8
寸法
  6
CONTINUOUS
 10
-92.875187
 20
-57.619758
 11
-92.875187
 21
-41.280112
  0
LINE
  8
寸法
  6
CONTINUOUS
 10
-82.625183
 20
-57.619758
 11
-82.625183
 21
-41.280112
  0
LINE
  8
寸法
  6
CONTINUOUS
 10
-92.875187
 20
-41.280112
 11
-82.625183
 21
-41.280112
  0
POINT
  8
寸法
 10
-92.875187
 20
-41.280112
  0
POINT
  8
寸法
 10
-82.625183
 20
-41.280112
  0
TEXT
  7
TextStyle03
  8
寸法
  6
CONTINUOUS
 10
-90.2125
 20
-40.925
  1
205
 40
3.0
 72
     5
 11
-85.3375
 21
-40.925
  0
ENDBLK
  0
BLOCK
  2
*DIM_0012
 70
    65
 10
0.0
 20
0.0
  0
LINE
  8
寸法
  6
CONTINUOUS
 10
-73.25809
 20
-53.49476
 11
-72.536697
 21
-53.49476
  0
LINE
  8
寸法
  6
CONTINUOUS
 10
-81.625183
 20
-58.619758
 11
-72.536697
 21
-58.619758
  0
LINE
  8
寸法
  6
CONTINUOUS
 10
-72.536697
 20
-53.49476
 11
-72.536697
 21
-58.619758
  0
POINT
  8
寸法
 10
-72.536697
 20
-53.49476
  0
POINT
  8
寸法
 10
-72.536697
 20
-58.619758
  0
TEXT
  7
TextStyle03
  8
寸法
  6
CONTINUOUS
 10
-69.55
 20
-60.2
  1
102.5
 40
3.0
 50
90.0
 72
     5
 11
-69.55
 21
-51.95
  0
ENDBLK
  0
BLOCK
  2
*DIM_0013
 70
    65
 10
0.0
 20
0.0
  0
LINE
  8
寸法
  6
CONTINUOUS
 10
-36.899982
 20
-101.521767
 11
-36.899982
 21
-35.375235
  0
LINE
  8
寸法
  6
CONTINUOUS
 10
-42.750185
 20
-35.375235
 11
-36.899982
 21
-35.375235
  0
POINT
  8
寸法
 10
-36.899982
 20
-35.375235
  0
TEXT
  7
TextStyle03
  8
寸法
  6
CONTINUOUS
 10
-42.2875
 20
-35.025
  1
117
 40
3.0
 72
     5
 11
-37.4125
 21
-35.025
  0
ENDBLK
  0
BLOCK
  2
*DIM_0014
 70
    65
 10
0.0
 20
0.0
  0
LINE
  8
寸法
  6
CONTINUOUS
 10
-138.600388
 20
-101.521767
 11
-138.600388
 21
-35.375235
  0
LINE
  8
寸法
  6
CONTINUOUS
 10
-138.600388
 20
-35.375235
 11
-132.750185
 21
-35.375235
  0
POINT
  8
寸法
 10
-138.600388
 20
-35.375235
  0
POINT
  8
寸法
 10
-132.750185
 20
-35.375235
  0
TEXT
  7
TextStyle03
  8
寸法
  6
CONTINUOUS
 10
-138.1375
 20
-35.025
  1
117
 40
3.0
 72
     5
 11
-133.2625
 21
-35.025
  0
ENDBLK
  0
BLOCK
  2
*DIM_0015
 70
    65
 10
0.0
 20
0.0
  0
LINE
  8
寸法
  6
CONTINUOUS
 10
-132.750185
 20
-35.375235
 11
-42.750185
 21
-35.375235
  0
POINT
  8
寸法
 10
-42.750185
 20
-35.375235
  0
TEXT
  7
TextStyle03
  8
寸法
  6
CONTINUOUS
 10
-99.49375
 20
-35.025
  1
呼称寸法　1800
 40
3.0
 72
     5
 11
-76.05625
 21
-35.025
  0
ENDBLK
  0
BLOCK
  2
*DIM_0016
 70
    65
 10
0.0
 20
0.0
  0
LINE
  8
寸法
  6
CONTINUOUS
 10
-33.899982
 20
-104.521767
 11
-23.58125
 21
-104.521767
  0
LINE
  8
寸法
  6
CONTINUOUS
 10
-84.750185
 20
-53.49476
 11
-23.58125
 21
-53.49476
  0
LINE
  8
寸法
  6
CONTINUOUS
 10
-23.58125
 20
-104.521767
 11
-23.58125
 21
-53.49476
  0
POINT
  8
寸法
 10
-23.58125
 20
-53.49476
  0
TEXT
  7
TextStyle03
  8
寸法
  6
CONTINUOUS
 10
-23.975
 20
-83.99375
  1
1020.5
 40
3.0
 50
90.0
 72
     5
 11
-23.975
 21
-74.05625
  0
ENDBLK
  0
BLOCK
  2
*GRP_0017
 70
    65
 10
0.0
 20
0.0
  0
LINE
  8
型材断面
  6
DOT
 10
102.436457
 20
-84.414715
 11
105.936457
 21
-84.414715
  0
LINE
  8
型材断面
  6
DOT
 10
106.436457
 20
-84.914715
 11
101.936457
 21
-84.914715
  0
LINE
  8
型材断面
  6
DOT
 10
101.936457
 20
-84.914715
 11
101.936457
 21
-83.85405
  0
LINE
  8
型材断面
  6
DOT
 10
106.436457
 20
-84.914715
 11
106.436457
 21
-83.85405
  0
LINE
  8
型材断面
  6
DOT
 62
    47
 10
152.161958
 20
-89.071767
 11
152.161678
 21
-89.071767
  0
ARC
  8
型材断面
  6
DOT
 62
    47
 10
152.171457
 20
-89.156767
 40
0.015
 50
270.0
 51
360.0
  0
LINE
  8
型材断面
  6
DOT
 62
    47
 10
155.03666
 20
-85.271767
 11
155.036655
 21
-85.521767
  0
LINE
  8
型材断面
  6
DOT
 62
    47
 10
154.679608
 20
-84.914715
 11
155.03666
 21
-85.271767
  0
LINE
  8
型材断面
  6
DOT
 62
    47
 10
152.186457
 20
-89.156768
 11
152.186457
 21
-89.096767
  0
ARC
  8
型材断面
  6
DOT
 62
    47
 10
152.161457
 20
-89.096767
 40
0.025
 50
0.0
 51
90.000343
  0
LINE
  8
型材断面
  6
DOT
 62
    47
 10
152.161457
 20
-89.071773
 11
152.161457
 21
-87.661768
  0
LINE
  8
型材断面
  6
DOT
 62
    47
 10
153.536457
 20
-87.661768
 11
153.536457
 21
-86.199287
  0
LINE
  8
型材断面
  6
DOT
 62
    47
 10
153.536457
 20
-86.199287
 11
154.213975
 21
-85.521767
  0
LINE
  8
型材断面
  6
DOT
 62
    47
 10
154.679608
 20
-84.914715
 11
153.61894
 21
-83.85405
  0
LINE
  8
型材断面
  6
DOT
 10
149.237595
 20
-83.85405
 11
150.29826
 21
-84.914715
  0
LINE
  8
型材断面
  6
DOT
 10
150.505363
 20
-84.414715
 11
154.179608
 21
-84.414715
  0
LINE
  8
型材断面
  6
DOT
 10
150.29826
 20
-84.914715
 11
154.679608
 21
-84.914715
  0
LINE
  8
型材断面
  6
DOT
 10
155.03666
 20
-85.271767
 11
104.186457
 21
-85.271767
  0
LINE
  8
型材断面
  6
DOT
 62
    47
 10
155.036655
 20
-85.521767
 11
104.186457
 21
-85.521767
  0
LINE
  8
型材断面
  6
DOT
 10
153.536457
 20
-86.199287
 11
104.186457
 21
-86.199287
  0
LINE
  8
型材断面
  6
DOT
 62
    47
 10
152.171458
 20
-89.171767
 11
104.186457
 21
-89.171767
  0
LINE
  8
型材断面
  6
DOT
 62
    47
 10
153.536457
 20
-87.661768
 11
104.186457
 21
-87.661768
  0
LINE
  8
型材断面
  6
DOT
 10
149.944698
 20
-83.85405
 11
105.936457
 21
-83.85405
  0
LINE
  8
型材断面
  6
DOT
 62
    47
 10
56.210958
 20
-89.071767
 11
56.211238
 21
-89.071767
  0
ARC
  8
型材断面
  6
DOT
 62
    47
 10
56.201457
 20
-89.156767
 40
0.015
 50
180.0
 51
270.0
  0
LINE
  8
型材断面
  6
DOT
 62
    47
 10
53.336255
 20
-85.271767
 11
53.33626
 21
-85.521767
  0
LINE
  8
型材断面
  6
DOT
 62
    47
 10
53.693308
 20
-84.914715
 11
53.336255
 21
-85.271767
  0
LINE
  8
型材断面
  6
DOT
 62
    47
 10
56.186457
 20
-89.156768
 11
56.186457
 21
-89.096767
  0
ARC
  8
型材断面
  6
DOT
 62
    47
 10
56.211457
 20
-89.096767
 40
0.025
 50
89.999657
 51
180.0
  0
LINE
  8
型材断面
  6
DOT
 62
    47
 10
56.211457
 20
-89.071773
 11
56.211457
 21
-87.661768
  0
LINE
  8
型材断面
  6
DOT
 62
    47
 10
54.836457
 20
-87.661768
 11
54.836457
 21
-86.199287
  0
LINE
  8
型材断面
  6
DOT
 62
    47
 10
54.836457
 20
-86.199287
 11
54.15894
 21
-85.521767
  0
LINE
  8
型材断面
  6
DOT
 62
    47
 10
53.693308
 20
-84.914715
 11
54.753975
 21
-83.85405
  0
LINE
  8
型材断面
  6
DOT
 10
59.13532
 20
-83.85405
 11
58.074655
 21
-84.914715
  0
LINE
  8
型材断面
  6
DOT
 10
57.867553
 20
-84.414715
 11
54.193308
 21
-84.414715
  0
LINE
  8
型材断面
  6
DOT
 10
58.074655
 20
-84.914715
 11
53.693308
 21
-84.914715
  0
LINE
  8
型材断面
  6
DOT
 10
53.336255
 20
-85.271767
 11
104.186457
 21
-85.271767
  0
LINE
  8
型材断面
  6
DOT
 62
    47
 10
53.33626
 20
-85.521767
 11
104.186457
 21
-85.521767
  0
LINE
  8
型材断面
  6
DOT
 10
54.836457
 20
-86.199287
 11
104.186457
 21
-86.199287
  0
LINE
  8
型材断面
  6
DOT
 62
    47
 10
56.201457
 20
-89.171767
 11
104.186457
 21
-89.171767
  0
LINE
  8
型材断面
  6
DOT
 62
    47
 10
54.836457
 20
-87.661768
 11
104.186457
 21
-87.661768
  0
LINE
  8
型材断面
  6
DOT
 10
58.428218
 20
-83.85405
 11
102.436457
 21
-83.85405
  0
LINE
  8
型材断面
  6
DOT
 10
99.061457
 20
-39.369762
 11
104.186457
 21
-39.369762
  0
LINE
  8
型材断面
  6
DOT
 10
99.061457
 20
-39.369762
 11
99.132167
 21
-39.440473
  0
LINE
  8
型材断面
  6
DOT
 10
104.186457
 20
-39.440473
 11
99.132167
 21
-39.440473
  0
LINE
  8
型材断面
  6
DOT
 10
99.061457
 20
-39.369762
 11
104.186457
 21
-34.24476
  0
LINE
  8
型材断面
  6
DOT
 10
109.311457
 20
-39.369762
 11
104.186457
 21
-39.369762
  0
LINE
  8
型材断面
  6
DOT
 10
109.311457
 20
-39.369762
 11
109.240748
 21
-39.440473
  0
LINE
  8
型材断面
  6
DOT
 10
104.186457
 20
-39.440473
 11
109.240748
 21
-39.440473
  0
LINE
  8
型材断面
  6
DOT
 10
109.311457
 20
-39.369762
 11
104.186457
 21
-34.24476
  0
LINE
  8
型材断面
  6
DOT
 10
102.436457
 20
-84.414715
 11
102.436457
 21
-39.369762
  0
LINE
  8
型材断面
  6
DOT
 10
105.936457
 20
-84.414715
 11
105.936457
 21
-39.369762
  0
LINE
  8
型材断面
  6
DOT
 10
150.505363
 20
-84.414715
 11
105.531152
 21
-39.440473
  0
LINE
  8
型材断面
  6
DOT
 10
153.618943
 20
-83.85405
 11
109.205393
 21
-39.440473
  0
LINE
  8
型材断面
  6
DOT
 10
57.867553
 20
-84.414715
 11
102.841763
 21
-39.440473
  0
LINE
  8
型材断面
  6
DOT
 10
54.753973
 20
-83.85405
 11
99.167523
 21
-39.440473
  0
LINE
  8
ガラス
  6
DOT
 10
91.155697
 20
-65.860778
 11
87.283063
 21
-69.733413
  0
LINE
  8
ガラス
  6
DOT
 10
90.275375
 20
-67.459135
 11
88.88142
 21
-68.85309
  0
LINE
  8
ガラス
  6
DOT
 10
89.55734
 20
-66.7411
 11
88.163385
 21
-68.135055
  0
LINE
  8
ガラス
  6
DOT
 10
122.64796
 20
-65.860778
 11
118.775325
 21
-69.733413
  0
LINE
  8
ガラス
  6
DOT
 10
121.767637
 20
-67.459135
 11
120.373683
 21
-68.85309
  0
LINE
  8
ガラス
  6
DOT
 10
121.049603
 20
-66.7411
 11
119.655647
 21
-68.135055
  0
ENDBLK
  0
BLOCK
  2
*DIM_0018
 70
    65
 10
0.0
 20
0.0
  0
LINE
  8
寸法
  6
CONTINUOUS
 10
157.112715
 20
-108.421767
 11
177.20819
 21
-108.421767
  0
LINE
  8
寸法
  6
CONTINUOUS
 10
157.121393
 20
-89.171767
 11
177.20819
 21
-89.171767
  0
LINE
  8
寸法
  6
CONTINUOUS
 10
177.20819
 20
-108.421767
 11
177.20819
 21
-89.171767
  0
POINT
  8
寸法
 10
177.20819
 20
-108.421767
  0
POINT
  8
寸法
 10
177.20819
 20
-89.171767
  0
TEXT
  7
TextStyle03
  8
寸法
  6
CONTINUOUS
 10
176.825
 20
-107.89375
  1
上昇385以上
 40
3.0
 50
90.0
 72
     5
 11
176.825
 21
-89.70625
  0
ENDBLK
  0
BLOCK
  2
*GRP_0019
 70
    65
 10
0.0
 20
0.0
  0
LINE
  8
補助線
  6
BYBLOCK
 62
    64
 10
142.099553
 20
-109.53194
 11
142.273243
 21
-109.711745
  0
LINE
  8
補助線
  6
BYBLOCK
 62
    64
 10
142.2763
 20
-109.534998
 11
142.096495
 21
-109.708688
  0
LINE
  8
補助線
  6
BYBLOCK
 62
    64
 10
130.705057
 20
-97.736795
 11
130.53136
 21
-97.556988
  0
LINE
  8
補助線
  6
BYBLOCK
 62
    64
 10
130.708108
 20
-97.560042
 11
130.528305
 21
-97.73374
  0
LINE
  8
補助線
  6
BYBLOCK
 62
    64
 10
119.136805
 20
-85.761898
 11
118.963107
 21
-85.582097
  0
LINE
  8
補助線
  6
BYBLOCK
 62
    64
 10
119.139857
 20
-85.58515
 11
118.960055
 21
-85.758847
  0
LINE
  8
型材断面
  6
CONTINUOUS
 10
143.432813
 20
-109.112968
 11
143.414488
 21
-110.173467
  0
LINE
  8
型材断面
  6
CONTINUOUS
 10
143.414488
 20
-110.173467
 11
142.695272
 21
-110.868257
  0
LINE
  8
型材断面
  6
CONTINUOUS
 10
142.695272
 20
-110.868257
 11
141.634772
 21
-110.849932
  0
LINE
  8
型材断面
  6
CONTINUOUS
 10
119.601577
 20
-84.443902
 11
118.541078
 21
-84.425587
  0
LINE
  8
型材断面
  6
CONTINUOUS
 10
118.541078
 20
-84.425587
 11
117.82186
 21
-85.120377
  0
LINE
  8
型材断面
  6
CONTINUOUS
 10
117.82186
 20
-85.120377
 11
117.803545
 21
-86.180878
  0
LINE
  8
型材断面
  6
CONTINUOUS
 10
143.432813
 20
-109.112968
 11
119.601698
 21
-84.443905
  0
LINE
  8
型材断面
  6
CONTINUOUS
 10
141.634772
 20
-110.849932
 11
117.803548
 21
-86.180768
  0
LINE
  8
ボルト／ビス
  6
CONTINUOUS
 62
    64
 10
142.518587
 20
-109.300933
 11
142.630407
 21
-109.749075
  0
LINE
  8
ボルト／ビス
  6
CONTINUOUS
 62
    64
 10
142.518587
 20
-109.300933
 11
142.07458
 21
-109.173705
  0
LINE
  8
ボルト／ビス
  6
CONTINUOUS
 62
    64
 10
141.854207
 20
-109.942753
 11
142.298215
 21
-110.06998
  0
LINE
  8
ボルト／ビス
  6
CONTINUOUS
 62
    64
 10
141.854207
 20
-109.942753
 11
141.742388
 21
-109.49461
  0
CIRCLE
  8
ボルト／ビス
  6
CONTINUOUS
 62
    64
 10
142.186398
 20
-109.621843
 40
0.4
  0
LINE
  8
ボルト／ビス
  6
CONTINUOUS
 62
    64
 10
142.07458
 20
-109.173705
 11
141.742388
 21
-109.49461
  0
LINE
  8
ボルト／ビス
  6
CONTINUOUS
 62
    64
 10
142.630407
 20
-109.749075
 11
142.298215
 21
-110.06998
  0
LINE
  8
ボルト／ビス
  6
CONTINUOUS
 62
    64
 10
130.9504
 20
-97.325985
 11
130.506387
 21
-97.19875
  0
LINE
  8
ボルト／ビス
  6
CONTINUOUS
 62
    64
 10
130.9504
 20
-97.325985
 11
131.06222
 21
-97.774122
  0
LINE
  8
ボルト／ビス
  6
CONTINUOUS
 62
    64
 10
130.286015
 20
-97.967797
 11
130.174198
 21
-97.519657
  0
LINE
  8
ボルト／ビス
  6
CONTINUOUS
 62
    64
 10
130.286015
 20
-97.967797
 11
130.730025
 21
-98.09503
  0
CIRCLE
  8
ボルト／ビス
  6
CONTINUOUS
 62
    64
 10
130.618205
 20
-97.64689
 40
0.4
  0
LINE
  8
ボルト／ビス
  6
CONTINUOUS
 62
    64
 10
131.06222
 20
-97.774122
 11
130.730025
 21
-98.09503
  0
LINE
  8
ボルト／ビス
  6
CONTINUOUS
 62
    64
 10
130.506387
 20
-97.19875
 11
130.174198
 21
-97.519657
  0
LINE
  8
ボルト／ビス
  6
CONTINUOUS
 62
    64
 10
119.382148
 20
-85.351087
 11
118.938135
 21
-85.223858
  0
LINE
  8
ボルト／ビス
  6
CONTINUOUS
 62
    64
 10
119.382148
 20
-85.351087
 11
119.493965
 21
-85.799227
  0
LINE
  8
ボルト／ビス
  6
CONTINUOUS
 62
    64
 10
118.717765
 20
-85.992908
 11
118.605948
 21
-85.544765
  0
LINE
  8
ボルト／ビス
  6
CONTINUOUS
 62
    64
 10
118.717765
 20
-85.992908
 11
119.16178
 21
-86.120137
  0
CIRCLE
  8
ボルト／ビス
  6
CONTINUOUS
 62
    64
 10
119.049957
 20
-85.671998
 40
0.4
  0
LINE
  8
ボルト／ビス
  6
CONTINUOUS
 62
    64
 10
119.493965
 20
-85.799227
 11
119.16178
 21
-86.120137
  0
LINE
  8
ボルト／ビス
  6
CONTINUOUS
 62
    64
 10
118.938135
 20
-85.223858
 11
118.605948
 21
-85.544765
  0
ENDBLK
  0
BLOCK
  2
*GRP_0020
 70
    65
 10
0.0
 20
0.0
  0
LINE
  8
補助線
  6
BYBLOCK
 62
    64
 10
119.136862
 20
-109.53194
 11
118.963172
 21
-109.711745
  0
LINE
  8
補助線
  6
BYBLOCK
 62
    64
 10
118.960115
 20
-109.534998
 11
119.13992
 21
-109.708688
  0
LINE
  8
補助線
  6
BYBLOCK
 62
    64
 10
130.531358
 20
-97.736795
 11
130.705055
 21
-97.556988
  0
LINE
  8
補助線
  6
BYBLOCK
 62
    64
 10
130.528307
 20
-97.560042
 11
130.70811
 21
-97.73374
  0
LINE
  8
補助線
  6
BYBLOCK
 62
    64
 10
142.09961
 20
-85.761898
 11
142.273308
 21
-85.582097
  0
LINE
  8
補助線
  6
BYBLOCK
 62
    64
 10
142.096558
 20
-85.58515
 11
142.27636
 21
-85.758847
  0
LINE
  8
型材断面
  6
CONTINUOUS
 10
117.803602
 20
-109.112968
 11
117.821927
 21
-110.173467
  0
LINE
  8
型材断面
  6
CONTINUOUS
 10
117.821927
 20
-110.173467
 11
118.541143
 21
-110.868257
  0
LINE
  8
型材断面
  6
CONTINUOUS
 10
118.541143
 20
-110.868257
 11
119.601642
 21
-110.849932
  0
LINE
  8
型材断面
  6
CONTINUOUS
 10
141.634837
 20
-84.443902
 11
142.695337
 21
-84.425587
  0
LINE
  8
型材断面
  6
CONTINUOUS
 10
142.695337
 20
-84.425587
 11
143.414555
 21
-85.120377
  0
LINE
  8
型材断面
  6
CONTINUOUS
 10
143.414555
 20
-85.120377
 11
143.43287
 21
-86.180878
  0
LINE
  8
型材断面
  6
CONTINUOUS
 10
117.803602
 20
-109.112968
 11
141.634718
 21
-84.443905
  0
LINE
  8
型材断面
  6
CONTINUOUS
 10
119.601642
 20
-110.849932
 11
143.432868
 21
-86.180768
  0
LINE
  8
ボルト／ビス
  6
CONTINUOUS
 62
    64
 10
118.717828
 20
-109.300933
 11
118.606007
 21
-109.749075
  0
LINE
  8
ボルト／ビス
  6
CONTINUOUS
 62
    64
 10
118.717828
 20
-109.300933
 11
119.161835
 21
-109.173705
  0
LINE
  8
ボルト／ビス
  6
CONTINUOUS
 62
    64
 10
119.382208
 20
-109.942753
 11
118.9382
 21
-110.06998
  0
LINE
  8
ボルト／ビス
  6
CONTINUOUS
 62
    64
 10
119.382208
 20
-109.942753
 11
119.494028
 21
-109.49461
  0
CIRCLE
  8
ボルト／ビス
  6
CONTINUOUS
 62
    64
 10
119.050017
 20
-109.621843
 40
0.4
  0
LINE
  8
ボルト／ビス
  6
CONTINUOUS
 62
    64
 10
119.161835
 20
-109.173705
 11
119.494028
 21
-109.49461
  0
LINE
  8
ボルト／ビス
  6
CONTINUOUS
 62
    64
 10
118.606007
 20
-109.749075
 11
118.9382
 21
-110.06998
  0
LINE
  8
ボルト／ビス
  6
CONTINUOUS
 62
    64
 10
130.286015
 20
-97.325985
 11
130.730027
 21
-97.19875
  0
LINE
  8
ボルト／ビス
  6
CONTINUOUS
 62
    64
 10
130.286015
 20
-97.325985
 11
130.174195
 21
-97.774122
  0
LINE
  8
ボルト／ビス
  6
CONTINUOUS
 62
    64
 10
130.9504
 20
-97.967797
 11
131.062218
 21
-97.519657
  0
LINE
  8
ボルト／ビス
  6
CONTINUOUS
 62
    64
 10
130.9504
 20
-97.967797
 11
130.50639
 21
-98.09503
  0
CIRCLE
  8
ボルト／ビス
  6
CONTINUOUS
 62
    64
 10
130.61821
 20
-97.64689
 40
0.4
  0
LINE
  8
ボルト／ビス
  6
CONTINUOUS
 62
    64
 10
130.174195
 20
-97.774122
 11
130.50639
 21
-98.09503
  0
LINE
  8
ボルト／ビス
  6
CONTINUOUS
 62
    64
 10
130.730027
 20
-97.19875
 11
131.062218
 21
-97.519657
  0
LINE
  8
ボルト／ビス
  6
CONTINUOUS
 62
    64
 10
141.854268
 20
-85.351087
 11
142.29828
 21
-85.223858
  0
LINE
  8
ボルト／ビス
  6
CONTINUOUS
 62
    64
 10
141.854268
 20
-85.351087
 11
141.74245
 21
-85.799227
  0
LINE
  8
ボルト／ビス
  6
CONTINUOUS
 62
    64
 10
142.51865
 20
-85.992908
 11
142.630467
 21
-85.544765
  0
LINE
  8
ボルト／ビス
  6
CONTINUOUS
 62
    64
 10
142.51865
 20
-85.992908
 11
142.074635
 21
-86.120137
  0
CIRCLE
  8
ボルト／ビス
  6
CONTINUOUS
 62
    64
 10
142.186457
 20
-85.671998
 40
0.4
  0
LINE
  8
ボルト／ビス
  6
CONTINUOUS
 62
    64
 10
141.74245
 20
-85.799227
 11
142.074635
 21
-86.120137
  0
LINE
  8
ボルト／ビス
  6
CONTINUOUS
 62
    64
 10
142.29828
 20
-85.223858
 11
142.630467
 21
-85.544765
  0
ENDBLK
  0
BLOCK
  2
*GRP_0021
 70
    65
 10
0.0
 20
0.0
  0
LINE
  8
補助線
  6
BYBLOCK
 62
    64
 10
66.243362
 20
-109.53194
 11
66.069672
 21
-109.711745
  0
LINE
  8
補助線
  6
BYBLOCK
 62
    64
 10
66.066615
 20
-109.534998
 11
66.24642
 21
-109.708688
  0
LINE
  8
補助線
  6
BYBLOCK
 62
    64
 10
77.637858
 20
-97.736795
 11
77.811555
 21
-97.556988
  0
LINE
  8
補助線
  6
BYBLOCK
 62
    64
 10
77.634807
 20
-97.560042
 11
77.81461
 21
-97.73374
  0
LINE
  8
補助線
  6
BYBLOCK
 62
    64
 10
89.20611
 20
-85.761898
 11
89.379808
 21
-85.582097
  0
LINE
  8
補助線
  6
BYBLOCK
 62
    64
 10
89.203058
 20
-85.58515
 11
89.38286
 21
-85.758847
  0
LINE
  8
型材断面
  6
CONTINUOUS
 10
64.910102
 20
-109.112968
 11
64.928427
 21
-110.173467
  0
LINE
  8
型材断面
  6
CONTINUOUS
 10
64.928427
 20
-110.173467
 11
65.647643
 21
-110.868257
  0
LINE
  8
型材断面
  6
CONTINUOUS
 10
65.647643
 20
-110.868257
 11
66.708143
 21
-110.849932
  0
LINE
  8
型材断面
  6
CONTINUOUS
 10
88.741338
 20
-84.443902
 11
89.801837
 21
-84.425587
  0
LINE
  8
型材断面
  6
CONTINUOUS
 10
89.801837
 20
-84.425587
 11
90.521055
 21
-85.120377
  0
LINE
  8
型材断面
  6
CONTINUOUS
 10
90.521055
 20
-85.120377
 11
90.53937
 21
-86.180878
  0
LINE
  8
型材断面
  6
CONTINUOUS
 10
64.910102
 20
-109.112968
 11
88.741217
 21
-84.443905
  0
LINE
  8
型材断面
  6
CONTINUOUS
 10
66.708143
 20
-110.849932
 11
90.539367
 21
-86.180768
  0
LINE
  8
ボルト／ビス
  6
CONTINUOUS
 62
    64
 10
65.824328
 20
-109.300933
 11
65.712507
 21
-109.749075
  0
LINE
  8
ボルト／ビス
  6
CONTINUOUS
 62
    64
 10
65.824328
 20
-109.300933
 11
66.268335
 21
-109.173705
  0
LINE
  8
ボルト／ビス
  6
CONTINUOUS
 62
    64
 10
66.488708
 20
-109.942753
 11
66.0447
 21
-110.06998
  0
LINE
  8
ボルト／ビス
  6
CONTINUOUS
 62
    64
 10
66.488708
 20
-109.942753
 11
66.600527
 21
-109.49461
  0
CIRCLE
  8
ボルト／ビス
  6
CONTINUOUS
 62
    64
 10
66.156517
 20
-109.621843
 40
0.4
  0
LINE
  8
ボルト／ビス
  6
CONTINUOUS
 62
    64
 10
66.268335
 20
-109.173705
 11
66.600527
 21
-109.49461
  0
LINE
  8
ボルト／ビス
  6
CONTINUOUS
 62
    64
 10
65.712507
 20
-109.749075
 11
66.0447
 21
-110.06998
  0
LINE
  8
ボルト／ビス
  6
CONTINUOUS
 62
    64
 10
77.392515
 20
-97.325985
 11
77.836528
 21
-97.19875
  0
LINE
  8
ボルト／ビス
  6
CONTINUOUS
 62
    64
 10
77.392515
 20
-97.325985
 11
77.280695
 21
-97.774122
  0
LINE
  8
ボルト／ビス
  6
CONTINUOUS
 62
    64
 10
78.0569
 20
-97.967797
 11
78.168717
 21
-97.519657
  0
LINE
  8
ボルト／ビス
  6
CONTINUOUS
 62
    64
 10
78.0569
 20
-97.967797
 11
77.61289
 21
-98.09503
  0
CIRCLE
  8
ボルト／ビス
  6
CONTINUOUS
 62
    64
 10
77.72471
 20
-97.64689
 40
0.4
  0
LINE
  8
ボルト／ビス
  6
CONTINUOUS
 62
    64
 10
77.280695
 20
-97.774122
 11
77.61289
 21
-98.09503
  0
LINE
  8
ボルト／ビス
  6
CONTINUOUS
 62
    64
 10
77.836528
 20
-97.19875
 11
78.168717
 21
-97.519657
  0
LINE
  8
ボルト／ビス
  6
CONTINUOUS
 62
    64
 10
88.960767
 20
-85.351087
 11
89.40478
 21
-85.223858
  0
LINE
  8
ボルト／ビス
  6
CONTINUOUS
 62
    64
 10
88.960767
 20
-85.351087
 11
88.84895
 21
-85.799227
  0
LINE
  8
ボルト／ビス
  6
CONTINUOUS
 62
    64
 10
89.62515
 20
-85.992908
 11
89.736967
 21
-85.544765
  0
LINE
  8
ボルト／ビス
  6
CONTINUOUS
 62
    64
 10
89.62515
 20
-85.992908
 11
89.181135
 21
-86.120137
  0
CIRCLE
  8
ボルト／ビス
  6
CONTINUOUS
 62
    64
 10
89.292958
 20
-85.671998
 40
0.4
  0
LINE
  8
ボルト／ビス
  6
CONTINUOUS
 62
    64
 10
88.84895
 20
-85.799227
 11
89.181135
 21
-86.120137
  0
LINE
  8
ボルト／ビス
  6
CONTINUOUS
 62
    64
 10
89.40478
 20
-85.223858
 11
89.736967
 21
-85.544765
  0
ENDBLK
  0
BLOCK
  2
*GRP_0022
 70
    65
 10
0.0
 20
0.0
  0
LINE
  8
補助線
  6
BYBLOCK
 62
    64
 10
89.206053
 20
-109.53194
 11
89.379743
 21
-109.711745
  0
LINE
  8
補助線
  6
BYBLOCK
 62
    64
 10
89.3828
 20
-109.534998
 11
89.202995
 21
-109.708688
  0
LINE
  8
補助線
  6
BYBLOCK
 62
    64
 10
77.811557
 20
-97.736795
 11
77.63786
 21
-97.556988
  0
LINE
  8
補助線
  6
BYBLOCK
 62
    64
 10
77.814608
 20
-97.560042
 11
77.634805
 21
-97.73374
  0
LINE
  8
補助線
  6
BYBLOCK
 62
    64
 10
66.243305
 20
-85.761898
 11
66.069607
 21
-85.582097
  0
LINE
  8
補助線
  6
BYBLOCK
 62
    64
 10
66.246357
 20
-85.58515
 11
66.066555
 21
-85.758847
  0
LINE
  8
型材断面
  6
CONTINUOUS
 10
90.539313
 20
-109.112968
 11
90.520988
 21
-110.173467
  0
LINE
  8
型材断面
  6
CONTINUOUS
 10
90.520988
 20
-110.173467
 11
89.801772
 21
-110.868257
  0
LINE
  8
型材断面
  6
CONTINUOUS
 10
89.801772
 20
-110.868257
 11
88.741273
 21
-110.849932
  0
LINE
  8
型材断面
  6
CONTINUOUS
 10
66.708078
 20
-84.443902
 11
65.647578
 21
-84.425587
  0
LINE
  8
型材断面
  6
CONTINUOUS
 10
65.647578
 20
-84.425587
 11
64.92836
 21
-85.120377
  0
LINE
  8
型材断面
  6
CONTINUOUS
 10
64.92836
 20
-85.120377
 11
64.910045
 21
-86.180878
  0
LINE
  8
型材断面
  6
CONTINUOUS
 10
90.539313
 20
-109.112968
 11
66.708197
 21
-84.443905
  0
LINE
  8
型材断面
  6
CONTINUOUS
 10
88.741273
 20
-110.849932
 11
64.910047
 21
-86.180768
  0
LINE
  8
ボルト／ビス
  6
CONTINUOUS
 62
    64
 10
89.625087
 20
-109.300933
 11
89.736908
 21
-109.749075
  0
LINE
  8
ボルト／ビス
  6
CONTINUOUS
 62
    64
 10
89.625087
 20
-109.300933
 11
89.18108
 21
-109.173705
  0
LINE
  8
ボルト／ビス
  6
CONTINUOUS
 62
    64
 10
88.960707
 20
-109.942753
 11
89.404715
 21
-110.06998
  0
LINE
  8
ボルト／ビス
  6
CONTINUOUS
 62
    64
 10
88.960707
 20
-109.942753
 11
88.848887
 21
-109.49461
  0
CIRCLE
  8
ボルト／ビス
  6
CONTINUOUS
 62
    64
 10
89.292898
 20
-109.621843
 40
0.4
  0
LINE
  8
ボルト／ビス
  6
CONTINUOUS
 62
    64
 10
89.18108
 20
-109.173705
 11
88.848887
 21
-109.49461
  0
LINE
  8
ボルト／ビス
  6
CONTINUOUS
 62
    64
 10
89.736908
 20
-109.749075
 11
89.404715
 21
-110.06998
  0
LINE
  8
ボルト／ビス
  6
CONTINUOUS
 62
    64
 10
78.0569
 20
-97.325985
 11
77.612888
 21
-97.19875
  0
LINE
  8
ボルト／ビス
  6
CONTINUOUS
 62
    64
 10
78.0569
 20
-97.325985
 11
78.16872
 21
-97.774122
  0
LINE
  8
ボルト／ビス
  6
CONTINUOUS
 62
    64
 10
77.392515
 20
-97.967797
 11
77.280697
 21
-97.519657
  0
LINE
  8
ボルト／ビス
  6
CONTINUOUS
 62
    64
 10
77.392515
 20
-97.967797
 11
77.836525
 21
-98.09503
  0
CIRCLE
  8
ボルト／ビス
  6
CONTINUOUS
 62
    64
 10
77.724705
 20
-97.64689
 40
0.4
  0
LINE
  8
ボルト／ビス
  6
CONTINUOUS
 62
    64
 10
78.16872
 20
-97.774122
 11
77.836525
 21
-98.09503
  0
LINE
  8
ボルト／ビス
  6
CONTINUOUS
 62
    64
 10
77.612888
 20
-97.19875
 11
77.280697
 21
-97.519657
  0
LINE
  8
ボルト／ビス
  6
CONTINUOUS
 62
    64
 10
66.488647
 20
-85.351087
 11
66.044635
 21
-85.223858
  0
LINE
  8
ボルト／ビス
  6
CONTINUOUS
 62
    64
 10
66.488647
 20
-85.351087
 11
66.600465
 21
-85.799227
  0
LINE
  8
ボルト／ビス
  6
CONTINUOUS
 62
    64
 10
65.824265
 20
-85.992908
 11
65.712448
 21
-85.544765
  0
LINE
  8
ボルト／ビス
  6
CONTINUOUS
 62
    64
 10
65.824265
 20
-85.992908
 11
66.26828
 21
-86.120137
  0
CIRCLE
  8
ボルト／ビス
  6
CONTINUOUS
 62
    64
 10
66.156458
 20
-85.671998
 40
0.4
  0
LINE
  8
ボルト／ビス
  6
CONTINUOUS
 62
    64
 10
66.600465
 20
-85.799227
 11
66.26828
 21
-86.120137
  0
LINE
  8
ボルト／ビス
  6
CONTINUOUS
 62
    64
 10
66.044635
 20
-85.223858
 11
65.712448
 21
-85.544765
  0
ENDBLK
  0
BLOCK
  2
*DIM_0023
 70
    65
 10
0.0
 20
0.0
  0
LINE
  8
寸法
  6
CONTINUOUS
 10
147.40535
 20
-5.56227
 11
147.40535
 21
-18.527272
  0
LINE
  8
寸法
  6
CONTINUOUS
 10
100.89035
 20
-5.56227
 11
100.89035
 21
-18.527272
  0
LINE
  8
寸法
  6
CONTINUOUS
 10
147.40535
 20
-18.527272
 11
100.89035
 21
-18.527272
  0
POINT
  8
寸法
 10
147.40535
 20
-18.527272
  0
POINT
  8
寸法
 10
100.89035
 20
-18.527272
  0
TEXT
  7
TextStyle03
  8
寸法
  6
CONTINUOUS
 10
120.0
 20
-18.175
  1
930.3
 40
3.0
 72
     5
 11
128.25
 21
-18.175
  0
ENDBLK
  0
BLOCK
  2
*DIM_0024
 70
    65
 10
0.0
 20
0.0
  0
LINE
  8
寸法
  6
CONTINUOUS
 10
152.40535
 20
65.21959
 11
164.170455
 21
65.21959
  0
LINE
  8
寸法
  6
CONTINUOUS
 10
152.40535
 20
-0.56227
 11
164.170455
 21
-0.56227
  0
LINE
  8
寸法
  6
CONTINUOUS
 10
164.170455
 20
65.21959
 11
164.170455
 21
-0.56227
  0
POINT
  8
寸法
 10
164.170455
 20
65.21959
  0
POINT
  8
寸法
 10
164.170455
 20
-0.56227
  0
TEXT
  7
TextStyle03
  8
寸法
  6
CONTINUOUS
 10
163.775
 20
27.35625
  1
1315.6
 40
3.0
 50
90.0
 72
     5
 11
163.775
 21
37.29375
  0
ENDBLK
  0
ENDSEC
  0
SECTION
  2
ENTITIES
  0
POLYLINE
  8
通り芯
  6
CONTINUOUS
 66
     1
 70
     1
  0
VERTEX
  8
通り芯
 10
-210.0
 20
-148.5
  0
VERTEX
  8
通り芯
 10
210.0
 20
-148.5
  0
VERTEX
  8
通り芯
 10
210.0
 20
148.5
  0
VERTEX
  8
通り芯
 10
-210.0
 20
148.5
  0
SEQEND
  0
INSERT
  2
*GRP_0001
  8
型材断面
  6
CONTINUOUS
 10
0.0
 20
0.0
  0
LINE
  8
型材断面
  6
CONTINUOUS
 10
10.516347
 20
8.164417
 11
8.272903
 21
4.278658
  0
LINE
  8
型材断面
  6
CONTINUOUS
 10
10.516347
 20
8.164417
 11
12.759793
 21
4.278658
  0
LINE
  8
型材断面
  6
CONTINUOUS
 10
12.759793
 20
4.278658
 11
8.272903
 21
4.278658
  0
LINE
  8
型材断面
  6
CONTINUOUS
 10
10.516347
 20
0.47487
 11
11.410433
 21
-3.41089
  0
LINE
  8
型材断面
  6
CONTINUOUS
 10
10.516347
 20
0.47487
 11
9.622263
 21
-3.41089
  0
LINE
  8
型材断面
  6
CONTINUOUS
 10
9.622263
 20
-3.41089
 11
11.410433
 21
-3.41089
  0
LINE
  8
型材断面
  6
CONTINUOUS
 10
1.482467
 20
2.870765
 11
54.139148
 21
2.870765
  0
LINE
  8
型材断面
  6
CONTINUOUS
 10
1.482467
 20
-8.329227
 11
54.139148
 21
-8.329227
  0
LINE
  8
型材断面
  6
CONTINUOUS
 10
1.482467
 20
-15.169172
 11
54.139148
 21
-15.169172
  0
LINE
  8
型材断面
  6
CONTINUOUS
 10
-92.875185
 20
47.520463
 11
-87.750185
 21
47.520463
  0
LINE
  8
型材断面
  6
CONTINUOUS
 10
-92.875185
 20
47.520463
 11
-92.875185
 21
42.39546
  0
LINE
  8
型材断面
  6
CONTINUOUS
 10
-82.625185
 20
47.520463
 11
-87.750185
 21
47.520463
  0
LINE
  8
型材断面
  6
CONTINUOUS
 10
-82.625185
 20
47.520463
 11
-82.625185
 21
42.39546
  0
LINE
  8
型材断面
  6
CONTINUOUS
 10
-92.875185
 20
37.270457
 11
-87.750185
 21
37.270457
  0
LINE
  8
型材断面
  6
CONTINUOUS
 10
-92.875185
 20
37.270457
 11
-92.875185
 21
42.39546
  0
LINE
  8
型材断面
  6
CONTINUOUS
 10
-82.625185
 20
37.270457
 11
-87.750185
 21
37.270457
  0
LINE
  8
型材断面
  6
CONTINUOUS
 10
-82.625185
 20
37.270457
 11
-82.625185
 21
42.39546
  0
LINE
  8
型材断面
  6
CONTINUOUS
 10
-88.519783
 20
47.520463
 11
-89.500185
 21
48.500865
  0
LINE
  8
型材断面
  6
CONTINUOUS
 10
-86.980587
 20
47.520463
 11
-86.000185
 21
48.500865
  0
LINE
  8
型材断面
  6
CONTINUOUS
 10
-88.519783
 20
37.270457
 11
-89.500185
 21
36.290055
  0
LINE
  8
型材断面
  6
CONTINUOUS
 10
-86.980587
 20
37.270457
 11
-86.000185
 21
36.290055
  0
LINE
  8
型材断面
  6
CONTINUOUS
 10
-82.625183
 20
43.165057
 11
-81.64478
 21
44.14546
  0
LINE
  8
型材断面
  6
CONTINUOUS
 10
-82.625183
 20
41.625863
 11
-81.64478
 21
40.64546
  0
LINE
  8
型材断面
  6
CONTINUOUS
 10
-92.875187
 20
43.165057
 11
-93.85559
 21
44.14546
  0
LINE
  8
型材断面
  6
CONTINUOUS
 10
-92.875187
 20
41.625863
 11
-93.85559
 21
40.64546
  0
LINE
  8
型材断面
  6
CONTINUOUS
 10
-89.500185
 20
-103.664715
 11
-86.000185
 21
-103.664715
  0
LINE
  8
型材断面
  6
CONTINUOUS
 10
-85.500185
 20
-104.164715
 11
-90.000185
 21
-104.164715
  0
LINE
  8
型材断面
  6
CONTINUOUS
 10
-90.000185
 20
-104.164715
 11
-90.000185
 21
-103.10405
  0
LINE
  8
型材断面
  6
CONTINUOUS
 10
-85.500185
 20
-104.164715
 11
-85.500185
 21
-103.10405
  0
LINE
  8
型材断面
  6
DASHDOT
 10
-87.750185
 20
42.39546
 11
-87.750185
 21
-114.396843
  0
LINE
  8
型材断面
  6
CONTINUOUS
 10
1.482467
 20
-22.009117
 11
54.139148
 21
-22.009117
  0
LINE
  8
型材断面
  6
DASHDOT
 10
-87.750185
 20
42.39546
 11
-42.750185
 21
42.39546
  0
LINE
  8
型材断面
  6
CONTINUOUS
 10
-37.605213
 20
40.645457
 11
-37.605213
 21
44.145457
  0
LINE
  8
型材断面
  6
CONTINUOUS
 10
-37.25166
 20
40.145457
 11
-37.25166
 21
44.645457
  0
LINE
  8
型材断面
  6
CONTINUOUS
 10
-37.25166
 20
44.645457
 11
-38.317922
 21
44.645457
  0
LINE
  8
型材断面
  6
CONTINUOUS
 10
-37.25166
 20
40.145457
 11
-38.317922
 21
40.145457
  0
LINE
  8
型材断面
  6
CONTINUOUS
 10
-37.605213
 20
40.645457
 11
-82.351885
 21
40.64546
  0
LINE
  8
型材断面
  6
CONTINUOUS
 10
-37.605213
 20
44.145457
 11
-82.351885
 21
44.14546
  0
LINE
  8
型材断面
  6
CONTINUOUS
 62
    47
 10
-39.774685
 20
-108.321767
 11
-39.774965
 21
-108.321767
  0
ARC
  8
型材断面
  6
CONTINUOUS
 62
    47
 10
-39.765185
 20
-108.406767
 40
0.015
 50
270.0
 51
360.0
  0
LINE
  8
型材断面
  6
CONTINUOUS
 62
    47
 10
-36.899982
 20
-104.521767
 11
-36.899988
 21
-104.771767
  0
LINE
  8
型材断面
  6
CONTINUOUS
 62
    47
 10
-37.257035
 20
-104.164715
 11
-36.899982
 21
-104.521767
  0
LINE
  8
型材断面
  6
CONTINUOUS
 62
    47
 10
-39.750185
 20
-108.406768
 11
-39.750185
 21
-108.346767
  0
ARC
  8
型材断面
  6
CONTINUOUS
 62
    47
 10
-39.775185
 20
-108.346767
 40
0.025
 50
0.0
 51
90.000343
  0
LINE
  8
型材断面
  6
CONTINUOUS
 62
    47
 10
-40.525185
 20
-114.396843
 11
-40.525185
 21
-113.646843
  0
LINE
  8
型材断面
  6
CONTINUOUS
 62
    47
 10
-39.775185
 20
-113.646843
 11
-39.775185
 21
-108.671843
  0
LINE
  8
型材断面
  6
CONTINUOUS
 62
    47
 10
-40.925405
 20
-108.536842
 11
-40.925405
 21
-108.421767
  0
LINE
  8
型材断面
  6
CONTINUOUS
 62
    47
 10
-41.175405
 20
-108.671843
 11
-41.175405
 21
-108.536842
  0
LINE
  8
型材断面
  6
CONTINUOUS
 62
    47
 10
-39.775185
 20
-108.321773
 11
-39.775185
 21
-106.911768
  0
LINE
  8
型材断面
  6
CONTINUOUS
 62
    47
 10
-38.400185
 20
-106.911768
 11
-38.400185
 21
-105.449288
  0
LINE
  8
型材断面
  6
CONTINUOUS
 62
    47
 10
-38.400185
 20
-105.449288
 11
-37.722667
 21
-104.771767
  0
LINE
  8
型材断面
  6
CONTINUOUS
 62
    47
 10
-37.257035
 20
-104.164715
 11
-38.317702
 21
-103.10405
  0
LINE
  8
型材断面
  6
CONTINUOUS
 10
-42.699047
 20
-103.10405
 11
-41.638382
 21
-104.164715
  0
LINE
  8
型材断面
  6
CONTINUOUS
 10
-41.43128
 20
-103.664715
 11
-37.757035
 21
-103.664715
  0
LINE
  8
型材断面
  6
CONTINUOUS
 10
-41.638382
 20
-104.164715
 11
-37.257035
 21
-104.164715
  0
LINE
  8
型材断面
  6
CONTINUOUS
 10
-36.899982
 20
-104.521767
 11
-87.750185
 21
-104.521767
  0
LINE
  8
型材断面
  6
CONTINUOUS
 62
    47
 10
-36.899988
 20
-104.771767
 11
-87.750185
 21
-104.771767
  0
LINE
  8
型材断面
  6
CONTINUOUS
 10
-38.400185
 20
-105.449288
 11
-87.750185
 21
-105.449288
  0
LINE
  8
型材断面
  6
CONTINUOUS
 62
    47
 10
-39.775185
 20
-108.671843
 11
-87.750185
 21
-108.671843
  0
LINE
  8
型材断面
  6
CONTINUOUS
 62
    47
 10
-39.765185
 20
-108.421767
 11
-87.750185
 21
-108.421767
  0
LINE
  8
型材断面
  6
CONTINUOUS
 62
    47
 10
-38.400185
 20
-106.911768
 11
-87.750185
 21
-106.911768
  0
LINE
  8
型材断面
  6
CONTINUOUS
 62
    47
 10
-40.925405
 20
-108.536842
 11
-87.750185
 21
-108.536842
  0
LINE
  8
型材断面
  6
CONTINUOUS
 62
    47
 10
-40.525185
 20
-114.396843
 11
-87.750185
 21
-114.396843
  0
LINE
  8
型材断面
  6
CONTINUOUS
 62
    47
 10
-39.775185
 20
-113.646843
 11
-87.750185
 21
-113.646843
  0
LINE
  8
型材断面
  6
CONTINUOUS
 10
-41.991945
 20
-103.10405
 11
-86.000185
 21
-103.10405
  0
LINE
  8
型材断面
  6
DASHDOT
 10
-42.750185
 20
42.39546
 11
-42.750185
 21
-114.396843
  0
LINE
  8
型材断面
  6
CONTINUOUS
 10
-34.726307
 20
42.39546
 11
-30.840547
 21
40.152015
  0
LINE
  8
型材断面
  6
CONTINUOUS
 10
-34.726307
 20
42.39546
 11
-30.840547
 21
44.638905
  0
LINE
  8
型材断面
  6
CONTINUOUS
 10
-30.840547
 20
44.638905
 11
-30.840547
 21
40.152015
  0
LINE
  8
型材断面
  6
DASHDOT
 10
-87.750185
 20
42.39546
 11
-132.750185
 21
42.39546
  0
LINE
  8
型材断面
  6
CONTINUOUS
 10
-137.895158
 20
40.645457
 11
-137.895158
 21
44.145457
  0
LINE
  8
型材断面
  6
CONTINUOUS
 10
-138.24871
 20
40.145457
 11
-138.24871
 21
44.645457
  0
LINE
  8
型材断面
  6
CONTINUOUS
 10
-138.24871
 20
44.645457
 11
-137.182448
 21
44.645457
  0
LINE
  8
型材断面
  6
CONTINUOUS
 10
-138.24871
 20
40.145457
 11
-137.182448
 21
40.145457
  0
LINE
  8
型材断面
  6
CONTINUOUS
 10
-137.895158
 20
40.645457
 11
-93.148485
 21
40.64546
  0
LINE
  8
型材断面
  6
CONTINUOUS
 10
-137.895158
 20
44.145457
 11
-93.148485
 21
44.14546
  0
LINE
  8
型材断面
  6
CONTINUOUS
 62
    47
 10
-135.725685
 20
-108.321767
 11
-135.725405
 21
-108.321767
  0
ARC
  8
型材断面
  6
CONTINUOUS
 62
    47
 10
-135.735185
 20
-108.406767
 40
0.015
 50
180.0
 51
270.0
  0
LINE
  8
型材断面
  6
CONTINUOUS
 62
    47
 10
-138.600388
 20
-104.521767
 11
-138.600382
 21
-104.771767
  0
LINE
  8
型材断面
  6
CONTINUOUS
 62
    47
 10
-138.243335
 20
-104.164715
 11
-138.600388
 21
-104.521767
  0
LINE
  8
型材断面
  6
CONTINUOUS
 62
    47
 10
-135.750185
 20
-108.406768
 11
-135.750185
 21
-108.346767
  0
ARC
  8
型材断面
  6
CONTINUOUS
 62
    47
 10
-135.725185
 20
-108.346767
 40
0.025
 50
89.999657
 51
180.0
  0
LINE
  8
型材断面
  6
CONTINUOUS
 62
    47
 10
-134.975185
 20
-114.396843
 11
-134.975185
 21
-113.646843
  0
LINE
  8
型材断面
  6
CONTINUOUS
 62
    47
 10
-135.725185
 20
-113.646843
 11
-135.725185
 21
-108.671843
  0
LINE
  8
型材断面
  6
CONTINUOUS
 62
    47
 10
-134.574965
 20
-108.536842
 11
-134.574965
 21
-108.421767
  0
LINE
  8
型材断面
  6
CONTINUOUS
 62
    47
 10
-134.324965
 20
-108.671843
 11
-134.324965
 21
-108.536842
  0
LINE
  8
型材断面
  6
CONTINUOUS
 62
    47
 10
-135.725185
 20
-108.321773
 11
-135.725185
 21
-106.911768
  0
LINE
  8
型材断面
  6
CONTINUOUS
 62
    47
 10
-137.100185
 20
-106.911768
 11
-137.100185
 21
-105.449288
  0
LINE
  8
型材断面
  6
CONTINUOUS
 62
    47
 10
-137.100185
 20
-105.449288
 11
-137.777703
 21
-104.771767
  0
LINE
  8
型材断面
  6
CONTINUOUS
 62
    47
 10
-138.243335
 20
-104.164715
 11
-137.182668
 21
-103.10405
  0
LINE
  8
型材断面
  6
CONTINUOUS
 10
-132.801322
 20
-103.10405
 11
-133.861988
 21
-104.164715
  0
LINE
  8
型材断面
  6
CONTINUOUS
 10
-134.06909
 20
-103.664715
 11
-137.743335
 21
-103.664715
  0
LINE
  8
型材断面
  6
CONTINUOUS
 10
-133.861988
 20
-104.164715
 11
-138.243335
 21
-104.164715
  0
LINE
  8
型材断面
  6
CONTINUOUS
 10
-138.600388
 20
-104.521767
 11
-87.750185
 21
-104.521767
  0
LINE
  8
型材断面
  6
CONTINUOUS
 62
    47
 10
-138.600382
 20
-104.771767
 11
-87.750185
 21
-104.771767
  0
LINE
  8
型材断面
  6
CONTINUOUS
 10
-137.100185
 20
-105.449288
 11
-87.750185
 21
-105.449288
  0
LINE
  8
型材断面
  6
CONTINUOUS
 62
    47
 10
-135.725185
 20
-108.671843
 11
-87.750185
 21
-108.671843
  0
LINE
  8
型材断面
  6
CONTINUOUS
 62
    47
 10
-135.735185
 20
-108.421767
 11
-87.750185
 21
-108.421767
  0
LINE
  8
型材断面
  6
CONTINUOUS
 62
    47
 10
-137.100185
 20
-106.911768
 11
-87.750185
 21
-106.911768
  0
LINE
  8
型材断面
  6
CONTINUOUS
 62
    47
 10
-134.574965
 20
-108.536842
 11
-87.750185
 21
-108.536842
  0
LINE
  8
型材断面
  6
CONTINUOUS
 62
    47
 10
-134.975185
 20
-114.396843
 11
-87.750185
 21
-114.396843
  0
LINE
  8
型材断面
  6
CONTINUOUS
 62
    47
 10
-135.725185
 20
-113.646843
 11
-87.750185
 21
-113.646843
  0
LINE
  8
型材断面
  6
CONTINUOUS
 10
-133.508425
 20
-103.10405
 11
-89.500185
 21
-103.10405
  0
LINE
  8
型材断面
  6
DASHDOT
 10
-132.750185
 20
42.39546
 11
-132.750185
 21
-114.396843
  0
LINE
  8
型材断面
  6
CONTINUOUS
 10
-140.774063
 20
42.39546
 11
-144.659822
 21
40.152015
  0
LINE
  8
型材断面
  6
CONTINUOUS
 10
-140.774063
 20
42.39546
 11
-144.659822
 21
44.638905
  0
LINE
  8
型材断面
  6
CONTINUOUS
 10
-144.659822
 20
44.638905
 11
-144.659822
 21
40.152015
  0
LINE
  8
型材断面
  6
CONTINUOUS
 10
-86.000185
 20
-7.749513
 11
-89.500185
 21
-7.749513
  0
LINE
  8
型材断面
  6
CONTINUOUS
 10
-85.500185
 20
-8.103065
 11
-90.000185
 21
-8.103065
  0
LINE
  8
型材断面
  6
CONTINUOUS
 10
-90.000185
 20
-8.103065
 11
-90.000185
 21
-7.036802
  0
LINE
  8
型材断面
  6
CONTINUOUS
 10
-85.500185
 20
-8.103065
 11
-85.500185
 21
-7.036802
  0
LINE
  8
型材断面
  6
CONTINUOUS
 10
-86.000185
 20
-7.749513
 11
-86.000185
 21
36.99716
  0
LINE
  8
型材断面
  6
CONTINUOUS
 10
-89.500185
 20
-7.749513
 11
-89.500185
 21
36.99716
  0
LINE
  8
型材断面
  6
CONTINUOUS
 10
-87.750185
 20
-10.628415
 11
-89.99363
 21
-14.514175
  0
LINE
  8
型材断面
  6
CONTINUOUS
 10
-87.750185
 20
-10.628415
 11
-85.50674
 21
-14.514175
  0
LINE
  8
型材断面
  6
CONTINUOUS
 10
-85.50674
 20
-14.514175
 11
-89.99363
 21
-14.514175
  0
POLYLINE
  8
型材断面
  6
CONTINUOUS
 66
     1
 70
     1
  0
VERTEX
  8
型材断面
 10
-78.467185
 20
-15.707107
  0
VERTEX
  8
型材断面
 10
-97.022397
 20
-15.707107
  0
VERTEX
  8
型材断面
 10
-97.022397
 20
-20.499143
  0
VERTEX
  8
型材断面
 10
-78.467185
 20
-20.499143
  0
SEQEND
  0
LINE
  8
型材断面
  6
CONTINUOUS
 10
-37.605213
 20
-7.749513
 11
-37.605213
 21
-4.101215
  0
LINE
  8
型材断面
  6
CONTINUOUS
 10
-37.605213
 20
-7.749513
 11
-41.25351
 21
-7.749513
  0
LINE
  8
型材断面
  6
CONTINUOUS
 10
-37.251657
 20
-8.103067
 11
-37.251657
 21
-3.747663
  0
LINE
  8
型材断面
  6
CONTINUOUS
 10
-37.251657
 20
-3.747663
 11
-38.313152
 21
-2.686168
  0
LINE
  8
型材断面
  6
CONTINUOUS
 10
-41.607065
 20
-8.103065
 11
-42.668558
 21
-7.041572
  0
LINE
  8
型材断面
  6
CONTINUOUS
 10
-37.251657
 20
-8.103067
 11
-41.607063
 21
-8.103067
  0
LINE
  8
型材断面
  6
DASHDOT
 10
-42.750185
 20
-2.60454
 11
-87.750185
 21
-2.60454
  0
LINE
  8
型材断面
  6
DOT
 10
-45.989525
 20
-2.60454
 11
-45.989525
 21
42.39546
  0
LINE
  8
型材断面
  6
DOT
 10
-47.989525
 20
-2.60454
 11
-47.989525
 21
42.39546
  0
LINE
  8
型材断面
  6
CONTINUOUS
 10
-36.900205
 20
-8.454522
 11
-87.750185
 21
-8.454522
  0
LINE
  8
型材断面
  6
CONTINUOUS
 10
-36.900205
 20
-8.454522
 11
-36.900205
 21
42.39546
  0
LINE
  8
型材断面
  6
CONTINUOUS
 10
-41.25351
 20
-7.749513
 11
-86.273482
 21
37.270457
  0
LINE
  8
型材断面
  6
CONTINUOUS
 10
-37.605213
 20
-4.101215
 11
-82.625185
 21
40.91876
  0
LINE
  8
型材断面
  6
CONTINUOUS
 10
-36.900205
 20
-8.454522
 11
-87.750185
 21
42.39546
  0
LINE
  8
型材断面
  6
CONTINUOUS
 10
-38.317925
 20
-3.388502
 11
-38.317925
 21
40.645457
  0
LINE
  8
型材断面
  6
CONTINUOUS
 10
-41.966223
 20
-7.036802
 11
-86.000185
 21
-7.036802
  0
LINE
  8
型材断面
  6
CONTINUOUS
 10
-34.72631
 20
2.945457
 11
-30.84055
 21
3.839543
  0
LINE
  8
型材断面
  6
CONTINUOUS
 10
-34.72631
 20
2.945457
 11
-30.84055
 21
2.051373
  0
LINE
  8
型材断面
  6
CONTINUOUS
 10
-30.84055
 20
2.051373
 11
-30.84055
 21
3.839543
  0
LINE
  8
型材断面
  6
CONTINUOUS
 10
-137.895158
 20
-7.749513
 11
-137.895158
 21
-4.101215
  0
LINE
  8
型材断面
  6
CONTINUOUS
 10
-137.895158
 20
-7.749513
 11
-134.24686
 21
-7.749513
  0
LINE
  8
型材断面
  6
CONTINUOUS
 10
-138.248712
 20
-8.103067
 11
-138.248712
 21
-3.747663
  0
LINE
  8
型材断面
  6
CONTINUOUS
 10
-138.248712
 20
-3.747663
 11
-137.187218
 21
-2.686168
  0
LINE
  8
型材断面
  6
CONTINUOUS
 10
-133.893305
 20
-8.103065
 11
-132.831812
 21
-7.041572
  0
LINE
  8
型材断面
  6
CONTINUOUS
 10
-138.248712
 20
-8.103067
 11
-133.893307
 21
-8.103067
  0
LINE
  8
型材断面
  6
DASHDOT
 10
-132.750185
 20
-2.60454
 11
-87.750185
 21
-2.60454
  0
LINE
  8
型材断面
  6
DOT
 10
-129.510845
 20
-2.60454
 11
-129.510845
 21
42.39546
  0
LINE
  8
型材断面
  6
DOT
 10
-127.510845
 20
-2.60454
 11
-127.510845
 21
42.39546
  0
LINE
  8
型材断面
  6
CONTINUOUS
 10
-138.600165
 20
-8.454522
 11
-87.750185
 21
-8.454522
  0
LINE
  8
型材断面
  6
CONTINUOUS
 10
-138.600165
 20
-8.454522
 11
-138.600165
 21
42.39546
  0
LINE
  8
型材断面
  6
CONTINUOUS
 10
-134.24686
 20
-7.749513
 11
-89.226887
 21
37.270457
  0
LINE
  8
型材断面
  6
CONTINUOUS
 10
-137.895158
 20
-4.101215
 11
-92.875185
 21
40.91876
  0
LINE
  8
型材断面
  6
CONTINUOUS
 10
-138.600165
 20
-8.454522
 11
-87.750185
 21
42.39546
  0
LINE
  8
型材断面
  6
CONTINUOUS
 10
-137.182445
 20
-3.388502
 11
-137.182445
 21
40.645457
  0
LINE
  8
型材断面
  6
CONTINUOUS
 10
-133.534148
 20
-7.036802
 11
-89.500185
 21
-7.036802
  0
LINE
  8
型材断面
  6
CONTINUOUS
 10
-140.77406
 20
2.945457
 11
-144.65982
 21
3.839543
  0
LINE
  8
型材断面
  6
CONTINUOUS
 10
-140.77406
 20
2.945457
 11
-144.65982
 21
2.051373
  0
LINE
  8
型材断面
  6
CONTINUOUS
 10
-144.65982
 20
2.051373
 11
-144.65982
 21
3.839543
  0
LINE
  8
型材断面
  6
DASHDOT
 10
-87.750185
 20
42.39546
 11
-87.750185
 21
87.39546
  0
LINE
  8
型材断面
  6
CONTINUOUS
 10
-86.000185
 20
92.540432
 11
-89.500185
 21
92.540432
  0
LINE
  8
型材断面
  6
CONTINUOUS
 10
-85.500185
 20
92.893985
 11
-90.000185
 21
92.893985
  0
LINE
  8
型材断面
  6
CONTINUOUS
 10
-90.000185
 20
92.893985
 11
-90.000185
 21
91.827722
  0
LINE
  8
型材断面
  6
CONTINUOUS
 10
-85.500185
 20
92.893985
 11
-85.500185
 21
91.827722
  0
LINE
  8
型材断面
  6
CONTINUOUS
 10
-86.000185
 20
92.540432
 11
-86.000185
 21
47.79376
  0
LINE
  8
型材断面
  6
CONTINUOUS
 10
-89.500185
 20
92.540432
 11
-89.500185
 21
47.79376
  0
LINE
  8
型材断面
  6
CONTINUOUS
 10
-87.750185
 20
95.419335
 11
-89.99363
 21
99.305095
  0
LINE
  8
型材断面
  6
CONTINUOUS
 10
-87.750185
 20
95.419335
 11
-85.50674
 21
99.305095
  0
LINE
  8
型材断面
  6
CONTINUOUS
 10
-85.50674
 20
99.305095
 11
-89.99363
 21
99.305095
  0
POLYLINE
  8
型材断面
  6
CONTINUOUS
 66
     1
 70
     1
  0
VERTEX
  8
型材断面
 10
-78.467185
 20
105.614107
  0
VERTEX
  8
型材断面
 10
-97.022397
 20
105.614107
  0
VERTEX
  8
型材断面
 10
-97.022397
 20
100.822072
  0
VERTEX
  8
型材断面
 10
-78.467185
 20
100.822072
  0
SEQEND
  0
LINE
  8
型材断面
  6
CONTINUOUS
 10
-37.605213
 20
92.540432
 11
-37.605213
 21
88.892135
  0
LINE
  8
型材断面
  6
CONTINUOUS
 10
-37.605213
 20
92.540432
 11
-41.25351
 21
92.540432
  0
LINE
  8
型材断面
  6
CONTINUOUS
 10
-37.251657
 20
92.893988
 11
-37.251657
 21
88.538582
  0
LINE
  8
型材断面
  6
CONTINUOUS
 10
-37.251657
 20
88.538582
 11
-38.313152
 21
87.477088
  0
LINE
  8
型材断面
  6
CONTINUOUS
 10
-41.607065
 20
92.893985
 11
-42.668558
 21
91.832493
  0
LINE
  8
型材断面
  6
CONTINUOUS
 10
-37.251657
 20
92.893988
 11
-41.607063
 21
92.893988
  0
LINE
  8
型材断面
  6
DASHDOT
 10
-42.750185
 20
87.39546
 11
-87.750185
 21
87.39546
  0
LINE
  8
型材断面
  6
DASHDOT
 10
-42.750185
 20
87.39546
 11
-42.750185
 21
42.39546
  0
LINE
  8
型材断面
  6
DOT
 10
-45.989525
 20
87.39546
 11
-45.989525
 21
42.39546
  0
LINE
  8
型材断面
  6
DOT
 10
-47.989525
 20
87.39546
 11
-47.989525
 21
42.39546
  0
LINE
  8
型材断面
  6
CONTINUOUS
 10
-36.900205
 20
93.245442
 11
-87.750185
 21
93.245442
  0
LINE
  8
型材断面
  6
CONTINUOUS
 10
-36.900205
 20
93.245442
 11
-36.900205
 21
42.39546
  0
LINE
  8
型材断面
  6
CONTINUOUS
 10
-41.25351
 20
92.540432
 11
-86.273482
 21
47.520463
  0
LINE
  8
型材断面
  6
CONTINUOUS
 10
-37.605213
 20
88.892135
 11
-82.625185
 21
43.87216
  0
LINE
  8
型材断面
  6
CONTINUOUS
 10
-36.900205
 20
93.245442
 11
-87.750185
 21
42.39546
  0
LINE
  8
型材断面
  6
CONTINUOUS
 10
-41.966223
 20
91.827722
 11
-86.000185
 21
91.827722
  0
LINE
  8
型材断面
  6
CONTINUOUS
 10
-38.317925
 20
88.179422
 11
-38.317925
 21
44.145457
  0
LINE
  8
型材断面
  6
CONTINUOUS
 10
-34.72631
 20
81.845463
 11
-30.84055
 21
80.951377
  0
LINE
  8
型材断面
  6
CONTINUOUS
 10
-34.72631
 20
81.845463
 11
-30.84055
 21
82.739547
  0
LINE
  8
型材断面
  6
CONTINUOUS
 10
-30.84055
 20
82.739547
 11
-30.84055
 21
80.951377
  0
LINE
  8
型材断面
  6
CONTINUOUS
 10
-137.895158
 20
92.540432
 11
-137.895158
 21
88.892135
  0
LINE
  8
型材断面
  6
CONTINUOUS
 10
-137.895158
 20
92.540432
 11
-134.24686
 21
92.540432
  0
LINE
  8
型材断面
  6
CONTINUOUS
 10
-138.248712
 20
92.893988
 11
-138.248712
 21
88.538582
  0
LINE
  8
型材断面
  6
CONTINUOUS
 10
-138.248712
 20
88.538582
 11
-137.187218
 21
87.477088
  0
LINE
  8
型材断面
  6
CONTINUOUS
 10
-133.893305
 20
92.893985
 11
-132.831812
 21
91.832493
  0
LINE
  8
型材断面
  6
CONTINUOUS
 10
-138.248712
 20
92.893988
 11
-133.893307
 21
92.893988
  0
LINE
  8
型材断面
  6
DASHDOT
 10
-132.750185
 20
87.39546
 11
-87.750185
 21
87.39546
  0
LINE
  8
型材断面
  6
DASHDOT
 10
-132.750185
 20
87.39546
 11
-132.750185
 21
42.39546
  0
LINE
  8
型材断面
  6
DOT
 10
-129.510845
 20
87.39546
 11
-129.510845
 21
42.39546
  0
LINE
  8
型材断面
  6
DOT
 10
-127.510845
 20
87.39546
 11
-127.510845
 21
42.39546
  0
LINE
  8
型材断面
  6
CONTINUOUS
 10
-138.600165
 20
93.245442
 11
-87.750185
 21
93.245442
  0
LINE
  8
型材断面
  6
CONTINUOUS
 10
-138.600165
 20
93.245442
 11
-138.600165
 21
42.39546
  0
LINE
  8
型材断面
  6
CONTINUOUS
 10
-134.24686
 20
92.540432
 11
-89.226887
 21
47.520463
  0
LINE
  8
型材断面
  6
CONTINUOUS
 10
-137.895158
 20
88.892135
 11
-92.875185
 21
43.87216
  0
LINE
  8
型材断面
  6
CONTINUOUS
 10
-138.600165
 20
93.245442
 11
-87.750185
 21
42.39546
  0
LINE
  8
型材断面
  6
CONTINUOUS
 10
-133.534148
 20
91.827722
 11
-89.500185
 21
91.827722
  0
LINE
  8
型材断面
  6
CONTINUOUS
 10
-137.182445
 20
88.179422
 11
-137.182445
 21
44.145457
  0
LINE
  8
型材断面
  6
CONTINUOUS
 10
-140.77406
 20
81.845463
 11
-144.65982
 21
80.951377
  0
LINE
  8
型材断面
  6
CONTINUOUS
 10
-140.77406
 20
81.845463
 11
-144.65982
 21
82.739547
  0
LINE
  8
型材断面
  6
CONTINUOUS
 10
-144.65982
 20
82.739547
 11
-144.65982
 21
80.951377
  0
LINE
  8
型材断面
  6
CONTINUOUS
 10
-87.750185
 20
-63.494765
 11
-87.750185
 21
-36.425
  0
LINE
  8
型材断面
  6
CONTINUOUS
 10
-92.875185
 20
-58.619762
 11
-87.750185
 21
-58.619762
  0
LINE
  8
型材断面
  6
CONTINUOUS
 10
-92.875185
 20
-58.619762
 11
-92.804475
 21
-58.690473
  0
LINE
  8
型材断面
  6
CONTINUOUS
 10
-87.750185
 20
-58.690473
 11
-92.804475
 21
-58.690473
  0
LINE
  8
型材断面
  6
CONTINUOUS
 10
-92.875185
 20
-58.619762
 11
-87.750185
 21
-53.49476
  0
LINE
  8
型材断面
  6
CONTINUOUS
 10
-82.625185
 20
-58.619762
 11
-87.750185
 21
-58.619762
  0
LINE
  8
型材断面
  6
CONTINUOUS
 10
-82.625185
 20
-58.619762
 11
-82.695895
 21
-58.690473
  0
LINE
  8
型材断面
  6
CONTINUOUS
 10
-87.750185
 20
-58.690473
 11
-82.695895
 21
-58.690473
  0
LINE
  8
型材断面
  6
CONTINUOUS
 10
-82.625185
 20
-58.619762
 11
-87.750185
 21
-53.49476
  0
LINE
  8
型材断面
  6
CONTINUOUS
 10
-89.500185
 20
-103.664715
 11
-89.500185
 21
-58.619762
  0
LINE
  8
型材断面
  6
CONTINUOUS
 10
-86.000185
 20
-103.664715
 11
-86.000185
 21
-58.619762
  0
LINE
  8
型材断面
  6
CONTINUOUS
 10
-41.43128
 20
-103.664715
 11
-86.40549
 21
-58.690473
  0
LINE
  8
型材断面
  6
CONTINUOUS
 10
-38.3177
 20
-103.10405
 11
-82.73125
 21
-58.690473
  0
LINE
  8
型材断面
  6
CONTINUOUS
 10
-134.06909
 20
-103.664715
 11
-89.09488
 21
-58.690473
  0
LINE
  8
型材断面
  6
CONTINUOUS
 10
-137.18267
 20
-103.10405
 11
-92.76912
 21
-58.690473
  0
LINE
  8
型材断面
  6
CONTINUOUS
 10
102.436457
 20
-103.664715
 11
105.936457
 21
-103.664715
  0
LINE
  8
型材断面
  6
CONTINUOUS
 10
106.436457
 20
-104.164715
 11
101.936457
 21
-104.164715
  0
LINE
  8
型材断面
  6
CONTINUOUS
 10
101.936457
 20
-104.164715
 11
101.936457
 21
-103.10405
  0
LINE
  8
型材断面
  6
CONTINUOUS
 10
106.436457
 20
-104.164715
 11
106.436457
 21
-103.10405
  0
LINE
  8
型材断面
  6
CONTINUOUS
 62
    47
 10
152.161958
 20
-108.321767
 11
152.161678
 21
-108.321767
  0
ARC
  8
型材断面
  6
CONTINUOUS
 62
    47
 10
152.171457
 20
-108.406767
 40
0.015
 50
270.0
 51
360.0
  0
LINE
  8
型材断面
  6
CONTINUOUS
 62
    47
 10
155.03666
 20
-104.521767
 11
155.036655
 21
-104.771767
  0
LINE
  8
型材断面
  6
CONTINUOUS
 62
    47
 10
154.679608
 20
-104.164715
 11
155.03666
 21
-104.521767
  0
LINE
  8
型材断面
  6
CONTINUOUS
 62
    47
 10
152.186457
 20
-108.406768
 11
152.186457
 21
-108.346767
  0
ARC
  8
型材断面
  6
CONTINUOUS
 62
    47
 10
152.161457
 20
-108.346767
 40
0.025
 50
0.0
 51
90.000343
  0
LINE
  8
型材断面
  6
CONTINUOUS
 62
    47
 10
151.411457
 20
-114.396843
 11
151.411457
 21
-113.646843
  0
LINE
  8
型材断面
  6
CONTINUOUS
 62
    47
 10
152.161457
 20
-113.646843
 11
152.161457
 21
-108.671843
  0
LINE
  8
型材断面
  6
CONTINUOUS
 62
    47
 10
151.011238
 20
-108.536842
 11
151.011238
 21
-108.421767
  0
LINE
  8
型材断面
  6
CONTINUOUS
 62
    47
 10
150.761238
 20
-108.671843
 11
150.761238
 21
-108.536842
  0
LINE
  8
型材断面
  6
CONTINUOUS
 62
    47
 10
152.161457
 20
-108.321773
 11
152.161457
 21
-106.911768
  0
LINE
  8
型材断面
  6
CONTINUOUS
 62
    47
 10
153.536457
 20
-106.911768
 11
153.536457
 21
-105.449288
  0
LINE
  8
型材断面
  6
CONTINUOUS
 62
    47
 10
153.536457
 20
-105.449288
 11
154.213975
 21
-104.771767
  0
LINE
  8
型材断面
  6
CONTINUOUS
 62
    47
 10
154.679608
 20
-104.164715
 11
153.61894
 21
-103.10405
  0
LINE
  8
型材断面
  6
CONTINUOUS
 10
149.237595
 20
-103.10405
 11
150.29826
 21
-104.164715
  0
LINE
  8
型材断面
  6
CONTINUOUS
 10
150.505363
 20
-103.664715
 11
154.179608
 21
-103.664715
  0
LINE
  8
型材断面
  6
CONTINUOUS
 10
150.29826
 20
-104.164715
 11
154.679608
 21
-104.164715
  0
LINE
  8
型材断面
  6
CONTINUOUS
 10
155.03666
 20
-104.521767
 11
104.186457
 21
-104.521767
  0
LINE
  8
型材断面
  6
CONTINUOUS
 62
    47
 10
155.036655
 20
-104.771767
 11
104.186457
 21
-104.771767
  0
LINE
  8
型材断面
  6
CONTINUOUS
 10
153.536457
 20
-105.449288
 11
104.186457
 21
-105.449288
  0
LINE
  8
型材断面
  6
CONTINUOUS
 62
    47
 10
152.161457
 20
-108.671843
 11
104.186457
 21
-108.671843
  0
LINE
  8
型材断面
  6
CONTINUOUS
 62
    47
 10
152.171458
 20
-108.421767
 11
104.186457
 21
-108.421767
  0
LINE
  8
型材断面
  6
CONTINUOUS
 62
    47
 10
153.536457
 20
-106.911768
 11
104.186457
 21
-106.911768
  0
LINE
  8
型材断面
  6
CONTINUOUS
 62
    47
 10
151.011238
 20
-108.536842
 11
104.186457
 21
-108.536842
  0
LINE
  8
型材断面
  6
CONTINUOUS
 62
    47
 10
151.411457
 20
-114.396843
 11
104.186457
 21
-114.396843
  0
LINE
  8
型材断面
  6
CONTINUOUS
 62
    47
 10
152.161457
 20
-113.646843
 11
104.186457
 21
-113.646843
  0
LINE
  8
型材断面
  6
CONTINUOUS
 10
149.944698
 20
-103.10405
 11
105.936457
 21
-103.10405
  0
LINE
  8
型材断面
  6
CONTINUOUS
 62
    47
 10
56.210958
 20
-108.321767
 11
56.211238
 21
-108.321767
  0
ARC
  8
型材断面
  6
CONTINUOUS
 62
    47
 10
56.201457
 20
-108.406767
 40
0.015
 50
180.0
 51
270.0
  0
LINE
  8
型材断面
  6
CONTINUOUS
 62
    47
 10
53.336255
 20
-104.521767
 11
53.33626
 21
-104.771767
  0
LINE
  8
型材断面
  6
CONTINUOUS
 62
    47
 10
53.693308
 20
-104.164715
 11
53.336255
 21
-104.521767
  0
LINE
  8
型材断面
  6
CONTINUOUS
 62
    47
 10
56.186457
 20
-108.406768
 11
56.186457
 21
-108.346767
  0
ARC
  8
型材断面
  6
CONTINUOUS
 62
    47
 10
56.211457
 20
-108.346767
 40
0.025
 50
89.999657
 51
180.0
  0
LINE
  8
型材断面
  6
CONTINUOUS
 62
    47
 10
56.961457
 20
-114.396843
 11
56.961457
 21
-113.646843
  0
LINE
  8
型材断面
  6
CONTINUOUS
 62
    47
 10
56.211457
 20
-113.646843
 11
56.211457
 21
-108.671843
  0
LINE
  8
型材断面
  6
CONTINUOUS
 62
    47
 10
57.361678
 20
-108.536842
 11
57.361678
 21
-108.421767
  0
LINE
  8
型材断面
  6
CONTINUOUS
 62
    47
 10
57.611678
 20
-108.671843
 11
57.611678
 21
-108.536842
  0
LINE
  8
型材断面
  6
CONTINUOUS
 62
    47
 10
56.211457
 20
-108.321773
 11
56.211457
 21
-106.911768
  0
LINE
  8
型材断面
  6
CONTINUOUS
 62
    47
 10
54.836457
 20
-106.911768
 11
54.836457
 21
-105.449288
  0
LINE
  8
型材断面
  6
CONTINUOUS
 62
    47
 10
54.836457
 20
-105.449288
 11
54.15894
 21
-104.771767
  0
LINE
  8
型材断面
  6
CONTINUOUS
 62
    47
 10
53.693308
 20
-104.164715
 11
54.753975
 21
-103.10405
  0
LINE
  8
型材断面
  6
CONTINUOUS
 10
59.13532
 20
-103.10405
 11
58.074655
 21
-104.164715
  0
LINE
  8
型材断面
  6
CONTINUOUS
 10
57.867553
 20
-103.664715
 11
54.193308
 21
-103.664715
  0
LINE
  8
型材断面
  6
CONTINUOUS
 10
58.074655
 20
-104.164715
 11
53.693308
 21
-104.164715
  0
LINE
  8
型材断面
  6
CONTINUOUS
 10
53.336255
 20
-104.521767
 11
104.186457
 21
-104.521767
  0
LINE
  8
型材断面
  6
CONTINUOUS
 62
    47
 10
53.33626
 20
-104.771767
 11
104.186457
 21
-104.771767
  0
LINE
  8
型材断面
  6
CONTINUOUS
 10
54.836457
 20
-105.449288
 11
104.186457
 21
-105.449288
  0
LINE
  8
型材断面
  6
CONTINUOUS
 62
    47
 10
56.211457
 20
-108.671843
 11
104.186457
 21
-108.671843
  0
LINE
  8
型材断面
  6
CONTINUOUS
 62
    47
 10
56.201457
 20
-108.421767
 11
104.186457
 21
-108.421767
  0
LINE
  8
型材断面
  6
CONTINUOUS
 62
    47
 10
54.836457
 20
-106.911768
 11
104.186457
 21
-106.911768
  0
LINE
  8
型材断面
  6
CONTINUOUS
 62
    47
 10
57.361678
 20
-108.536842
 11
104.186457
 21
-108.536842
  0
LINE
  8
型材断面
  6
CONTINUOUS
 62
    47
 10
56.961457
 20
-114.396843
 11
104.186457
 21
-114.396843
  0
LINE
  8
型材断面
  6
CONTINUOUS
 62
    47
 10
56.211457
 20
-113.646843
 11
104.186457
 21
-113.646843
  0
LINE
  8
型材断面
  6
CONTINUOUS
 10
58.428218
 20
-103.10405
 11
102.436457
 21
-103.10405
  0
LINE
  8
型材断面
  6
CONTINUOUS
 10
99.061457
 20
-58.619762
 11
104.186457
 21
-58.619762
  0
LINE
  8
型材断面
  6
CONTINUOUS
 10
99.061457
 20
-58.619762
 11
99.132167
 21
-58.690473
  0
LINE
  8
型材断面
  6
CONTINUOUS
 10
104.186457
 20
-58.690473
 11
99.132167
 21
-58.690473
  0
LINE
  8
型材断面
  6
CONTINUOUS
 10
99.061457
 20
-58.619762
 11
104.186457
 21
-53.49476
  0
LINE
  8
型材断面
  6
CONTINUOUS
 10
109.311457
 20
-58.619762
 11
104.186457
 21
-58.619762
  0
LINE
  8
型材断面
  6
CONTINUOUS
 10
109.311457
 20
-58.619762
 11
109.240748
 21
-58.690473
  0
LINE
  8
型材断面
  6
CONTINUOUS
 10
104.186457
 20
-58.690473
 11
109.240748
 21
-58.690473
  0
LINE
  8
型材断面
  6
CONTINUOUS
 10
109.311457
 20
-58.619762
 11
104.186457
 21
-53.49476
  0
LINE
  8
型材断面
  6
CONTINUOUS
 10
102.436457
 20
-103.664715
 11
102.436457
 21
-58.619762
  0
LINE
  8
型材断面
  6
CONTINUOUS
 10
105.936457
 20
-103.664715
 11
105.936457
 21
-58.619762
  0
LINE
  8
型材断面
  6
CONTINUOUS
 10
150.505363
 20
-103.664715
 11
105.531152
 21
-58.690473
  0
LINE
  8
型材断面
  6
CONTINUOUS
 10
153.618943
 20
-103.10405
 11
109.205393
 21
-58.690473
  0
LINE
  8
型材断面
  6
CONTINUOUS
 10
57.867553
 20
-103.664715
 11
102.841763
 21
-58.690473
  0
LINE
  8
型材断面
  6
CONTINUOUS
 10
54.753973
 20
-103.10405
 11
99.167523
 21
-58.690473
  0
INSERT
  2
*GRP_0019
  8
型材断面
  6
CONTINUOUS
 10
0.0
 20
0.0
  0
INSERT
  2
*GRP_0020
  8
型材断面
  6
CONTINUOUS
 10
0.0
 20
0.0
  0
INSERT
  2
*GRP_0021
  8
型材断面
  6
CONTINUOUS
 10
0.0
 20
0.0
  0
INSERT
  2
*GRP_0022
  8
型材断面
  6
CONTINUOUS
 10
0.0
 20
0.0
  0
LINE
  8
型材断面
  6
CONTINUOUS
 10
103.754708
 20
56.552347
 11
127.68633
 21
56.552347
  0
LINE
  8
ガラス
  6
CONTINUOUS
 10
-100.829307
 20
79.464443
 11
-104.701943
 21
75.591807
  0
LINE
  8
ガラス
  6
CONTINUOUS
 10
-102.427665
 20
78.58412
 11
-103.82162
 21
77.190165
  0
LINE
  8
ガラス
  6
CONTINUOUS
 10
-101.70963
 20
77.866085
 11
-103.103585
 21
76.47213
  0
LINE
  8
ガラス
  6
CONTINUOUS
 10
-73.157432
 20
79.464443
 11
-77.030068
 21
75.591807
  0
LINE
  8
ガラス
  6
CONTINUOUS
 10
-74.75579
 20
78.58412
 11
-76.149745
 21
77.190165
  0
LINE
  8
ガラス
  6
CONTINUOUS
 10
-74.037755
 20
77.866085
 11
-75.43171
 21
76.47213
  0
LINE
  8
ガラス
  6
CONTINUOUS
 10
-100.829307
 20
11.401943
 11
-104.701943
 21
7.529307
  0
LINE
  8
ガラス
  6
CONTINUOUS
 10
-102.427665
 20
10.52162
 11
-103.82162
 21
9.127665
  0
LINE
  8
ガラス
  6
CONTINUOUS
 10
-101.70963
 20
9.803585
 11
-103.103585
 21
8.40963
  0
LINE
  8
ガラス
  6
CONTINUOUS
 10
-73.157432
 20
11.401943
 11
-77.030068
 21
7.529307
  0
LINE
  8
ガラス
  6
CONTINUOUS
 10
-74.75579
 20
10.52162
 11
-76.149745
 21
9.127665
  0
LINE
  8
ガラス
  6
CONTINUOUS
 10
-74.037755
 20
9.803585
 11
-75.43171
 21
8.40963
  0
LINE
  8
ガラス
  6
CONTINUOUS
 10
-52.379307
 20
56.442568
 11
-56.251943
 21
52.569932
  0
LINE
  8
ガラス
  6
CONTINUOUS
 10
-53.977665
 20
55.562245
 11
-55.37162
 21
54.16829
  0
LINE
  8
ガラス
  6
CONTINUOUS
 10
-53.25963
 20
54.84421
 11
-54.653585
 21
53.450255
  0
LINE
  8
ガラス
  6
CONTINUOUS
 10
-52.379307
 20
30.833193
 11
-56.251943
 21
26.960557
  0
LINE
  8
ガラス
  6
CONTINUOUS
 10
-53.977665
 20
29.95287
 11
-55.37162
 21
28.558915
  0
LINE
  8
ガラス
  6
CONTINUOUS
 10
-53.25963
 20
29.234835
 11
-54.653585
 21
27.84088
  0
LINE
  8
ガラス
  6
CONTINUOUS
 10
-118.379307
 20
56.442568
 11
-122.251943
 21
52.569932
  0
LINE
  8
ガラス
  6
CONTINUOUS
 10
-119.977665
 20
55.562245
 11
-121.37162
 21
54.16829
  0
LINE
  8
ガラス
  6
CONTINUOUS
 10
-119.25963
 20
54.84421
 11
-120.653585
 21
53.450255
  0
LINE
  8
ガラス
  6
CONTINUOUS
 10
-118.379307
 20
30.833193
 11
-122.251943
 21
26.960557
  0
LINE
  8
ガラス
  6
CONTINUOUS
 10
-119.977665
 20
29.95287
 11
-121.37162
 21
28.558915
  0
LINE
  8
ガラス
  6
CONTINUOUS
 10
-119.25963
 20
29.234835
 11
-120.653585
 21
27.84088
  0
LINE
  8
ガラス
  6
CONTINUOUS
 10
-100.780945
 20
-85.110778
 11
-104.65358
 21
-88.983413
  0
LINE
  8
ガラス
  6
CONTINUOUS
 10
-101.661268
 20
-86.709135
 11
-103.055223
 21
-88.10309
  0
LINE
  8
ガラス
  6
CONTINUOUS
 10
-102.379302
 20
-85.9911
 11
-103.773258
 21
-87.385055
  0
LINE
  8
ガラス
  6
CONTINUOUS
 10
-69.288682
 20
-85.110778
 11
-73.161318
 21
-88.983413
  0
LINE
  8
ガラス
  6
CONTINUOUS
 10
-70.169005
 20
-86.709135
 11
-71.56296
 21
-88.10309
  0
LINE
  8
ガラス
  6
CONTINUOUS
 10
-70.88704
 20
-85.9911
 11
-72.280995
 21
-87.385055
  0
LINE
  8
ガラス
  6
CONTINUOUS
 10
91.155697
 20
-85.110778
 11
87.283063
 21
-88.983413
  0
LINE
  8
ガラス
  6
CONTINUOUS
 10
90.275375
 20
-86.709135
 11
88.88142
 21
-88.10309
  0
LINE
  8
ガラス
  6
CONTINUOUS
 10
89.55734
 20
-85.9911
 11
88.163385
 21
-87.385055
  0
LINE
  8
ガラス
  6
CONTINUOUS
 10
122.64796
 20
-85.110778
 11
118.775325
 21
-88.983413
  0
LINE
  8
ガラス
  6
CONTINUOUS
 10
121.767637
 20
-86.709135
 11
120.373683
 21
-88.10309
  0
LINE
  8
ガラス
  6
CONTINUOUS
 10
121.049603
 20
-85.9911
 11
119.655647
 21
-87.385055
  0
TEXT
  7
TextStyle03
  8
文字
  6
CONTINUOUS
 10
14.825
 20
4.65
  1
は排水穴位置を示す
 40
3.0
 72
     5
 11
44.825
 21
4.65
  0
TEXT
  7
TextStyle03
  8
文字
  6
CONTINUOUS
 10
14.825
 20
-3.2
  1
はケーシング位置を示す
 40
3.0
 72
     5
 11
51.575
 21
-3.2
  0
TEXT
  7
TextStyle03
  8
文字
  6
CONTINUOUS
 10
14.825
 20
-6.575
  1
４ヶ所中1ヶ所に設定
 40
3.0
 72
     5
 11
46.5125
 21
-6.575
  0
TEXT
  7
TextStyle03
  8
文字
  6
CONTINUOUS
 10
9.225
 20
-13.725
  1
アンカー数量　１２ヶ所
 40
3.0
 72
     5
 11
45.975
 21
-13.725
  0
TEXT
  7
TextStyle03
  8
文字
  6
CONTINUOUS
 10
66.325
 20
95.525
  1
ＮＳコード：ＮＳ４ＣＺ
 40
5.0
 72
     5
 11
127.575
 21
95.525
  0
TEXT
  7
TextStyle03
  8
文字
  6
CONTINUOUS
 10
9.15
 20
-20.575
  1
アームユニット数　４ヶ所
 40
3.0
 72
     5
 11
49.275
 21
-20.575
  0
TEXT
  7
TextStyle03
  8
文字
  6
CONTINUOUS
 10
-33.15
 20
11.125
  1
ﾊﾞﾗﾝｽｽﾃｰ
 40
3.0
 72
     5
 11
-19.8375
 21
11.125
  0
TEXT
  7
TextStyle03
  8
文字
  6
CONTINUOUS
 10
-155.6625
 20
78.25
  1
ﾊﾞﾗﾝｽｽﾃｰ
 40
3.0
 50
360.0
 72
     5
 11
-142.35
 21
78.25
  0
TEXT
  7
TextStyle03
  8
文字
  6
CONTINUOUS
 10
-165.725
 20
-17.35
  1
アンカーピッチ
 40
3.0
 50
90.0
 72
     5
 11
-165.725
 21
5.9
  0
TEXT
  7
TextStyle03
  8
文字
  6
CONTINUOUS
 10
-96.05
 20
-19.5
  1
可動装置側
 40
3.0
 72
     5
 11
-79.55
 21
-19.5
  0
TEXT
  7
TextStyle03
  8
文字
  6
CONTINUOUS
 10
-96.05
 20
101.8
  1
可動装置側
 40
3.0
 72
     5
 11
-79.55
 21
101.8
  0
TEXT
  7
TextStyle03
  8
文字
  6
CONTINUOUS
 10
-150.0
 20
119.15
  1
アンカーピッチ
 40
3.0
 72
     5
 11
-126.75
 21
119.15
  0
TEXT
  7
TextStyle03
  8
文字
  6
CONTINUOUS
 10
66.625
 20
117.825
  1
シリーズ：ＴＦ２４
 40
5.0
 72
     5
 11
116.625
 21
117.825
  0
TEXT
  7
TextStyle03
  8
文字
  6
CONTINUOUS
 10
66.625
 20
112.2
  1
　　　　　四角錘（上下可動）1800×1800タイプ
 40
5.0
 72
     5
 11
189.75
 21
112.2
  0
TEXT
  7
TextStyle03
  8
文字
  6
CONTINUOUS
 10
66.625
 20
106.575
  1
図面名　：外観姿図
 40
5.0
 72
     5
 11
116.625
 21
106.575
  0
TEXT
  7
TextStyle03
  8
文字
  6
CONTINUOUS
 10
66.625
 20
100.95
  1
　　　　　　
 40
5.0
 72
     5
 11
99.75
 21
100.95
  0
TEXT
  7
TextStyle03
  8
文字
  6
CONTINUOUS
 10
107.325
 20
57.75
  1
ガラス寸法
 40
3.0
 72
     5
 11
123.825
 21
57.75
  0
TEXT
  7
TextStyle03
  8
文字
  6
CONTINUOUS
 10
125.825
 20
6.675
  1
本図×４枚
 40
3.0
 72
     5
 11
142.325
 21
6.675
  0
TEXT
  7
TextStyle03
  8
文字
  6
CONTINUOUS
 10
125.825
 20
3.3
  1
逆図×４枚
 40
3.0
 72
     5
 11
142.325
 21
3.3
  0
INSERT
  2
*DIM_0003
  8
寸法
  6
CONTINUOUS
 10
0.0
 20
0.0
  0
INSERT
  2
*GRP_0002
  8
寸法
  6
CONTINUOUS
 10
0.0
 20
0.0
  0
INSERT
  2
*DIM_0005
  8
寸法
  6
CONTINUOUS
 10
0.0
 20
0.0
  0
INSERT
  2
*DIM_0006
  8
寸法
  6
CONTINUOUS
 10
0.0
 20
0.0
  0
INSERT
  2
*GRP_0004
  8
寸法
  6
CONTINUOUS
 10
0.0
 20
0.0
  0
INSERT
  2
*DIM_0007
  8
寸法
  6
CONTINUOUS
 10
0.0
 20
0.0
  0
INSERT
  2
*DIM_0008
  8
寸法
  6
CONTINUOUS
 10
0.0
 20
0.0
  0
INSERT
  2
*DIM_0009
  8
寸法
  6
CONTINUOUS
 10
0.0
 20
0.0
  0
INSERT
  2
*DIM_0010
  8
寸法
  6
CONTINUOUS
 10
0.0
 20
0.0
  0
INSERT
  2
*DIM_0011
  8
寸法
  6
CONTINUOUS
 10
0.0
 20
0.0
  0
INSERT
  2
*DIM_0012
  8
寸法
  6
CONTINUOUS
 10
0.0
 20
0.0
  0
INSERT
  2
*DIM_0013
  8
寸法
  6
CONTINUOUS
 10
0.0
 20
0.0
  0
INSERT
  2
*DIM_0014
  8
寸法
  6
CONTINUOUS
 10
0.0
 20
0.0
  0
INSERT
  2
*DIM_0015
  8
寸法
  6
CONTINUOUS
 10
0.0
 20
0.0
  0
INSERT
  2
*DIM_0016
  8
寸法
  6
CONTINUOUS
 10
0.0
 20
0.0
  0
INSERT
  2
*DIM_0018
  8
寸法
  6
CONTINUOUS
 10
0.0
 20
0.0
  0
INSERT
  2
*DIM_0023
  8
寸法
  6
CONTINUOUS
 10
0.0
 20
0.0
  0
INSERT
  2
*DIM_0024
  8
寸法
  6
CONTINUOUS
 10
0.0
 20
0.0
  0
INSERT
  2
*GRP_0017
  8
曲げ物
  6
DOT
 10
0.0
 20
0.0
  0
LINE
  8
曲げ物
  6
CONTINUOUS
 10
100.89035
 20
-0.56227
 11
147.40535
 21
65.21959
  0
LINE
  8
曲げ物
  6
CONTINUOUS
 10
100.89035
 20
-0.56227
 11
147.40535
 21
-0.56227
  0
LINE
  8
曲げ物
  6
CONTINUOUS
 10
147.40535
 20
65.21959
 11
147.40535
 21
-0.56227
  0
ENDSEC
  0
EOF
