  0
SECTION
  2
HEADER
  9
$EXTMIN
 10
-210.0
 20
-148.5
  9
$EXTMAX
 10
210.0
 20
148.5
  9
$PDMODE
 70
    32
  9
$PDSIZE
 40
1.5
  9
$LTSCALE
 40
10.0
  0
ENDSEC
  0
SECTION
  2
TABLES
  0
TABLE
  2
LTYPE
 70
    15
  0
LTYPE
  2
CONTINUOUS
 70
    64
  3
実線
 72
    65
 73
     0
 40
0.0
  0
LTYPE
  2
DASHED
 70
    64
  3
破線A
 72
    65
 73
     2
 40
0.6
 49
0.4
 49
-0.2
  0
LTYPE
  2
DASHEDX2
 70
    64
  3
破線B
 72
    65
 73
     2
 40
1.3
 49
0.9
 49
-0.4
  0
LTYPE
  2
DASHDOT
 70
    64
  3
１点鎖線A
 72
    65
 73
     4
 40
0.5375
 49
0.375
 49
-0.05
 49
0.0625
 49
-0.05
  0
LTYPE
  2
DASHDOTX2
 70
    64
  3
１点鎖線B
 72
    65
 73
     4
 40
1.075
 49
0.75
 49
-0.1
 49
0.125
 49
-0.1
  0
LTYPE
  2
DIVIDE2
 70
    64
  3
２点鎖線A
 72
    65
 73
     6
 40
0.5125
 49
0.3
 49
-0.0375
 49
0.05
 49
-0.0375
 49
0.05
 49
-0.0375
  0
LTYPE
  2
DIVIDE
 70
    64
  3
２点鎖線B
 72
    65
 73
     6
 40
1.05
 49
0.55
 49
-0.1
 49
0.1
 49
-0.1
 49
0.1
 49
-0.1
  0
LTYPE
  2
DOT
 70
    64
  3
点線A
 72
    65
 73
     2
 40
0.1125
 49
0.0625
 49
-0.05
  0
LTYPE
  2
DOTX2
 70
    64
  3
点線B
 72
    65
 73
     2
 40
0.275
 49
0.15
 49
-0.125
  0
LTYPE
  2
CONTINUOUS
 70
    64
  3
実線
 72
    65
 73
     0
 40
0.0
  0
LTYPE
  2
CONTINUOUS
 70
    64
  3
実線
 72
    65
 73
     0
 40
0.0
  0
LTYPE
  2
CONTINUOUS
 70
    64
  3
実線
 72
    65
 73
     0
 40
0.0
  0
LTYPE
  2
CONTINUOUS
 70
    64
  3
実線
 72
    65
 73
     0
 40
0.0
  0
LTYPE
  2
CONTINUOUS
 70
    64
  3
実線
 72
    65
 73
     0
 40
0.0
  0
LTYPE
  2
CONTINUOUS
 70
    64
  3
実線
 72
    65
 73
     0
 40
0.0
  0
ENDTAB
  0
TABLE
  2
LAYER
 70
    34
  0
LAYER
  2
通り芯
 70
     0
 62
    15
  6
CONTINUOUS
  0
LAYER
  2
補助線
 70
     0
 62
    16
  6
DOT
  0
LAYER
  2
躯体
 70
     0
 62
    31
  6
CONTINUOUS
  0
LAYER
  2
型材
 70
     0
 62
    32
  6
CONTINUOUS
  0
LAYER
  2
型材断面
 70
     0
 62
    47
  6
CONTINUOUS
  0
LAYER
  2
ガラス
 70
     0
 62
    48
  6
CONTINUOUS
  0
LAYER
  2
ゴム等
 70
     0
 62
    63
  6
CONTINUOUS
  0
LAYER
  2
ボルト／ビス
 70
     0
 62
    64
  6
CONTINUOUS
  0
LAYER
  2
文字
 70
     0
 62
    79
  6
CONTINUOUS
  0
LAYER
  2
寸法
 70
     0
 62
    80
  6
CONTINUOUS
  0
LAYER
  2
ﾊｯﾁﾝｸﾞ
 70
     0
 62
    95
  6
CONTINUOUS
  0
LAYER
  2
別途部材
 70
     0
 62
    96
  6
CONTINUOUS
  0
LAYER
  2
曲げ物
 70
     0
 62
   111
  6
CONTINUOUS
  0
LAYER
  2
鉄骨等
 70
     0
 62
   112
  6
CONTINUOUS
  0
LAYER
  2
St
 70
     0
 62
   127
  6
CONTINUOUS
  0
LAYER
  2
その他部品等
 70
     0
 62
   128
  6
CONTINUOUS
  0
LAYER
  2
ｶﾞｽｹｯﾄ
 70
     0
 62
   143
  6
CONTINUOUS
  0
LAYER
  2
ｽｹｯﾁ
 70
     0
 62
    14
  6
CONTINUOUS
  0
LAYER
  2
0
 70
     0
 62
    17
  6
CONTINUOUS
  0
LAYER
  2
1
 70
     0
 62
    30
  6
CONTINUOUS
  0
LAYER
  2
4
 70
     0
 62
    33
  6
CONTINUOUS
  0
LAYER
  2
ﾚｲﾔ3
 70
     0
 62
    46
  6
CONTINUOUS
  0
LAYER
  2
外形線
 70
     0
 62
    49
  6
CONTINUOUS
  0
LAYER
  2
部品
 70
     0
 62
    14
  6
CONTINUOUS
  0
LAYER
  2
サッシ芯
 70
     0
 62
    17
  6
DASHDOTX2
  0
LAYER
  2
寸法線
 70
     0
 62
    62
  6
CONTINUOUS
  0
LAYER
  2
姿図外形線
 70
     0
 62
    65
  6
CONTINUOUS
  0
LAYER
  2
姿補助線
 70
     0
 62
    30
  6
CONTINUOUS
  0
LAYER
  2
透視線
 70
     0
 62
    78
  6
DOT
  0
LAYER
  2
用紙
 70
     0
 62
    81
  6
CONTINUOUS
  0
LAYER
  2
実線図枠
 70
     0
 62
    94
  6
CONTINUOUS
  0
LAYER
  2
補助図枠
 70
     0
 62
    97
  6
CONTINUOUS
  0
LAYER
  2
建具記号
 70
     0
 62
   110
  6
CONTINUOUS
  0
LAYER
  2
補助文字
 70
     0
 62
   113
  6
CONTINUOUS
  0
ENDTAB
  0
TABLE
  2
STYLE
 70
    10
  0
STYLE
  2
STANDARD
 70
     0
 40
1.0
 41
1.0
 42
1.0
 50
0.0
 71
     0
  3
TXT
  4
BIGFONT
  0
STYLE
  2
TATE
 70
     4
 40
1.0
 41
1.0
 42
1.0
 50
0.0
 71
     0
  3
TXT
  4
BIGFONT
  0
STYLE
  2
TextStyle03
 70
     0
 40
1.0
 41
1.0
 42
1.0
 50
0.0
 71
     0
  3
MONOTXT
  4
BIGFONT
  0
STYLE
  2
TextStyle04
 70
     0
 40
1.0
 41
1.0
 42
1.0
 50
0.0
 71
     0
  3
MONOTXT
  4
BIGFONT
  0
STYLE
  2
TextStyle05
 70
     0
 40
1.0
 41
1.0
 42
1.0
 50
0.0
 71
     0
  3
MONOTXT
  4
BIGFONT
  0
STYLE
  2
TextStyle06
 70
     0
 40
1.0
 41
1.0
 42
1.0
 50
0.0
 71
     0
  3
MONOTXT
  4
BIGFONT
  0
STYLE
  2
TextStyle07
 70
     0
 40
1.0
 41
1.0
 42
1.0
 50
0.0
 71
     0
  3
MONOTXT
  4
BIGFONT
  0
STYLE
  2
TextStyle08
 70
     0
 40
1.0
 41
1.0
 42
1.0
 50
0.0
 71
     0
  3
MONOTXT
  4
BIGFONT
  0
STYLE
  2
TextStyle09
 70
     0
 40
1.0
 41
1.0
 42
1.0
 50
0.0
 71
     0
  3
MONOTXT
  4
BIGFONT
  0
STYLE
  2
TextStyle10
 70
     0
 40
1.0
 41
1.0
 42
1.0
 50
0.0
 71
     0
  3
MONOTXT
  4
BIGFONT
  0
ENDTAB
  0
ENDSEC
  0
SECTION
  2
BLOCKS
  0
BLOCK
  2
*GRP_0001
 70
    65
 10
0.0
 20
0.0
  0
LINE
  8
型材断面
  6
CONTINUOUS
 10
195.0
 20
133.5
 11
195.0
 21
-133.5
  0
LINE
  8
型材断面
  6
CONTINUOUS
 10
195.0
 20
-133.5
 11
-185.0
 21
-133.5
  0
LINE
  8
型材断面
  6
CONTINUOUS
 10
-185.0
 20
-133.5
 11
-185.0
 21
133.5
  0
LINE
  8
型材断面
  6
CONTINUOUS
 10
195.0
 20
133.5
 11
-185.0
 21
133.5
  0
LINE
  8
型材断面
  6
CONTINUOUS
 10
145.0
 20
-133.5
 11
145.0
 21
-118.5
  0
LINE
  8
型材断面
  6
CONTINUOUS
 10
195.0
 20
-118.5
 11
145.0
 21
-118.5
  0
ENDBLK
  0
BLOCK
  2
*DIM_0002
 70
    65
 10
0.0
 20
0.0
  0
LINE
  8
寸法
  6
BYBLOCK
 62
     0
 10
-41.775185
 20
-99.724968
 11
-16.504388
 21
-99.724968
  0
LINE
  8
寸法
  6
BYBLOCK
 62
     0
 10
-38.899982
 20
-90.599892
 11
-16.504388
 21
-90.599892
  0
LINE
  8
寸法
  6
BYBLOCK
 62
     0
 10
-16.504388
 20
-99.724968
 11
-16.504388
 21
-90.599892
  0
POINT
  8
寸法
 62
     0
 10
-16.504388
 20
-99.724968
  0
POINT
  8
寸法
 62
     0
 10
-16.504388
 20
-90.599892
  0
TEXT
  7
TextStyle03
  8
寸法
  6
CONTINUOUS
 62
     0
 10
-16.9
 20
-99.3
  1
182.5
 40
3.0
 50
90.0
 72
     5
 11
-16.9
 21
-91.05
  0
ENDBLK
  0
BLOCK
  2
*DIM_0003
 70
    65
 10
0.0
 20
0.0
  0
LINE
  8
寸法
  6
BYBLOCK
 62
     0
 10
-92.875187
 20
-56.197893
 11
-92.875187
 21
-39.858248
  0
LINE
  8
寸法
  6
BYBLOCK
 62
     0
 10
-82.625183
 20
-56.197893
 11
-82.625183
 21
-39.858248
  0
LINE
  8
寸法
  6
BYBLOCK
 62
     0
 10
-92.875187
 20
-39.858248
 11
-82.625183
 21
-39.858248
  0
POINT
  8
寸法
 62
     0
 10
-92.875187
 20
-39.858248
  0
POINT
  8
寸法
 62
     0
 10
-82.625183
 20
-39.858248
  0
TEXT
  7
TextStyle03
  8
寸法
  6
CONTINUOUS
 62
     0
 10
-90.2125
 20
-39.475
  1
205
 40
3.0
 72
     5
 11
-85.3375
 21
-39.475
  0
ENDBLK
  0
BLOCK
  2
*DIM_0004
 70
    65
 10
0.0
 20
0.0
  0
LINE
  8
寸法
  6
BYBLOCK
 62
     0
 10
-73.25809
 20
-52.072895
 11
-72.536697
 21
-52.072895
  0
LINE
  8
寸法
  6
BYBLOCK
 62
     0
 10
-81.625183
 20
-57.197893
 11
-72.536697
 21
-57.197893
  0
LINE
  8
寸法
  6
BYBLOCK
 62
     0
 10
-72.536697
 20
-52.072895
 11
-72.536697
 21
-57.197893
  0
POINT
  8
寸法
 62
     0
 10
-72.536697
 20
-52.072895
  0
POINT
  8
寸法
 62
     0
 10
-72.536697
 20
-57.197893
  0
TEXT
  7
TextStyle03
  8
寸法
  6
CONTINUOUS
 62
     0
 10
-69.55
 20
-58.75
  1
102.5
 40
3.0
 50
90.0
 72
     5
 11
-69.55
 21
-50.5
  0
ENDBLK
  0
BLOCK
  2
*DIM_0005
 70
    65
 10
0.0
 20
0.0
  0
LINE
  8
寸法
  6
BYBLOCK
 62
     0
 10
-84.750185
 20
-52.072895
 11
-16.504388
 21
-52.072895
  0
LINE
  8
寸法
  6
BYBLOCK
 62
     0
 10
-16.504388
 20
-90.599892
 11
-16.504388
 21
-52.072895
  0
POINT
  8
寸法
 62
     0
 10
-16.504388
 20
-90.599892
  0
POINT
  8
寸法
 62
     0
 10
-16.504388
 20
-52.072895
  0
TEXT
  7
TextStyle03
  8
寸法
  6
CONTINUOUS
 62
     0
 10
-16.9
 20
-75.475
  1
770.5
 40
3.0
 50
90.0
 72
     5
 11
-16.9
 21
-67.225
  0
ENDBLK
  0
BLOCK
  2
*DIM_0006
 70
    65
 10
0.0
 20
0.0
  0
LINE
  8
寸法
  6
BYBLOCK
 62
     0
 10
-49.399982
 20
-87.599892
 11
-49.399982
 21
-29.584217
  0
LINE
  8
寸法
  6
BYBLOCK
 62
     0
 10
-55.250185
 20
-29.584217
 11
-49.399982
 21
-29.584217
  0
POINT
  8
寸法
 62
     0
 10
-49.399982
 20
-29.584217
  0
TEXT
  7
TextStyle03
  8
寸法
  6
CONTINUOUS
 62
     0
 10
-54.7875
 20
-29.225
  1
117
 40
3.0
 72
     5
 11
-49.9125
 21
-29.225
  0
ENDBLK
  0
BLOCK
  2
*DIM_0007
 70
    65
 10
0.0
 20
0.0
  0
LINE
  8
寸法
  6
BYBLOCK
 62
     0
 10
-126.100388
 20
-87.599892
 11
-126.100388
 21
-29.584217
  0
LINE
  8
寸法
  6
BYBLOCK
 62
     0
 10
-120.250185
 20
-29.584217
 11
-126.100388
 21
-29.584217
  0
POINT
  8
寸法
 62
     0
 10
-120.250185
 20
-29.584217
  0
POINT
  8
寸法
 62
     0
 10
-126.100388
 20
-29.584217
  0
TEXT
  7
TextStyle03
  8
寸法
  6
CONTINUOUS
 62
     0
 10
-125.6375
 20
-29.225
  1
117
 40
3.0
 72
     5
 11
-120.7625
 21
-29.225
  0
ENDBLK
  0
BLOCK
  2
*DIM_0008
 70
    65
 10
0.0
 20
0.0
  0
LINE
  8
寸法
  6
BYBLOCK
 62
     0
 10
-120.250185
 20
-29.584217
 11
-55.250185
 21
-29.584217
  0
POINT
  8
寸法
 62
     0
 10
-120.250185
 20
-29.584217
  0
POINT
  8
寸法
 62
     0
 10
-55.250185
 20
-29.584217
  0
TEXT
  7
TextStyle03
  8
寸法
  6
CONTINUOUS
 62
     0
 10
-99.49375
 20
-29.225
  1
呼称寸法＝1300
 40
3.0
 72
     5
 11
-76.05625
 21
-29.225
  0
ENDBLK
  0
BLOCK
  2
*DIM_0009
 70
    65
 10
0.0
 20
0.0
  0
LINE
  8
寸法
  6
BYBLOCK
 62
     0
 10
-54.250185
 20
74.895463
 11
-33.700757
 21
74.895463
  0
LINE
  8
寸法
  6
BYBLOCK
 62
     0
 10
-46.22631
 20
69.345463
 11
-33.700757
 21
69.345463
  0
LINE
  8
寸法
  6
BYBLOCK
 62
     0
 10
-33.700757
 20
74.895463
 11
-33.700757
 21
69.345463
  0
POINT
  8
寸法
 62
     0
 10
-33.700757
 20
74.895463
  0
POINT
  8
寸法
 62
     0
 10
-33.700757
 20
69.345463
  0
TEXT
  7
TextStyle03
  8
寸法
  6
CONTINUOUS
 62
     0
 10
-34.075
 20
69.6875
  1
111
 40
3.0
 50
90.0
 72
     5
 11
-34.075
 21
74.5625
  0
ENDBLK
  0
BLOCK
  2
*DIM_0010
 70
    65
 10
0.0
 20
0.0
  0
LINE
  8
寸法
  6
BYBLOCK
 62
     0
 10
-54.250185
 20
9.895457
 11
-33.700757
 21
9.895457
  0
LINE
  8
寸法
  6
BYBLOCK
 62
     0
 10
-46.22631
 20
15.445457
 11
-33.700757
 21
15.445457
  0
LINE
  8
寸法
  6
BYBLOCK
 62
     0
 10
-33.700757
 20
9.895457
 11
-33.700757
 21
15.445457
  0
POINT
  8
寸法
 62
     0
 10
-33.700757
 20
9.895457
  0
POINT
  8
寸法
 62
     0
 10
-33.700757
 20
15.445457
  0
TEXT
  7
TextStyle03
  8
寸法
  6
CONTINUOUS
 62
     0
 10
-34.075
 20
10.2375
  1
111
 40
3.0
 50
90.0
 72
     5
 11
-34.075
 21
15.1125
  0
ENDBLK
  0
BLOCK
  2
*GRP_0011
 70
    65
 10
0.0
 20
0.0
  0
POLYLINE
  8
寸法
  6
BYBLOCK
 62
     0
 66
     1
  0
VERTEX
  8
寸法
 10
-59.463782
 20
36.179433
  0
VERTEX
  8
寸法
 10
-53.04728
 20
29.76293
  0
VERTEX
  8
寸法
 10
-47.140153
 20
29.76293
  0
SEQEND
  0
ENDBLK
  0
BLOCK
  2
*DIM_0012
 70
    65
 10
0.0
 20
0.0
  0
LINE
  8
寸法
  6
BYBLOCK
 62
     0
 10
-105.250185
 20
97.763895
 11
-105.250185
 21
108.119433
  0
LINE
  8
寸法
  6
BYBLOCK
 62
     0
 10
-70.250185
 20
97.763895
 11
-70.250185
 21
108.119433
  0
LINE
  8
寸法
  6
BYBLOCK
 62
     0
 10
-105.250185
 20
108.119433
 11
-70.250185
 21
108.119433
  0
POINT
  8
寸法
 62
     0
 10
-105.250185
 20
108.119433
  0
POINT
  8
寸法
 62
     0
 10
-70.250185
 20
108.119433
  0
TEXT
  7
TextStyle03
  8
寸法
  6
CONTINUOUS
 62
     0
 10
-90.1875
 20
108.475
  1
700
 40
3.0
 72
     5
 11
-85.3125
 21
108.475
  0
ENDBLK
  0
BLOCK
  2
*DIM_0013
 70
    65
 10
0.0
 20
0.0
  0
LINE
  8
寸法
  6
BYBLOCK
 62
     0
 10
-148.39862
 20
59.895463
 11
-158.754158
 21
59.895463
  0
LINE
  8
寸法
  6
BYBLOCK
 62
     0
 10
-148.398622
 20
24.895463
 11
-158.75416
 21
24.895463
  0
LINE
  8
寸法
  6
BYBLOCK
 62
     0
 10
-158.754158
 20
59.895463
 11
-158.75416
 21
24.895463
  0
POINT
  8
寸法
 62
     0
 10
-158.754158
 20
59.895463
  0
POINT
  8
寸法
 62
     0
 10
-158.75416
 20
24.895463
  0
TEXT
  7
TextStyle03
  8
寸法
  6
CONTINUOUS
 62
     0
 10
-159.125
 20
39.9375
  1
700
 40
3.0
 50
90.0
 72
     5
 11
-159.125
 21
44.8125
  0
ENDBLK
  0
BLOCK
  2
*GRP_0014
 70
    65
 10
0.0
 20
0.0
  0
LINE
  8
型材断面
  6
DOT
 10
69.416937
 20
-94.800562
 11
69.78258
 21
-95.796205
  0
LINE
  8
型材断面
  6
DOT
 10
69.78258
 20
-95.796205
 11
69.36258
 21
-96.70373
  0
LINE
  8
型材断面
  6
DOT
 10
69.36258
 20
-96.70373
 11
68.366937
 21
-97.069373
  0
LINE
  8
型材断面
  6
DOT
 10
25.40202
 20
-74.43056
 11
69.416937
 21
-94.800562
  0
LINE
  8
型材断面
  6
DOT
 10
24.406375
 20
-74.796202
 11
25.40202
 21
-74.43056
  0
LINE
  8
型材断面
  6
DOT
 10
24.406375
 20
-74.796202
 11
23.986375
 21
-75.703727
  0
LINE
  8
型材断面
  6
DOT
 10
24.35202
 20
-76.69937
 11
68.366937
 21
-97.069373
  0
LINE
  8
型材断面
  6
DOT
 10
23.986375
 20
-75.703727
 11
24.35202
 21
-76.69937
  0
INSERT
  2
*GRP_0016
  8
ボルト／ビス
  6
DOT
 62
    64
 10
0.0
 20
0.0
  0
INSERT
  2
*GRP_0017
  8
ボルト／ビス
  6
DOT
 62
    64
 10
0.0
 20
0.0
  0
INSERT
  2
*GRP_0018
  8
ボルト／ビス
  6
DOT
 62
    64
 10
0.0
 20
0.0
  0
ENDBLK
  0
BLOCK
  2
*GRP_0015
 70
    65
 10
0.0
 20
0.0
  0
LINE
  8
型材断面
  6
DOT
 10
24.352017
 20
-94.800562
 11
23.986375
 21
-95.796205
  0
LINE
  8
型材断面
  6
DOT
 10
23.986375
 20
-95.796205
 11
24.406375
 21
-96.70373
  0
LINE
  8
型材断面
  6
DOT
 10
24.406375
 20
-96.70373
 11
25.402017
 21
-97.069373
  0
LINE
  8
型材断面
  6
DOT
 10
68.366935
 20
-74.43056
 11
24.352017
 21
-94.800562
  0
LINE
  8
型材断面
  6
DOT
 10
69.36258
 20
-74.796202
 11
68.366935
 21
-74.43056
  0
LINE
  8
型材断面
  6
DOT
 10
69.36258
 20
-74.796202
 11
69.78258
 21
-75.703727
  0
LINE
  8
型材断面
  6
DOT
 10
69.416935
 20
-76.69937
 11
25.402017
 21
-97.069373
  0
LINE
  8
型材断面
  6
DOT
 10
69.78258
 20
-75.703727
 11
69.416935
 21
-76.69937
  0
INSERT
  2
*GRP_0019
  8
ボルト／ビス
  6
DOT
 62
    64
 10
0.0
 20
0.0
  0
INSERT
  2
*GRP_0020
  8
ボルト／ビス
  6
DOT
 62
    64
 10
0.0
 20
0.0
  0
INSERT
  2
*GRP_0021
  8
ボルト／ビス
  6
DOT
 62
    64
 10
0.0
 20
0.0
  0
ENDBLK
  0
BLOCK
  2
*GRP_0016
 70
    65
 10
0.0
 20
0.0
  0
INSERT
  2
*GRP_0022
  8
補助線
  6
DOT
 62
    64
 10
0.0
 20
0.0
  0
LINE
  8
ボルト／ビス
  6
DOT
 62
    64
 10
25.52477
 20
-75.355797
 11
25.064765
 21
-75.397383
  0
LINE
  8
ボルト／ビス
  6
DOT
 62
    64
 10
25.52477
 20
-75.355797
 11
25.790785
 21
-75.733382
  0
LINE
  8
ボルト／ビス
  6
DOT
 62
    64
 10
25.136793
 20
-76.194132
 11
24.870778
 21
-75.81655
  0
LINE
  8
ボルト／ビス
  6
DOT
 62
    64
 10
25.136793
 20
-76.194132
 11
25.596795
 21
-76.15255
  0
CIRCLE
  8
ボルト／ビス
  6
DOT
 62
    64
 10
25.33078
 20
-75.774965
 40
0.4
  0
LINE
  8
ボルト／ビス
  6
DOT
 62
    64
 10
25.790785
 20
-75.733382
 11
25.596795
 21
-76.15255
  0
LINE
  8
ボルト／ビス
  6
DOT
 62
    64
 10
25.064765
 20
-75.397383
 11
24.870778
 21
-75.81655
  0
ENDBLK
  0
BLOCK
  2
*GRP_0017
 70
    65
 10
0.0
 20
0.0
  0
INSERT
  2
*GRP_0023
  8
補助線
  6
DOT
 62
    64
 10
0.0
 20
0.0
  0
LINE
  8
ボルト／ビス
  6
DOT
 62
    64
 10
68.632165
 20
-95.3058
 11
68.89818
 21
-95.683385
  0
LINE
  8
ボルト／ビス
  6
DOT
 62
    64
 10
68.632165
 20
-95.3058
 11
68.17216
 21
-95.347385
  0
LINE
  8
ボルト／ビス
  6
DOT
 62
    64
 10
68.244185
 20
-96.144135
 11
68.70419
 21
-96.10255
  0
LINE
  8
ボルト／ビス
  6
DOT
 62
    64
 10
68.244185
 20
-96.144135
 11
67.97817
 21
-95.76655
  0
CIRCLE
  8
ボルト／ビス
  6
DOT
 62
    64
 10
68.438175
 20
-95.724968
 40
0.4
  0
LINE
  8
ボルト／ビス
  6
DOT
 62
    64
 10
68.17216
 20
-95.347385
 11
67.97817
 21
-95.76655
  0
LINE
  8
ボルト／ビス
  6
DOT
 62
    64
 10
68.89818
 20
-95.683385
 11
68.70419
 21
-96.10255
  0
ENDBLK
  0
BLOCK
  2
*GRP_0018
 70
    65
 10
0.0
 20
0.0
  0
INSERT
  2
*GRP_0024
  8
補助線
  6
DOT
 62
    64
 10
0.0
 20
0.0
  0
LINE
  8
ボルト／ビス
  6
DOT
 62
    64
 10
47.078468
 20
-85.3308
 11
46.618462
 21
-85.372383
  0
LINE
  8
ボルト／ビス
  6
DOT
 62
    64
 10
47.078468
 20
-85.3308
 11
47.344483
 21
-85.708382
  0
LINE
  8
ボルト／ビス
  6
DOT
 62
    64
 10
46.690488
 20
-86.169132
 11
46.424473
 21
-85.79155
  0
LINE
  8
ボルト／ビス
  6
DOT
 62
    64
 10
46.690488
 20
-86.169132
 11
47.150492
 21
-86.12755
  0
CIRCLE
  8
ボルト／ビス
  6
DOT
 62
    64
 10
46.884477
 20
-85.749967
 40
0.4
  0
LINE
  8
ボルト／ビス
  6
DOT
 62
    64
 10
47.344483
 20
-85.708382
 11
47.150492
 21
-86.12755
  0
LINE
  8
ボルト／ビス
  6
DOT
 62
    64
 10
46.618462
 20
-85.372383
 11
46.424473
 21
-85.79155
  0
ENDBLK
  0
BLOCK
  2
*GRP_0019
 70
    65
 10
0.0
 20
0.0
  0
INSERT
  2
*GRP_0025
  8
補助線
  6
DOT
 62
    64
 10
0.0
 20
0.0
  0
LINE
  8
ボルト／ビス
  6
DOT
 62
    64
 10
68.244185
 20
-75.355797
 11
68.70419
 21
-75.397383
  0
LINE
  8
ボルト／ビス
  6
DOT
 62
    64
 10
68.244185
 20
-75.355797
 11
67.97817
 21
-75.733382
  0
LINE
  8
ボルト／ビス
  6
DOT
 62
    64
 10
68.632163
 20
-76.194132
 11
68.898178
 21
-75.81655
  0
LINE
  8
ボルト／ビス
  6
DOT
 62
    64
 10
68.632163
 20
-76.194132
 11
68.17216
 21
-76.15255
  0
CIRCLE
  8
ボルト／ビス
  6
DOT
 62
    64
 10
68.438175
 20
-75.774965
 40
0.4
  0
LINE
  8
ボルト／ビス
  6
DOT
 62
    64
 10
67.97817
 20
-75.733382
 11
68.17216
 21
-76.15255
  0
LINE
  8
ボルト／ビス
  6
DOT
 62
    64
 10
68.70419
 20
-75.397383
 11
68.898178
 21
-75.81655
  0
ENDBLK
  0
BLOCK
  2
*GRP_0020
 70
    65
 10
0.0
 20
0.0
  0
INSERT
  2
*GRP_0026
  8
補助線
  6
DOT
 62
    64
 10
0.0
 20
0.0
  0
LINE
  8
ボルト／ビス
  6
DOT
 62
    64
 10
25.13679
 20
-95.3058
 11
24.870775
 21
-95.683385
  0
LINE
  8
ボルト／ビス
  6
DOT
 62
    64
 10
25.13679
 20
-95.3058
 11
25.596795
 21
-95.347385
  0
LINE
  8
ボルト／ビス
  6
DOT
 62
    64
 10
25.52477
 20
-96.144135
 11
25.064765
 21
-96.10255
  0
LINE
  8
ボルト／ビス
  6
DOT
 62
    64
 10
25.52477
 20
-96.144135
 11
25.790785
 21
-95.76655
  0
CIRCLE
  8
ボルト／ビス
  6
DOT
 62
    64
 10
25.33078
 20
-95.724968
 40
0.4
  0
LINE
  8
ボルト／ビス
  6
DOT
 62
    64
 10
25.596795
 20
-95.347385
 11
25.790785
 21
-95.76655
  0
LINE
  8
ボルト／ビス
  6
DOT
 62
    64
 10
24.870775
 20
-95.683385
 11
25.064765
 21
-96.10255
  0
ENDBLK
  0
BLOCK
  2
*GRP_0021
 70
    65
 10
0.0
 20
0.0
  0
INSERT
  2
*GRP_0027
  8
補助線
  6
DOT
 62
    64
 10
0.0
 20
0.0
  0
LINE
  8
ボルト／ビス
  6
DOT
 62
    64
 10
46.690488
 20
-85.3308
 11
47.150492
 21
-85.372383
  0
LINE
  8
ボルト／ビス
  6
DOT
 62
    64
 10
46.690488
 20
-85.3308
 11
46.424473
 21
-85.708382
  0
LINE
  8
ボルト／ビス
  6
DOT
 62
    64
 10
47.078468
 20
-86.169132
 11
47.344483
 21
-85.79155
  0
LINE
  8
ボルト／ビス
  6
DOT
 62
    64
 10
47.078468
 20
-86.169132
 11
46.618462
 21
-86.12755
  0
CIRCLE
  8
ボルト／ビス
  6
DOT
 62
    64
 10
46.884477
 20
-85.749967
 40
0.4
  0
LINE
  8
ボルト／ビス
  6
DOT
 62
    64
 10
46.424473
 20
-85.708382
 11
46.618462
 21
-86.12755
  0
LINE
  8
ボルト／ビス
  6
DOT
 62
    64
 10
47.150492
 20
-85.372383
 11
47.344483
 21
-85.79155
  0
ENDBLK
  0
BLOCK
  2
*GRP_0022
 70
    65
 10
0.0
 20
0.0
  0
LINE
  8
補助線
  6
DOT
 62
    64
 10
25.444223
 20
-75.827465
 11
25.21734
 21
-75.722465
  0
LINE
  8
補助線
  6
DOT
 62
    64
 10
25.38328
 20
-75.661525
 11
25.27828
 21
-75.888405
  0
ENDBLK
  0
BLOCK
  2
*GRP_0023
 70
    65
 10
0.0
 20
0.0
  0
LINE
  8
補助線
  6
DOT
 62
    64
 10
68.324735
 20
-95.672468
 11
68.551615
 21
-95.777467
  0
LINE
  8
補助線
  6
DOT
 62
    64
 10
68.490675
 20
-95.611528
 11
68.385675
 21
-95.838407
  0
ENDBLK
  0
BLOCK
  2
*GRP_0024
 70
    65
 10
0.0
 20
0.0
  0
LINE
  8
補助線
  6
DOT
 62
    64
 10
46.997918
 20
-85.802467
 11
46.771038
 21
-85.697468
  0
LINE
  8
補助線
  6
DOT
 62
    64
 10
46.936977
 20
-85.636525
 11
46.831977
 21
-85.863407
  0
ENDBLK
  0
BLOCK
  2
*GRP_0025
 70
    65
 10
0.0
 20
0.0
  0
LINE
  8
補助線
  6
DOT
 62
    64
 10
68.324733
 20
-75.827465
 11
68.551615
 21
-75.722465
  0
LINE
  8
補助線
  6
DOT
 62
    64
 10
68.385675
 20
-75.661525
 11
68.490675
 21
-75.888405
  0
ENDBLK
  0
BLOCK
  2
*GRP_0026
 70
    65
 10
0.0
 20
0.0
  0
LINE
  8
補助線
  6
DOT
 62
    64
 10
25.44422
 20
-95.672468
 11
25.21734
 21
-95.777467
  0
LINE
  8
補助線
  6
DOT
 62
    64
 10
25.27828
 20
-95.611528
 11
25.38328
 21
-95.838407
  0
ENDBLK
  0
BLOCK
  2
*GRP_0027
 70
    65
 10
0.0
 20
0.0
  0
LINE
  8
補助線
  6
DOT
 62
    64
 10
46.771038
 20
-85.802467
 11
46.997918
 21
-85.697468
  0
LINE
  8
補助線
  6
DOT
 62
    64
 10
46.831977
 20
-85.636525
 11
46.936977
 21
-85.863407
  0
ENDBLK
  0
BLOCK
  2
*DIM_0028
 70
    65
 10
0.0
 20
0.0
  0
LINE
  8
寸法
  6
BYBLOCK
 62
     0
 10
79.598163
 20
-11.939517
 11
79.598163
 21
-25.844588
  0
LINE
  8
寸法
  6
BYBLOCK
 62
     0
 10
149.378162
 20
-11.939517
 11
149.378162
 21
-25.844588
  0
LINE
  8
寸法
  6
BYBLOCK
 62
     0
 10
79.598163
 20
-25.844588
 11
149.378162
 21
-25.844588
  0
POINT
  8
寸法
 62
     0
 10
79.598163
 20
-25.844588
  0
POINT
  8
寸法
 62
     0
 10
149.378162
 20
-25.844588
  0
TEXT
  7
TextStyle03
  8
寸法
  6
CONTINUOUS
 62
     0
 10
109.50625
 20
-25.475
  1
1395.6
 40
3.0
 72
     5
 11
119.44375
 21
-25.475
  0
ENDBLK
  0
BLOCK
  2
*DIM_0029
 70
    65
 10
0.0
 20
0.0
  0
LINE
  8
寸法
  6
BYBLOCK
 62
     0
 10
152.378162
 20
-8.939517
 11
164.534568
 21
-8.939517
  0
LINE
  8
寸法
  6
BYBLOCK
 62
     0
 10
117.488163
 20
40.402185
 11
164.534568
 21
40.402185
  0
LINE
  8
寸法
  6
BYBLOCK
 62
     0
 10
164.534568
 20
-8.939517
 11
164.534568
 21
40.402185
  0
POINT
  8
寸法
 62
     0
 10
164.534568
 20
-8.939517
  0
POINT
  8
寸法
 62
     0
 10
164.534568
 20
40.402185
  0
TEXT
  7
TextStyle03
  8
寸法
  6
CONTINUOUS
 62
     0
 10
164.15
 20
11.6
  1
986.8
 40
3.0
 50
90.0
 72
     5
 11
164.15
 21
19.85
  0
ENDBLK
  0
BLOCK
  2
*DIM_0030
 70
    65
 10
0.0
 20
0.0
  0
LINE
  8
寸法
  6
BYBLOCK
 62
     0
 10
82.938697
 20
-90.599892
 11
91.013495
 21
-90.599892
  0
LINE
  8
寸法
  6
BYBLOCK
 62
     0
 10
82.938697
 20
-74.599892
 11
91.013495
 21
-74.599892
  0
LINE
  8
寸法
  6
BYBLOCK
 62
     0
 10
91.013495
 20
-90.599892
 11
91.013495
 21
-74.599892
  0
POINT
  8
寸法
 62
     0
 10
91.013495
 20
-90.599892
  0
POINT
  8
寸法
 62
     0
 10
91.013495
 20
-74.599892
  0
TEXT
  7
TextStyle03
  8
寸法
  6
CONTINUOUS
 62
     0
 10
96.025
 20
-91.89375
  1
上昇258以上
 40
3.0
 50
90.0
 72
     5
 11
96.025
 21
-73.70625
  0
ENDBLK
  0
ENDSEC
  0
SECTION
  2
ENTITIES
  0
POLYLINE
  8
通り芯
  6
CONTINUOUS
 66
     1
 70
     1
  0
VERTEX
  8
通り芯
 10
-210.0
 20
-148.5
  0
VERTEX
  8
通り芯
 10
210.0
 20
-148.5
  0
VERTEX
  8
通り芯
 10
210.0
 20
148.5
  0
VERTEX
  8
通り芯
 10
-210.0
 20
148.5
  0
SEQEND
  0
INSERT
  2
*GRP_0001
  8
型材断面
  6
CONTINUOUS
 10
0.0
 20
0.0
  0
LINE
  8
型材断面
  6
CONTINUOUS
 10
-92.875185
 20
47.520463
 11
-87.750185
 21
47.520463
  0
LINE
  8
型材断面
  6
CONTINUOUS
 10
-92.875185
 20
47.520463
 11
-92.875185
 21
42.39546
  0
LINE
  8
型材断面
  6
CONTINUOUS
 10
-125.395158
 20
80.040432
 11
-125.395158
 21
76.392135
  0
LINE
  8
型材断面
  6
CONTINUOUS
 10
-125.395158
 20
80.040432
 11
-121.74686
 21
80.040432
  0
LINE
  8
型材断面
  6
CONTINUOUS
 10
-125.748712
 20
80.393988
 11
-125.748712
 21
76.038582
  0
LINE
  8
型材断面
  6
CONTINUOUS
 10
-125.748712
 20
76.038582
 11
-124.687218
 21
74.977088
  0
LINE
  8
型材断面
  6
CONTINUOUS
 10
-121.393305
 20
80.393985
 11
-120.331812
 21
79.332493
  0
LINE
  8
型材断面
  6
CONTINUOUS
 10
-125.748712
 20
80.393988
 11
-121.393307
 21
80.393988
  0
LINE
  8
型材断面
  6
CONTINUOUS
 10
-121.034148
 20
79.327722
 11
-87.750185
 21
79.327722
  0
LINE
  8
型材断面
  6
CONTINUOUS
 10
-126.100165
 20
80.745442
 11
-87.750185
 21
80.745442
  0
LINE
  8
型材断面
  6
CONTINUOUS
 10
-126.100165
 20
80.745442
 11
-126.100165
 21
42.39546
  0
LINE
  8
型材断面
  6
CONTINUOUS
 10
-124.682445
 20
75.679422
 11
-124.682445
 21
42.39546
  0
LINE
  8
型材断面
  6
DASHDOT
 10
-120.250185
 20
74.89546
 11
-87.750185
 21
74.89546
  0
LINE
  8
型材断面
  6
DASHDOT
 10
-120.250185
 20
74.89546
 11
-120.250185
 21
42.39546
  0
LINE
  8
型材断面
  6
DASHDOT
 10
-87.750185
 20
42.39546
 11
-120.250185
 21
42.39546
  0
LINE
  8
型材断面
  6
DASHDOT
 10
-87.750185
 20
42.39546
 11
-87.750185
 21
74.89546
  0
LINE
  8
型材断面
  6
CONTINUOUS
 10
-121.74686
 20
80.040432
 11
-89.226887
 21
47.520463
  0
LINE
  8
型材断面
  6
CONTINUOUS
 10
-125.395158
 20
76.392135
 11
-92.875185
 21
43.87216
  0
LINE
  8
型材断面
  6
CONTINUOUS
 10
-126.100165
 20
80.745442
 11
-87.750185
 21
42.39546
  0
LINE
  8
型材断面
  6
CONTINUOUS
 10
-82.625185
 20
47.520463
 11
-87.750185
 21
47.520463
  0
LINE
  8
型材断面
  6
CONTINUOUS
 10
-82.625185
 20
47.520463
 11
-82.625185
 21
42.39546
  0
LINE
  8
型材断面
  6
CONTINUOUS
 10
-50.105213
 20
80.040432
 11
-50.105213
 21
76.392135
  0
LINE
  8
型材断面
  6
CONTINUOUS
 10
-50.105213
 20
80.040432
 11
-53.75351
 21
80.040432
  0
LINE
  8
型材断面
  6
CONTINUOUS
 10
-49.751657
 20
80.393988
 11
-49.751657
 21
76.038582
  0
LINE
  8
型材断面
  6
CONTINUOUS
 10
-49.751657
 20
76.038582
 11
-50.813152
 21
74.977088
  0
LINE
  8
型材断面
  6
CONTINUOUS
 10
-54.107065
 20
80.393985
 11
-55.168558
 21
79.332493
  0
LINE
  8
型材断面
  6
CONTINUOUS
 10
-49.751657
 20
80.393988
 11
-54.107063
 21
80.393988
  0
LINE
  8
型材断面
  6
CONTINUOUS
 10
-54.466223
 20
79.327722
 11
-87.750185
 21
79.327722
  0
LINE
  8
型材断面
  6
CONTINUOUS
 10
-49.400205
 20
80.745442
 11
-87.750185
 21
80.745442
  0
LINE
  8
型材断面
  6
CONTINUOUS
 10
-49.400205
 20
80.745442
 11
-49.400205
 21
42.39546
  0
LINE
  8
型材断面
  6
CONTINUOUS
 10
-50.817925
 20
75.679422
 11
-50.817925
 21
42.39546
  0
LINE
  8
型材断面
  6
DASHDOT
 10
-55.250185
 20
74.89546
 11
-87.750185
 21
74.89546
  0
LINE
  8
型材断面
  6
DASHDOT
 10
-55.250185
 20
74.89546
 11
-55.250185
 21
42.39546
  0
LINE
  8
型材断面
  6
CONTINUOUS
 10
-53.75351
 20
80.040432
 11
-86.273482
 21
47.520463
  0
LINE
  8
型材断面
  6
CONTINUOUS
 10
-50.105213
 20
76.392135
 11
-82.625185
 21
43.87216
  0
LINE
  8
型材断面
  6
CONTINUOUS
 10
-49.400205
 20
80.745442
 11
-87.750185
 21
42.39546
  0
LINE
  8
型材断面
  6
CONTINUOUS
 10
-82.625185
 20
37.270457
 11
-87.750185
 21
37.270457
  0
LINE
  8
型材断面
  6
CONTINUOUS
 10
-82.625185
 20
37.270457
 11
-82.625185
 21
42.39546
  0
LINE
  8
型材断面
  6
CONTINUOUS
 10
-50.105213
 20
4.750488
 11
-50.105213
 21
8.398785
  0
LINE
  8
型材断面
  6
CONTINUOUS
 10
-50.105213
 20
4.750488
 11
-53.75351
 21
4.750488
  0
LINE
  8
型材断面
  6
CONTINUOUS
 10
-49.751657
 20
4.396933
 11
-49.751657
 21
8.752338
  0
LINE
  8
型材断面
  6
CONTINUOUS
 10
-49.751657
 20
8.752338
 11
-50.813152
 21
9.813832
  0
LINE
  8
型材断面
  6
CONTINUOUS
 10
-54.107065
 20
4.396935
 11
-55.168558
 21
5.458427
  0
LINE
  8
型材断面
  6
CONTINUOUS
 10
-49.751657
 20
4.396933
 11
-54.107063
 21
4.396933
  0
LINE
  8
型材断面
  6
CONTINUOUS
 10
-54.466223
 20
5.463198
 11
-87.750185
 21
5.463198
  0
LINE
  8
型材断面
  6
CONTINUOUS
 10
-49.400205
 20
4.045478
 11
-87.750185
 21
4.045478
  0
LINE
  8
型材断面
  6
CONTINUOUS
 10
-49.400205
 20
4.045478
 11
-49.400205
 21
42.39546
  0
LINE
  8
型材断面
  6
CONTINUOUS
 10
-50.817925
 20
9.111498
 11
-50.817925
 21
42.39546
  0
LINE
  8
型材断面
  6
DASHDOT
 10
-55.250185
 20
9.89546
 11
-87.750185
 21
9.89546
  0
LINE
  8
型材断面
  6
CONTINUOUS
 10
-53.75351
 20
4.750488
 11
-86.273482
 21
37.270457
  0
LINE
  8
型材断面
  6
CONTINUOUS
 10
-50.105213
 20
8.398785
 11
-82.625185
 21
40.91876
  0
LINE
  8
型材断面
  6
CONTINUOUS
 10
-49.400205
 20
4.045478
 11
-87.750185
 21
42.39546
  0
LINE
  8
型材断面
  6
CONTINUOUS
 10
-92.875185
 20
37.270457
 11
-87.750185
 21
37.270457
  0
LINE
  8
型材断面
  6
CONTINUOUS
 10
-92.875185
 20
37.270457
 11
-92.875185
 21
42.39546
  0
LINE
  8
型材断面
  6
CONTINUOUS
 10
-125.395158
 20
4.750488
 11
-125.395158
 21
8.398785
  0
LINE
  8
型材断面
  6
CONTINUOUS
 10
-125.395158
 20
4.750488
 11
-121.74686
 21
4.750488
  0
LINE
  8
型材断面
  6
CONTINUOUS
 10
-125.748712
 20
4.396933
 11
-125.748712
 21
8.752338
  0
LINE
  8
型材断面
  6
CONTINUOUS
 10
-125.748712
 20
8.752338
 11
-124.687218
 21
9.813832
  0
LINE
  8
型材断面
  6
CONTINUOUS
 10
-121.393305
 20
4.396935
 11
-120.331812
 21
5.458427
  0
LINE
  8
型材断面
  6
CONTINUOUS
 10
-125.748712
 20
4.396933
 11
-121.393307
 21
4.396933
  0
LINE
  8
型材断面
  6
CONTINUOUS
 10
-121.034148
 20
5.463198
 11
-87.750185
 21
5.463198
  0
LINE
  8
型材断面
  6
CONTINUOUS
 10
-126.100165
 20
4.045478
 11
-87.750185
 21
4.045478
  0
LINE
  8
型材断面
  6
CONTINUOUS
 10
-126.100165
 20
4.045478
 11
-126.100165
 21
42.39546
  0
LINE
  8
型材断面
  6
CONTINUOUS
 10
-124.682445
 20
9.111498
 11
-124.682445
 21
42.39546
  0
LINE
  8
型材断面
  6
DASHDOT
 10
-120.250185
 20
9.89546
 11
-87.750185
 21
9.89546
  0
LINE
  8
型材断面
  6
CONTINUOUS
 10
-121.74686
 20
4.750488
 11
-89.226887
 21
37.270457
  0
LINE
  8
型材断面
  6
CONTINUOUS
 10
-125.395158
 20
8.398785
 11
-92.875185
 21
40.91876
  0
LINE
  8
型材断面
  6
CONTINUOUS
 10
-126.100165
 20
4.045478
 11
-87.750185
 21
42.39546
  0
LINE
  8
型材断面
  6
DASHDOT
 10
-87.750185
 20
42.39546
 11
-55.250185
 21
42.39546
  0
LINE
  8
型材断面
  6
DASHDOT
 10
-120.250185
 20
42.39546
 11
-120.250185
 21
-99.724968
  0
LINE
  8
型材断面
  6
DASHDOT
 10
-55.250185
 20
42.39546
 11
-55.250185
 21
-99.724968
  0
LINE
  8
型材断面
  6
CONTINUOUS
 62
    47
 10
-123.225685
 20
-94.399892
 11
-123.225405
 21
-94.399892
  0
ARC
  8
型材断面
  6
CONTINUOUS
 62
    47
 10
-123.235185
 20
-94.484892
 40
0.015
 50
180.0
 51
270.0
  0
LINE
  8
型材断面
  6
CONTINUOUS
 62
    47
 10
-126.100388
 20
-90.599892
 11
-126.100382
 21
-90.849892
  0
LINE
  8
型材断面
  6
CONTINUOUS
 62
    47
 10
-125.743335
 20
-90.24284
 11
-126.100388
 21
-90.599892
  0
LINE
  8
型材断面
  6
CONTINUOUS
 62
    47
 10
-123.250185
 20
-94.484893
 11
-123.250185
 21
-94.424892
  0
ARC
  8
型材断面
  6
CONTINUOUS
 62
    47
 10
-123.225185
 20
-94.424892
 40
0.025
 50
89.999657
 51
180.0
  0
LINE
  8
型材断面
  6
CONTINUOUS
 62
    47
 10
-122.475185
 20
-100.474968
 11
-122.475185
 21
-99.724968
  0
LINE
  8
型材断面
  6
CONTINUOUS
 62
    47
 10
-123.225185
 20
-99.724968
 11
-123.225185
 21
-94.749967
  0
LINE
  8
型材断面
  6
CONTINUOUS
 62
    47
 10
-122.074965
 20
-94.614967
 11
-122.074965
 21
-94.499892
  0
LINE
  8
型材断面
  6
CONTINUOUS
 62
    47
 10
-121.824965
 20
-94.749967
 11
-121.824965
 21
-94.614967
  0
LINE
  8
型材断面
  6
CONTINUOUS
 62
    47
 10
-123.225185
 20
-94.399898
 11
-123.225185
 21
-92.989893
  0
LINE
  8
型材断面
  6
CONTINUOUS
 62
    47
 10
-124.600185
 20
-92.989893
 11
-124.600185
 21
-91.527412
  0
LINE
  8
型材断面
  6
CONTINUOUS
 62
    47
 10
-124.600185
 20
-91.527412
 11
-125.277703
 21
-90.849892
  0
LINE
  8
型材断面
  6
CONTINUOUS
 62
    47
 10
-125.743335
 20
-90.24284
 11
-124.682668
 21
-89.182175
  0
LINE
  8
型材断面
  6
CONTINUOUS
 10
-120.301322
 20
-89.182175
 11
-121.361988
 21
-90.24284
  0
LINE
  8
型材断面
  6
CONTINUOUS
 10
-121.56909
 20
-89.74284
 11
-125.243335
 21
-89.74284
  0
LINE
  8
型材断面
  6
CONTINUOUS
 10
-121.361988
 20
-90.24284
 11
-125.743335
 21
-90.24284
  0
LINE
  8
型材断面
  6
CONTINUOUS
 62
    47
 10
-126.100382
 20
-90.849892
 11
-87.750185
 21
-90.849892
  0
LINE
  8
型材断面
  6
CONTINUOUS
 62
    47
 10
-124.600185
 20
-92.989893
 11
-87.750185
 21
-92.989893
  0
LINE
  8
型材断面
  6
CONTINUOUS
 62
    47
 10
-122.074965
 20
-94.614967
 11
-87.750185
 21
-94.614967
  0
LINE
  8
型材断面
  6
CONTINUOUS
 10
-126.100388
 20
-90.599892
 11
-87.750185
 21
-90.599892
  0
LINE
  8
型材断面
  6
CONTINUOUS
 10
-121.008425
 20
-89.182175
 11
-87.750185
 21
-89.182175
  0
LINE
  8
型材断面
  6
CONTINUOUS
 10
-124.600185
 20
-91.527412
 11
-87.750185
 21
-91.527412
  0
LINE
  8
型材断面
  6
CONTINUOUS
 62
    47
 10
-123.225185
 20
-94.749967
 11
-87.750185
 21
-94.749967
  0
LINE
  8
型材断面
  6
CONTINUOUS
 62
    47
 10
-123.235185
 20
-94.499892
 11
-87.750185
 21
-94.499892
  0
LINE
  8
型材断面
  6
CONTINUOUS
 62
    47
 10
-122.475185
 20
-100.474968
 11
-87.750185
 21
-100.474968
  0
LINE
  8
型材断面
  6
CONTINUOUS
 62
    47
 10
-123.225185
 20
-99.724968
 11
-87.750185
 21
-99.724968
  0
LINE
  8
型材断面
  6
CONTINUOUS
 62
    47
 10
-52.274685
 20
-94.399892
 11
-52.274965
 21
-94.399892
  0
ARC
  8
型材断面
  6
CONTINUOUS
 62
    47
 10
-52.265185
 20
-94.484892
 40
0.015
 50
270.0
 51
360.0
  0
LINE
  8
型材断面
  6
CONTINUOUS
 62
    47
 10
-49.399982
 20
-90.599892
 11
-49.399988
 21
-90.849892
  0
LINE
  8
型材断面
  6
CONTINUOUS
 62
    47
 10
-49.757035
 20
-90.24284
 11
-49.399982
 21
-90.599892
  0
LINE
  8
型材断面
  6
CONTINUOUS
 62
    47
 10
-52.250185
 20
-94.484893
 11
-52.250185
 21
-94.424892
  0
ARC
  8
型材断面
  6
CONTINUOUS
 62
    47
 10
-52.275185
 20
-94.424892
 40
0.025
 50
0.0
 51
90.000343
  0
LINE
  8
型材断面
  6
CONTINUOUS
 62
    47
 10
-53.025185
 20
-100.474968
 11
-53.025185
 21
-99.724968
  0
LINE
  8
型材断面
  6
CONTINUOUS
 62
    47
 10
-52.275185
 20
-99.724968
 11
-52.275185
 21
-94.749967
  0
LINE
  8
型材断面
  6
CONTINUOUS
 62
    47
 10
-53.425405
 20
-94.614967
 11
-53.425405
 21
-94.499892
  0
LINE
  8
型材断面
  6
CONTINUOUS
 62
    47
 10
-53.675405
 20
-94.749967
 11
-53.675405
 21
-94.614967
  0
LINE
  8
型材断面
  6
CONTINUOUS
 62
    47
 10
-52.275185
 20
-94.399898
 11
-52.275185
 21
-92.989893
  0
LINE
  8
型材断面
  6
CONTINUOUS
 62
    47
 10
-50.900185
 20
-92.989893
 11
-50.900185
 21
-91.527412
  0
LINE
  8
型材断面
  6
CONTINUOUS
 62
    47
 10
-50.900185
 20
-91.527412
 11
-50.222667
 21
-90.849892
  0
LINE
  8
型材断面
  6
CONTINUOUS
 62
    47
 10
-49.757035
 20
-90.24284
 11
-50.817702
 21
-89.182175
  0
LINE
  8
型材断面
  6
CONTINUOUS
 10
-55.199047
 20
-89.182175
 11
-54.138382
 21
-90.24284
  0
LINE
  8
型材断面
  6
CONTINUOUS
 10
-53.93128
 20
-89.74284
 11
-50.257035
 21
-89.74284
  0
LINE
  8
型材断面
  6
CONTINUOUS
 10
-54.138382
 20
-90.24284
 11
-49.757035
 21
-90.24284
  0
LINE
  8
型材断面
  6
CONTINUOUS
 62
    47
 10
-49.399988
 20
-90.849892
 11
-87.750185
 21
-90.849892
  0
LINE
  8
型材断面
  6
CONTINUOUS
 62
    47
 10
-50.900185
 20
-92.989893
 11
-87.750185
 21
-92.989893
  0
LINE
  8
型材断面
  6
CONTINUOUS
 62
    47
 10
-53.425405
 20
-94.614967
 11
-87.750185
 21
-94.614967
  0
LINE
  8
型材断面
  6
CONTINUOUS
 10
-49.399982
 20
-90.599892
 11
-87.750185
 21
-90.599892
  0
LINE
  8
型材断面
  6
CONTINUOUS
 10
-54.491945
 20
-89.182175
 11
-87.750185
 21
-89.182175
  0
LINE
  8
型材断面
  6
CONTINUOUS
 10
-50.900185
 20
-91.527412
 11
-87.750185
 21
-91.527412
  0
LINE
  8
型材断面
  6
CONTINUOUS
 62
    47
 10
-52.275185
 20
-94.749967
 11
-87.750185
 21
-94.749967
  0
LINE
  8
型材断面
  6
CONTINUOUS
 62
    47
 10
-52.265185
 20
-94.499892
 11
-87.750185
 21
-94.499892
  0
LINE
  8
型材断面
  6
CONTINUOUS
 62
    47
 10
-53.025185
 20
-100.474968
 11
-87.750185
 21
-100.474968
  0
LINE
  8
型材断面
  6
CONTINUOUS
 62
    47
 10
-52.275185
 20
-99.724968
 11
-87.750185
 21
-99.724968
  0
LINE
  8
型材断面
  6
CONTINUOUS
 10
-92.875185
 20
-57.197897
 11
-87.750185
 21
-57.197897
  0
LINE
  8
型材断面
  6
CONTINUOUS
 10
-92.875185
 20
-57.197897
 11
-92.804475
 21
-57.268607
  0
LINE
  8
型材断面
  6
CONTINUOUS
 10
-87.750185
 20
-57.268607
 11
-92.804475
 21
-57.268607
  0
LINE
  8
型材断面
  6
CONTINUOUS
 10
-92.875185
 20
-57.197897
 11
-87.750185
 21
-52.072895
  0
LINE
  8
型材断面
  6
CONTINUOUS
 10
-82.625185
 20
-57.197897
 11
-87.750185
 21
-57.197897
  0
LINE
  8
型材断面
  6
CONTINUOUS
 10
-82.625185
 20
-57.197897
 11
-82.695895
 21
-57.268607
  0
LINE
  8
型材断面
  6
CONTINUOUS
 10
-87.750185
 20
-57.268607
 11
-82.695895
 21
-57.268607
  0
LINE
  8
型材断面
  6
CONTINUOUS
 10
-82.625185
 20
-57.197897
 11
-87.750185
 21
-52.072895
  0
LINE
  8
型材断面
  6
CONTINUOUS
 10
-124.68267
 20
-89.182175
 11
-92.76912
 21
-57.268607
  0
LINE
  8
型材断面
  6
CONTINUOUS
 10
-121.56909
 20
-89.74284
 11
-89.094877
 21
-57.268607
  0
LINE
  8
型材断面
  6
CONTINUOUS
 10
-53.93128
 20
-89.74284
 11
-86.405493
 21
-57.268607
  0
LINE
  8
型材断面
  6
CONTINUOUS
 10
-50.8177
 20
-89.182175
 11
-82.73125
 21
-57.268607
  0
LINE
  8
型材断面
  6
DASHDOT
 10
-87.750185
 20
42.39546
 11
-87.750185
 21
-100.474968
  0
LINE
  8
型材断面
  6
CONTINUOUS
 10
-47.22631
 20
69.345463
 11
-43.34055
 21
68.451377
  0
LINE
  8
型材断面
  6
CONTINUOUS
 10
-47.22631
 20
69.345463
 11
-43.34055
 21
70.239547
  0
LINE
  8
型材断面
  6
CONTINUOUS
 10
-43.34055
 20
70.239547
 11
-43.34055
 21
68.451377
  0
LINE
  8
型材断面
  6
CONTINUOUS
 10
-47.22631
 20
15.445457
 11
-43.34055
 21
16.339543
  0
LINE
  8
型材断面
  6
CONTINUOUS
 10
-47.22631
 20
15.445457
 11
-43.34055
 21
14.551373
  0
LINE
  8
型材断面
  6
CONTINUOUS
 10
-43.34055
 20
14.551373
 11
-43.34055
 21
16.339543
  0
LINE
  8
型材断面
  6
CONTINUOUS
 10
-128.27406
 20
15.445457
 11
-132.15982
 21
16.339543
  0
LINE
  8
型材断面
  6
CONTINUOUS
 10
-128.27406
 20
15.445457
 11
-132.15982
 21
14.551373
  0
LINE
  8
型材断面
  6
CONTINUOUS
 10
-132.15982
 20
14.551373
 11
-132.15982
 21
16.339543
  0
LINE
  8
型材断面
  6
CONTINUOUS
 10
-128.27406
 20
69.345463
 11
-132.15982
 21
68.451377
  0
LINE
  8
型材断面
  6
CONTINUOUS
 10
-128.27406
 20
69.345463
 11
-132.15982
 21
70.239547
  0
LINE
  8
型材断面
  6
CONTINUOUS
 10
-132.15982
 20
70.239547
 11
-132.15982
 21
68.451377
  0
LINE
  8
型材断面
  6
CONTINUOUS
 10
-47.22631
 20
42.39546
 11
-43.34055
 21
40.152015
  0
LINE
  8
型材断面
  6
CONTINUOUS
 10
-47.22631
 20
42.39546
 11
-43.34055
 21
44.638905
  0
LINE
  8
型材断面
  6
CONTINUOUS
 10
-43.34055
 20
44.638905
 11
-43.34055
 21
40.152015
  0
LINE
  8
型材断面
  6
CONTINUOUS
 10
-87.750185
 20
82.919335
 11
-89.99363
 21
86.805095
  0
LINE
  8
型材断面
  6
CONTINUOUS
 10
-87.750185
 20
82.919335
 11
-85.50674
 21
86.805095
  0
LINE
  8
型材断面
  6
CONTINUOUS
 10
-85.50674
 20
86.805095
 11
-89.99363
 21
86.805095
  0
LINE
  8
型材断面
  6
CONTINUOUS
 10
-87.750185
 20
1.871585
 11
-89.99363
 21
-2.014175
  0
LINE
  8
型材断面
  6
CONTINUOUS
 10
-87.750185
 20
1.871585
 11
-85.50674
 21
-2.014175
  0
LINE
  8
型材断面
  6
CONTINUOUS
 10
-85.50674
 20
-2.014175
 11
-89.99363
 21
-2.014175
  0
LINE
  8
型材断面
  6
CONTINUOUS
 10
-128.27406
 20
42.39546
 11
-132.15982
 21
40.152015
  0
LINE
  8
型材断面
  6
CONTINUOUS
 10
-128.27406
 20
42.39546
 11
-132.15982
 21
44.638905
  0
LINE
  8
型材断面
  6
CONTINUOUS
 10
-132.15982
 20
44.638905
 11
-132.15982
 21
40.152015
  0
LINE
  8
型材断面
  6
DOT
 10
-61.463782
 20
74.895463
 11
-61.463782
 21
9.89546
  0
LINE
  8
型材断面
  6
DOT
 10
-59.463782
 20
74.895463
 11
-59.463782
 21
9.89546
  0
POLYLINE
  8
型材断面
  6
CONTINUOUS
 66
     1
 70
     1
  0
VERTEX
  8
型材断面
 10
-78.540103
 20
-2.698752
  0
VERTEX
  8
型材断面
 10
-97.095315
 20
-2.698752
  0
VERTEX
  8
型材断面
 10
-97.095315
 20
-7.490787
  0
VERTEX
  8
型材断面
 10
-78.540103
 20
-7.490787
  0
SEQEND
  0
POLYLINE
  8
型材断面
  6
CONTINUOUS
 66
     1
 70
     1
  0
VERTEX
  8
型材断面
 10
-78.540103
 20
92.956458
  0
VERTEX
  8
型材断面
 10
-97.095315
 20
92.956458
  0
VERTEX
  8
型材断面
 10
-97.095315
 20
88.164423
  0
VERTEX
  8
型材断面
 10
-78.540103
 20
88.164423
  0
SEQEND
  0
LINE
  8
型材断面
  6
CONTINUOUS
 10
10.516347
 20
23.878702
 11
8.272903
 21
19.992943
  0
LINE
  8
型材断面
  6
CONTINUOUS
 10
10.516347
 20
23.878702
 11
12.759793
 21
19.992943
  0
LINE
  8
型材断面
  6
CONTINUOUS
 10
12.759793
 20
19.992943
 11
8.272903
 21
19.992943
  0
LINE
  8
型材断面
  6
CONTINUOUS
 10
10.516347
 20
16.189155
 11
11.410433
 21
12.303395
  0
LINE
  8
型材断面
  6
CONTINUOUS
 10
10.516347
 20
16.189155
 11
9.622263
 21
12.303395
  0
LINE
  8
型材断面
  6
CONTINUOUS
 10
9.622263
 20
12.303395
 11
11.410433
 21
12.303395
  0
LINE
  8
型材断面
  6
CONTINUOUS
 10
1.482467
 20
18.58505
 11
54.139148
 21
18.58505
  0
LINE
  8
型材断面
  6
CONTINUOUS
 10
1.482467
 20
7.385058
 11
54.139148
 21
7.385058
  0
LINE
  8
型材断面
  6
CONTINUOUS
 10
1.482467
 20
0.545112
 11
54.139148
 21
0.545112
  0
LINE
  8
型材断面
  6
CONTINUOUS
 62
    47
 10
6.112995
 20
-94.399892
 11
6.113275
 21
-94.399892
  0
ARC
  8
型材断面
  6
CONTINUOUS
 62
    47
 10
6.103494
 20
-94.484892
 40
0.015
 50
180.0
 51
270.0
  0
LINE
  8
型材断面
  6
CONTINUOUS
 62
    47
 10
3.238292
 20
-90.599892
 11
3.238298
 21
-90.849892
  0
LINE
  8
型材断面
  6
CONTINUOUS
 62
    47
 10
3.595345
 20
-90.24284
 11
3.238292
 21
-90.599892
  0
LINE
  8
型材断面
  6
CONTINUOUS
 62
    47
 10
6.088495
 20
-94.484893
 11
6.088495
 21
-94.424892
  0
ARC
  8
型材断面
  6
CONTINUOUS
 62
    47
 10
6.113494
 20
-94.424892
 40
0.025
 50
89.999657
 51
180.0
  0
LINE
  8
型材断面
  6
CONTINUOUS
 62
    47
 10
6.863495
 20
-100.474968
 11
6.863495
 21
-99.724968
  0
LINE
  8
型材断面
  6
CONTINUOUS
 62
    47
 10
6.113495
 20
-99.724968
 11
6.113495
 21
-94.749967
  0
LINE
  8
型材断面
  6
CONTINUOUS
 62
    47
 10
7.263715
 20
-94.614967
 11
7.263715
 21
-94.499892
  0
LINE
  8
型材断面
  6
CONTINUOUS
 62
    47
 10
7.513715
 20
-94.749967
 11
7.513715
 21
-94.614967
  0
LINE
  8
型材断面
  6
CONTINUOUS
 62
    47
 10
6.113495
 20
-94.399898
 11
6.113495
 21
-92.989893
  0
LINE
  8
型材断面
  6
CONTINUOUS
 62
    47
 10
4.738495
 20
-92.989893
 11
4.738495
 21
-91.527412
  0
LINE
  8
型材断面
  6
CONTINUOUS
 62
    47
 10
4.738495
 20
-91.527412
 11
4.060978
 21
-90.849892
  0
LINE
  8
型材断面
  6
CONTINUOUS
 62
    47
 10
3.595345
 20
-90.24284
 11
4.656012
 21
-89.182175
  0
LINE
  8
型材断面
  6
CONTINUOUS
 10
9.037357
 20
-89.182175
 11
7.976692
 21
-90.24284
  0
LINE
  8
型材断面
  6
CONTINUOUS
 10
7.76959
 20
-89.74284
 11
4.095345
 21
-89.74284
  0
LINE
  8
型材断面
  6
CONTINUOUS
 10
7.976692
 20
-90.24284
 11
3.595345
 21
-90.24284
  0
LINE
  8
型材断面
  6
CONTINUOUS
 62
    47
 10
3.238298
 20
-90.849892
 11
41.588495
 21
-90.849892
  0
LINE
  8
型材断面
  6
CONTINUOUS
 62
    47
 10
4.738495
 20
-92.989893
 11
41.588495
 21
-92.989893
  0
LINE
  8
型材断面
  6
CONTINUOUS
 62
    47
 10
7.263715
 20
-94.614967
 11
41.588495
 21
-94.614967
  0
LINE
  8
型材断面
  6
CONTINUOUS
 10
3.238292
 20
-90.599892
 11
41.588495
 21
-90.599892
  0
LINE
  8
型材断面
  6
CONTINUOUS
 10
8.330255
 20
-89.182175
 11
41.588495
 21
-89.182175
  0
LINE
  8
型材断面
  6
CONTINUOUS
 10
4.738495
 20
-91.527412
 11
41.588495
 21
-91.527412
  0
LINE
  8
型材断面
  6
CONTINUOUS
 62
    47
 10
6.113495
 20
-94.749967
 11
41.588495
 21
-94.749967
  0
LINE
  8
型材断面
  6
CONTINUOUS
 62
    47
 10
6.103495
 20
-94.499892
 11
41.588495
 21
-94.499892
  0
LINE
  8
型材断面
  6
CONTINUOUS
 62
    47
 10
6.863495
 20
-100.474968
 11
41.588495
 21
-100.474968
  0
LINE
  8
型材断面
  6
CONTINUOUS
 62
    47
 10
6.113495
 20
-99.724968
 11
41.588495
 21
-99.724968
  0
LINE
  8
型材断面
  6
CONTINUOUS
 62
    47
 10
77.063995
 20
-94.399892
 11
77.063715
 21
-94.399892
  0
ARC
  8
型材断面
  6
CONTINUOUS
 62
    47
 10
77.073494
 20
-94.484892
 40
0.015
 50
270.0
 51
360.0
  0
LINE
  8
型材断面
  6
CONTINUOUS
 62
    47
 10
79.938697
 20
-90.599892
 11
79.938693
 21
-90.849892
  0
LINE
  8
型材断面
  6
CONTINUOUS
 62
    47
 10
79.581645
 20
-90.24284
 11
79.938697
 21
-90.599892
  0
LINE
  8
型材断面
  6
CONTINUOUS
 62
    47
 10
77.088495
 20
-94.484893
 11
77.088495
 21
-94.424892
  0
ARC
  8
型材断面
  6
CONTINUOUS
 62
    47
 10
77.063494
 20
-94.424892
 40
0.025
 50
0.0
 51
90.000343
  0
LINE
  8
型材断面
  6
CONTINUOUS
 62
    47
 10
76.313495
 20
-100.474968
 11
76.313495
 21
-99.724968
  0
LINE
  8
型材断面
  6
CONTINUOUS
 62
    47
 10
77.063495
 20
-99.724968
 11
77.063495
 21
-94.749967
  0
LINE
  8
型材断面
  6
CONTINUOUS
 62
    47
 10
75.913275
 20
-94.614967
 11
75.913275
 21
-94.499892
  0
LINE
  8
型材断面
  6
CONTINUOUS
 62
    47
 10
75.663275
 20
-94.749967
 11
75.663275
 21
-94.614967
  0
LINE
  8
型材断面
  6
CONTINUOUS
 62
    47
 10
77.063495
 20
-94.399898
 11
77.063495
 21
-92.989893
  0
LINE
  8
型材断面
  6
CONTINUOUS
 62
    47
 10
78.438495
 20
-92.989893
 11
78.438495
 21
-91.527412
  0
LINE
  8
型材断面
  6
CONTINUOUS
 62
    47
 10
78.438495
 20
-91.527412
 11
79.116013
 21
-90.849892
  0
LINE
  8
型材断面
  6
CONTINUOUS
 62
    47
 10
79.581645
 20
-90.24284
 11
78.520977
 21
-89.182175
  0
LINE
  8
型材断面
  6
CONTINUOUS
 10
74.139632
 20
-89.182175
 11
75.200297
 21
-90.24284
  0
LINE
  8
型材断面
  6
CONTINUOUS
 10
75.4074
 20
-89.74284
 11
79.081645
 21
-89.74284
  0
LINE
  8
型材断面
  6
CONTINUOUS
 10
75.200297
 20
-90.24284
 11
79.581645
 21
-90.24284
  0
LINE
  8
型材断面
  6
CONTINUOUS
 62
    47
 10
79.938693
 20
-90.849892
 11
41.588495
 21
-90.849892
  0
LINE
  8
型材断面
  6
CONTINUOUS
 62
    47
 10
78.438495
 20
-92.989893
 11
41.588495
 21
-92.989893
  0
LINE
  8
型材断面
  6
CONTINUOUS
 62
    47
 10
75.913275
 20
-94.614967
 11
41.588495
 21
-94.614967
  0
LINE
  8
型材断面
  6
CONTINUOUS
 10
79.938697
 20
-90.599892
 11
41.588495
 21
-90.599892
  0
LINE
  8
型材断面
  6
CONTINUOUS
 10
74.846735
 20
-89.182175
 11
41.588495
 21
-89.182175
  0
LINE
  8
型材断面
  6
CONTINUOUS
 10
78.438495
 20
-91.527412
 11
41.588495
 21
-91.527412
  0
LINE
  8
型材断面
  6
CONTINUOUS
 62
    47
 10
77.063495
 20
-94.749967
 11
41.588495
 21
-94.749967
  0
LINE
  8
型材断面
  6
CONTINUOUS
 62
    47
 10
77.073495
 20
-94.499892
 11
41.588495
 21
-94.499892
  0
LINE
  8
型材断面
  6
CONTINUOUS
 62
    47
 10
76.313495
 20
-100.474968
 11
41.588495
 21
-100.474968
  0
LINE
  8
型材断面
  6
CONTINUOUS
 62
    47
 10
77.063495
 20
-99.724968
 11
41.588495
 21
-99.724968
  0
LINE
  8
型材断面
  6
CONTINUOUS
 10
36.463495
 20
-57.197897
 11
41.588495
 21
-57.197897
  0
LINE
  8
型材断面
  6
CONTINUOUS
 10
36.463495
 20
-57.197897
 11
36.534205
 21
-57.268607
  0
LINE
  8
型材断面
  6
CONTINUOUS
 10
41.588495
 20
-57.268607
 11
36.534205
 21
-57.268607
  0
LINE
  8
型材断面
  6
CONTINUOUS
 10
36.463495
 20
-57.197897
 11
41.588495
 21
-52.072895
  0
LINE
  8
型材断面
  6
CONTINUOUS
 10
46.713495
 20
-57.197897
 11
41.588495
 21
-57.197897
  0
LINE
  8
型材断面
  6
CONTINUOUS
 10
46.713495
 20
-57.197897
 11
46.642785
 21
-57.268607
  0
LINE
  8
型材断面
  6
CONTINUOUS
 10
41.588495
 20
-57.268607
 11
46.642785
 21
-57.268607
  0
LINE
  8
型材断面
  6
CONTINUOUS
 10
46.713495
 20
-57.197897
 11
41.588495
 21
-52.072895
  0
LINE
  8
型材断面
  6
CONTINUOUS
 10
4.65601
 20
-89.182175
 11
36.56956
 21
-57.268607
  0
LINE
  8
型材断面
  6
CONTINUOUS
 10
7.76959
 20
-89.74284
 11
40.243802
 21
-57.268607
  0
LINE
  8
型材断面
  6
CONTINUOUS
 10
75.4074
 20
-89.74284
 11
42.933187
 21
-57.268607
  0
LINE
  8
型材断面
  6
CONTINUOUS
 10
78.52098
 20
-89.182175
 11
46.60743
 21
-57.268607
  0
LINE
  8
型材断面
  6
DOT
 62
    47
 10
6.112995
 20
-78.399892
 11
6.113275
 21
-78.399892
  0
ARC
  8
型材断面
  6
DOT
 62
    47
 10
6.103494
 20
-78.484892
 40
0.015
 50
180.0
 51
270.0
  0
LINE
  8
型材断面
  6
DOT
 62
    47
 10
3.238292
 20
-74.599892
 11
3.238298
 21
-74.849892
  0
LINE
  8
型材断面
  6
DOT
 62
    47
 10
3.595345
 20
-74.24284
 11
3.238292
 21
-74.599892
  0
LINE
  8
型材断面
  6
DOT
 62
    47
 10
6.088495
 20
-78.484893
 11
6.088495
 21
-78.424892
  0
ARC
  8
型材断面
  6
DOT
 62
    47
 10
6.113494
 20
-78.424892
 40
0.025
 50
89.999657
 51
180.0
  0
LINE
  8
型材断面
  6
DOT
 62
    47
 10
7.263715
 20
-78.614967
 11
7.263715
 21
-78.499892
  0
LINE
  8
型材断面
  6
DOT
 62
    47
 10
6.113495
 20
-78.399898
 11
6.113495
 21
-76.989893
  0
LINE
  8
型材断面
  6
DOT
 62
    47
 10
4.738495
 20
-76.989893
 11
4.738495
 21
-75.527412
  0
LINE
  8
型材断面
  6
DOT
 62
    47
 10
4.738495
 20
-75.527412
 11
4.060978
 21
-74.849892
  0
LINE
  8
型材断面
  6
DOT
 62
    47
 10
3.595345
 20
-74.24284
 11
4.656012
 21
-73.182175
  0
LINE
  8
型材断面
  6
DOT
 10
9.037357
 20
-73.182175
 11
7.976692
 21
-74.24284
  0
LINE
  8
型材断面
  6
DOT
 10
7.76959
 20
-73.74284
 11
4.095345
 21
-73.74284
  0
LINE
  8
型材断面
  6
DOT
 10
7.976692
 20
-74.24284
 11
3.595345
 21
-74.24284
  0
LINE
  8
型材断面
  6
DOT
 62
    47
 10
3.238298
 20
-74.849892
 11
41.588495
 21
-74.849892
  0
LINE
  8
型材断面
  6
DOT
 62
    47
 10
4.738495
 20
-76.989893
 11
41.588495
 21
-76.989893
  0
LINE
  8
型材断面
  6
DOT
 62
    47
 10
7.263715
 20
-78.614967
 11
41.588495
 21
-78.614967
  0
LINE
  8
型材断面
  6
DOT
 10
3.238292
 20
-74.599892
 11
41.588495
 21
-74.599892
  0
LINE
  8
型材断面
  6
DOT
 10
8.330255
 20
-73.182175
 11
41.588495
 21
-73.182175
  0
LINE
  8
型材断面
  6
DOT
 10
4.738495
 20
-75.527412
 11
41.588495
 21
-75.527412
  0
LINE
  8
型材断面
  6
DOT
 62
    47
 10
6.103495
 20
-78.499892
 11
41.588495
 21
-78.499892
  0
LINE
  8
型材断面
  6
DOT
 62
    47
 10
77.063995
 20
-78.399892
 11
77.063715
 21
-78.399892
  0
ARC
  8
型材断面
  6
DOT
 62
    47
 10
77.073494
 20
-78.484892
 40
0.015
 50
270.0
 51
360.0
  0
LINE
  8
型材断面
  6
DOT
 62
    47
 10
79.938697
 20
-74.599892
 11
79.938693
 21
-74.849892
  0
LINE
  8
型材断面
  6
DOT
 62
    47
 10
79.581645
 20
-74.24284
 11
79.938697
 21
-74.599892
  0
LINE
  8
型材断面
  6
DOT
 62
    47
 10
77.088495
 20
-78.484893
 11
77.088495
 21
-78.424892
  0
ARC
  8
型材断面
  6
DOT
 62
    47
 10
77.063494
 20
-78.424892
 40
0.025
 50
0.0
 51
90.000343
  0
LINE
  8
型材断面
  6
DOT
 62
    47
 10
75.913275
 20
-78.614967
 11
75.913275
 21
-78.499892
  0
LINE
  8
型材断面
  6
DOT
 62
    47
 10
77.063495
 20
-78.399898
 11
77.063495
 21
-76.989893
  0
LINE
  8
型材断面
  6
DOT
 62
    47
 10
78.438495
 20
-76.989893
 11
78.438495
 21
-75.527412
  0
LINE
  8
型材断面
  6
DOT
 62
    47
 10
78.438495
 20
-75.527412
 11
79.116013
 21
-74.849892
  0
LINE
  8
型材断面
  6
DOT
 62
    47
 10
79.581645
 20
-74.24284
 11
78.520977
 21
-73.182175
  0
LINE
  8
型材断面
  6
DOT
 10
74.139632
 20
-73.182175
 11
75.200297
 21
-74.24284
  0
LINE
  8
型材断面
  6
DOT
 10
75.4074
 20
-73.74284
 11
79.081645
 21
-73.74284
  0
LINE
  8
型材断面
  6
DOT
 10
75.200297
 20
-74.24284
 11
79.581645
 21
-74.24284
  0
LINE
  8
型材断面
  6
DOT
 62
    47
 10
79.938693
 20
-74.849892
 11
41.588495
 21
-74.849892
  0
LINE
  8
型材断面
  6
DOT
 62
    47
 10
78.438495
 20
-76.989893
 11
41.588495
 21
-76.989893
  0
LINE
  8
型材断面
  6
DOT
 62
    47
 10
75.913275
 20
-78.614967
 11
41.588495
 21
-78.614967
  0
LINE
  8
型材断面
  6
DOT
 10
79.938697
 20
-74.599892
 11
41.588495
 21
-74.599892
  0
LINE
  8
型材断面
  6
DOT
 10
74.846735
 20
-73.182175
 11
41.588495
 21
-73.182175
  0
LINE
  8
型材断面
  6
DOT
 10
78.438495
 20
-75.527412
 11
41.588495
 21
-75.527412
  0
LINE
  8
型材断面
  6
DOT
 62
    47
 10
77.073495
 20
-78.499892
 11
41.588495
 21
-78.499892
  0
LINE
  8
型材断面
  6
DOT
 10
36.463495
 20
-41.197897
 11
41.588495
 21
-41.197897
  0
LINE
  8
型材断面
  6
DOT
 10
36.463495
 20
-41.197897
 11
36.534205
 21
-41.268607
  0
LINE
  8
型材断面
  6
DOT
 10
41.588495
 20
-41.268607
 11
36.534205
 21
-41.268607
  0
LINE
  8
型材断面
  6
DOT
 10
36.463495
 20
-41.197897
 11
41.588495
 21
-36.072895
  0
LINE
  8
型材断面
  6
DOT
 10
46.713495
 20
-41.197897
 11
41.588495
 21
-41.197897
  0
LINE
  8
型材断面
  6
DOT
 10
46.713495
 20
-41.197897
 11
46.642785
 21
-41.268607
  0
LINE
  8
型材断面
  6
DOT
 10
41.588495
 20
-41.268607
 11
46.642785
 21
-41.268607
  0
LINE
  8
型材断面
  6
DOT
 10
46.713495
 20
-41.197897
 11
41.588495
 21
-36.072895
  0
LINE
  8
型材断面
  6
DOT
 10
4.65601
 20
-73.182175
 11
36.56956
 21
-41.268607
  0
LINE
  8
型材断面
  6
DOT
 10
7.76959
 20
-73.74284
 11
40.243802
 21
-41.268607
  0
LINE
  8
型材断面
  6
DOT
 10
75.4074
 20
-73.74284
 11
42.933187
 21
-41.268607
  0
LINE
  8
型材断面
  6
DOT
 10
78.52098
 20
-73.182175
 11
46.60743
 21
-41.268607
  0
INSERT
  2
*GRP_0014
  8
型材断面
  6
DOT
 10
0.0
 20
0.0
  0
INSERT
  2
*GRP_0015
  8
型材断面
  6
DOT
 10
0.0
 20
0.0
  0
LINE
  8
型材断面
  6
CONTINUOUS
 10
83.483072
 20
42.649883
 11
107.414695
 21
42.649883
  0
LINE
  8
型材断面
  6
CONTINUOUS
 10
1.482467
 20
-6.294833
 11
54.139148
 21
-6.294833
  0
LINE
  8
ガラス
  6
CONTINUOUS
 10
-85.655945
 20
-71.188903
 11
-89.52858
 21
-75.061538
  0
LINE
  8
ガラス
  6
CONTINUOUS
 10
-86.536268
 20
-72.78726
 11
-87.930223
 21
-74.181215
  0
LINE
  8
ガラス
  6
CONTINUOUS
 10
-87.254302
 20
-72.069225
 11
-88.648258
 21
-73.46318
  0
LINE
  8
ガラス
  6
CONTINUOUS
 10
-85.752167
 20
62.499402
 11
-89.624802
 21
58.626767
  0
LINE
  8
ガラス
  6
CONTINUOUS
 10
-87.350525
 20
61.61908
 11
-88.74448
 21
60.225125
  0
LINE
  8
ガラス
  6
CONTINUOUS
 10
-86.63249
 20
60.901045
 11
-88.026445
 21
59.50709
  0
LINE
  8
ガラス
  6
CONTINUOUS
 10
-66.290218
 20
44.23907
 11
-70.162853
 21
40.366435
  0
LINE
  8
ガラス
  6
CONTINUOUS
 10
-67.888575
 20
43.358748
 11
-69.28253
 21
41.964792
  0
LINE
  8
ガラス
  6
CONTINUOUS
 10
-67.17054
 20
42.640712
 11
-68.564495
 21
41.246758
  0
LINE
  8
ガラス
  6
CONTINUOUS
 10
-106.901225
 20
44.23907
 11
-110.77386
 21
40.366435
  0
LINE
  8
ガラス
  6
CONTINUOUS
 10
-108.499583
 20
43.358748
 11
-109.893538
 21
41.964792
  0
LINE
  8
ガラス
  6
CONTINUOUS
 10
-107.781548
 20
42.640712
 11
-109.175503
 21
41.246758
  0
LINE
  8
ガラス
  6
CONTINUOUS
 10
-85.752167
 20
24.438478
 11
-89.624802
 21
20.565842
  0
LINE
  8
ガラス
  6
CONTINUOUS
 10
-87.350525
 20
23.558155
 11
-88.74448
 21
22.1642
  0
LINE
  8
ガラス
  6
CONTINUOUS
 10
-86.63249
 20
22.84012
 11
-88.026445
 21
21.446165
  0
TEXT
  7
TextStyle03
  8
文字
  6
CONTINUOUS
 10
-46.55
 20
28.625
  1
ﾊﾞﾗﾝｽｽﾃｰ
 40
3.0
 72
     5
 11
-33.2375
 21
28.625
  0
TEXT
  7
TextStyle03
  8
文字
  6
CONTINUOUS
 10
-96.1
 20
-6.525
  1
可動装置側
 40
3.0
 72
     5
 11
-79.6
 21
-6.525
  0
TEXT
  7
TextStyle03
  8
文字
  6
CONTINUOUS
 10
-96.1
 20
89.125
  1
可動装置側
 40
3.0
 72
     5
 11
-79.6
 21
89.125
  0
TEXT
  7
TextStyle03
  8
文字
  6
CONTINUOUS
 10
-151.725
 20
-1.0
  1
アンカーピッチ
 40
3.0
 50
90.0
 72
     5
 11
-151.725
 21
22.25
  0
TEXT
  7
TextStyle03
  8
文字
  6
CONTINUOUS
 10
-134.725
 20
101.8
  1
アンカーピッチ
 40
3.0
 72
     5
 11
-111.475
 21
101.8
  0
TEXT
  7
TextStyle03
  8
文字
  6
CONTINUOUS
 10
66.325
 20
95.525
  1
ＮＳコード：ＮＳ４ＣＺ
 40
5.0
 72
     5
 11
127.575
 21
95.525
  0
TEXT
  7
TextStyle03
  8
文字
  6
CONTINUOUS
 10
14.825
 20
20.35
  1
は排水穴位置を示す
 40
3.0
 72
     5
 11
44.825
 21
20.35
  0
TEXT
  7
TextStyle03
  8
文字
  6
CONTINUOUS
 10
14.825
 20
12.5
  1
はケーシング位置を示す
 40
3.0
 72
     5
 11
51.575
 21
12.5
  0
TEXT
  7
TextStyle03
  8
文字
  6
CONTINUOUS
 10
14.825
 20
9.125
  1
４ヶ所中1ヶ所に設定
 40
3.0
 72
     5
 11
46.5125
 21
9.125
  0
TEXT
  7
TextStyle03
  8
文字
  6
CONTINUOUS
 10
9.225
 20
1.975
  1
アンカー数量　８ヶ所
 40
3.0
 72
     5
 11
42.6
 21
1.975
  0
TEXT
  7
TextStyle03
  8
文字
  6
CONTINUOUS
 10
127.35
 20
-5.875
  1
×４枚
 40
3.0
 72
     5
 11
137.1
 21
-5.875
  0
TEXT
  7
TextStyle03
  8
文字
  6
CONTINUOUS
 10
87.075
 20
43.85
  1
ガラス寸法
 40
3.0
 72
     5
 11
103.575
 21
43.85
  0
TEXT
  7
TextStyle03
  8
文字
  6
CONTINUOUS
 10
9.15
 20
-4.875
  1
アームユニット数　２ヶ所
 40
3.0
 72
     5
 11
49.275
 21
-4.875
  0
TEXT
  7
TextStyle03
  8
文字
  6
CONTINUOUS
 10
66.625
 20
117.825
  1
シリーズ：ＴＦ２４
 40
5.0
 72
     5
 11
116.625
 21
117.825
  0
TEXT
  7
TextStyle03
  8
文字
  6
CONTINUOUS
 10
66.625
 20
112.2
  1
　　　　　四角錘（上下可動）1300×1300タイプ
 40
5.0
 72
     5
 11
189.75
 21
112.2
  0
TEXT
  7
TextStyle03
  8
文字
  6
CONTINUOUS
 10
66.625
 20
106.575
  1
図面名　：外観姿図
 40
5.0
 72
     5
 11
116.625
 21
106.575
  0
TEXT
  7
TextStyle03
  8
文字
  6
CONTINUOUS
 10
66.625
 20
100.95
  1
　　　　　　
 40
5.0
 72
     5
 11
99.75
 21
100.95
  0
INSERT
  2
*DIM_0002
  8
寸法
  6
CONTINUOUS
 10
0.0
 20
0.0
  0
INSERT
  2
*DIM_0003
  8
寸法
  6
CONTINUOUS
 10
0.0
 20
0.0
  0
INSERT
  2
*DIM_0004
  8
寸法
  6
CONTINUOUS
 10
0.0
 20
0.0
  0
INSERT
  2
*DIM_0005
  8
寸法
  6
CONTINUOUS
 10
0.0
 20
0.0
  0
INSERT
  2
*DIM_0006
  8
寸法
  6
CONTINUOUS
 10
0.0
 20
0.0
  0
INSERT
  2
*DIM_0007
  8
寸法
  6
CONTINUOUS
 10
0.0
 20
0.0
  0
INSERT
  2
*DIM_0008
  8
寸法
  6
CONTINUOUS
 10
0.0
 20
0.0
  0
INSERT
  2
*DIM_0009
  8
寸法
  6
CONTINUOUS
 10
0.0
 20
0.0
  0
INSERT
  2
*DIM_0010
  8
寸法
  6
CONTINUOUS
 10
0.0
 20
0.0
  0
INSERT
  2
*GRP_0011
  8
寸法
  6
CONTINUOUS
 10
0.0
 20
0.0
  0
INSERT
  2
*DIM_0012
  8
寸法
  6
CONTINUOUS
 10
0.0
 20
0.0
  0
INSERT
  2
*DIM_0013
  8
寸法
  6
CONTINUOUS
 10
0.0
 20
0.0
  0
INSERT
  2
*DIM_0028
  8
寸法
  6
CONTINUOUS
 10
0.0
 20
0.0
  0
INSERT
  2
*DIM_0029
  8
寸法
  6
CONTINUOUS
 10
0.0
 20
0.0
  0
INSERT
  2
*DIM_0030
  8
寸法
  6
CONTINUOUS
 10
0.0
 20
0.0
  0
LINE
  8
曲げ物
  6
CONTINUOUS
 10
149.378162
 20
-8.939517
 11
79.598163
 21
-8.939517
  0
LINE
  8
曲げ物
  6
CONTINUOUS
 10
79.598163
 20
-8.939517
 11
114.488163
 21
40.402185
  0
LINE
  8
曲げ物
  6
CONTINUOUS
 10
149.378162
 20
-8.939517
 11
114.488163
 21
40.402185
  0
ENDSEC
  0
EOF
