  0
SECTION
  2
HEADER
  9
$EXTMIN
 10
-210.0
 20
-148.5
  9
$EXTMAX
 10
210.0
 20
148.5
  9
$PDMODE
 70
    32
  9
$PDSIZE
 40
1.5
  9
$LTSCALE
 40
10.0
  0
ENDSEC
  0
SECTION
  2
TABLES
  0
TABLE
  2
LTYPE
 70
    15
  0
LTYPE
  2
CONTINUOUS
 70
    64
  3
実線
 72
    65
 73
     0
 40
0.0
  0
LTYPE
  2
DASHED
 70
    64
  3
破線A
 72
    65
 73
     2
 40
0.6
 49
0.4
 49
-0.2
  0
LTYPE
  2
DASHEDX2
 70
    64
  3
破線B
 72
    65
 73
     2
 40
1.3
 49
0.9
 49
-0.4
  0
LTYPE
  2
DASHDOT
 70
    64
  3
１点鎖線A
 72
    65
 73
     4
 40
0.5375
 49
0.375
 49
-0.05
 49
0.0625
 49
-0.05
  0
LTYPE
  2
DASHDOTX2
 70
    64
  3
１点鎖線B
 72
    65
 73
     4
 40
1.075
 49
0.75
 49
-0.1
 49
0.125
 49
-0.1
  0
LTYPE
  2
DIVIDE2
 70
    64
  3
２点鎖線A
 72
    65
 73
     6
 40
0.5125
 49
0.3
 49
-0.0375
 49
0.05
 49
-0.0375
 49
0.05
 49
-0.0375
  0
LTYPE
  2
DIVIDE
 70
    64
  3
２点鎖線B
 72
    65
 73
     6
 40
1.05
 49
0.55
 49
-0.1
 49
0.1
 49
-0.1
 49
0.1
 49
-0.1
  0
LTYPE
  2
DOT
 70
    64
  3
点線A
 72
    65
 73
     2
 40
0.1125
 49
0.0625
 49
-0.05
  0
LTYPE
  2
DOTX2
 70
    64
  3
点線B
 72
    65
 73
     2
 40
0.275
 49
0.15
 49
-0.125
  0
LTYPE
  2
CONTINUOUS
 70
    64
  3
実線
 72
    65
 73
     0
 40
0.0
  0
LTYPE
  2
CONTINUOUS
 70
    64
  3
実線
 72
    65
 73
     0
 40
0.0
  0
LTYPE
  2
CONTINUOUS
 70
    64
  3
実線
 72
    65
 73
     0
 40
0.0
  0
LTYPE
  2
CONTINUOUS
 70
    64
  3
実線
 72
    65
 73
     0
 40
0.0
  0
LTYPE
  2
CONTINUOUS
 70
    64
  3
実線
 72
    65
 73
     0
 40
0.0
  0
LTYPE
  2
CONTINUOUS
 70
    64
  3
実線
 72
    65
 73
     0
 40
0.0
  0
ENDTAB
  0
TABLE
  2
LAYER
 70
    34
  0
LAYER
  2
通り芯
 70
     0
 62
    15
  6
CONTINUOUS
  0
LAYER
  2
補助線
 70
     0
 62
    16
  6
DOT
  0
LAYER
  2
躯体
 70
     0
 62
    31
  6
CONTINUOUS
  0
LAYER
  2
型材
 70
     0
 62
    32
  6
CONTINUOUS
  0
LAYER
  2
型材断面
 70
     0
 62
    47
  6
CONTINUOUS
  0
LAYER
  2
ガラス
 70
     0
 62
    48
  6
CONTINUOUS
  0
LAYER
  2
ゴム等
 70
     0
 62
    63
  6
CONTINUOUS
  0
LAYER
  2
ボルト／ビス
 70
     0
 62
    64
  6
CONTINUOUS
  0
LAYER
  2
文字
 70
     0
 62
    79
  6
CONTINUOUS
  0
LAYER
  2
寸法
 70
     0
 62
    80
  6
CONTINUOUS
  0
LAYER
  2
ﾊｯﾁﾝｸﾞ
 70
     0
 62
    95
  6
CONTINUOUS
  0
LAYER
  2
別途部材
 70
     0
 62
    96
  6
CONTINUOUS
  0
LAYER
  2
曲げ物
 70
     0
 62
   111
  6
CONTINUOUS
  0
LAYER
  2
鉄骨等
 70
     0
 62
   112
  6
CONTINUOUS
  0
LAYER
  2
St
 70
     0
 62
   127
  6
CONTINUOUS
  0
LAYER
  2
その他部品等
 70
     0
 62
   128
  6
CONTINUOUS
  0
LAYER
  2
ｶﾞｽｹｯﾄ
 70
     0
 62
   143
  6
CONTINUOUS
  0
LAYER
  2
ｽｹｯﾁ
 70
     0
 62
    14
  6
CONTINUOUS
  0
LAYER
  2
0
 70
     0
 62
    17
  6
CONTINUOUS
  0
LAYER
  2
1
 70
     0
 62
    30
  6
CONTINUOUS
  0
LAYER
  2
4
 70
     0
 62
    33
  6
CONTINUOUS
  0
LAYER
  2
ﾚｲﾔ3
 70
     0
 62
    46
  6
CONTINUOUS
  0
LAYER
  2
外形線
 70
     0
 62
    49
  6
CONTINUOUS
  0
LAYER
  2
部品
 70
     0
 62
    14
  6
CONTINUOUS
  0
LAYER
  2
サッシ芯
 70
     0
 62
    17
  6
DASHDOTX2
  0
LAYER
  2
寸法線
 70
     0
 62
    62
  6
CONTINUOUS
  0
LAYER
  2
姿図外形線
 70
     0
 62
    65
  6
CONTINUOUS
  0
LAYER
  2
姿補助線
 70
     0
 62
    30
  6
CONTINUOUS
  0
LAYER
  2
透視線
 70
     0
 62
    78
  6
DOT
  0
LAYER
  2
用紙
 70
     0
 62
    81
  6
CONTINUOUS
  0
LAYER
  2
実線図枠
 70
     0
 62
    94
  6
CONTINUOUS
  0
LAYER
  2
補助図枠
 70
     0
 62
    97
  6
CONTINUOUS
  0
LAYER
  2
建具記号
 70
     0
 62
   110
  6
CONTINUOUS
  0
LAYER
  2
補助文字
 70
     0
 62
   113
  6
CONTINUOUS
  0
ENDTAB
  0
TABLE
  2
STYLE
 70
    10
  0
STYLE
  2
STANDARD
 70
     0
 40
1.0
 41
1.0
 42
1.0
 50
0.0
 71
     0
  3
TXT
  4
BIGFONT
  0
STYLE
  2
TATE
 70
     4
 40
1.0
 41
1.0
 42
1.0
 50
0.0
 71
     0
  3
TXT
  4
BIGFONT
  0
STYLE
  2
TextStyle03
 70
     0
 40
1.0
 41
1.0
 42
1.0
 50
0.0
 71
     0
  3
MONOTXT
  4
BIGFONT
  0
STYLE
  2
TextStyle04
 70
     0
 40
1.0
 41
1.0
 42
1.0
 50
0.0
 71
     0
  3
MONOTXT
  4
BIGFONT
  0
STYLE
  2
TextStyle05
 70
     0
 40
1.0
 41
1.0
 42
1.0
 50
0.0
 71
     0
  3
MONOTXT
  4
BIGFONT
  0
STYLE
  2
TextStyle06
 70
     0
 40
1.0
 41
1.0
 42
1.0
 50
0.0
 71
     0
  3
MONOTXT
  4
BIGFONT
  0
STYLE
  2
TextStyle07
 70
     0
 40
1.0
 41
1.0
 42
1.0
 50
0.0
 71
     0
  3
MONOTXT
  4
BIGFONT
  0
STYLE
  2
TextStyle08
 70
     0
 40
1.0
 41
1.0
 42
1.0
 50
0.0
 71
     0
  3
MONOTXT
  4
BIGFONT
  0
STYLE
  2
TextStyle09
 70
     0
 40
1.0
 41
1.0
 42
1.0
 50
0.0
 71
     0
  3
MONOTXT
  4
BIGFONT
  0
STYLE
  2
TextStyle10
 70
     0
 40
1.0
 41
1.0
 42
1.0
 50
0.0
 71
     0
  3
MONOTXT
  4
BIGFONT
  0
ENDTAB
  0
ENDSEC
  0
SECTION
  2
BLOCKS
  0
BLOCK
  2
*GRP_0001
 70
    65
 10
0.0
 20
0.0
  0
LINE
  8
型材断面
  6
CONTINUOUS
 10
195.0
 20
133.5
 11
195.0
 21
-133.5
  0
LINE
  8
型材断面
  6
CONTINUOUS
 10
195.0
 20
-133.5
 11
-185.0
 21
-133.5
  0
LINE
  8
型材断面
  6
CONTINUOUS
 10
-185.0
 20
-133.5
 11
-185.0
 21
133.5
  0
LINE
  8
型材断面
  6
CONTINUOUS
 10
195.0
 20
133.5
 11
-185.0
 21
133.5
  0
LINE
  8
型材断面
  6
CONTINUOUS
 10
145.0
 20
-133.5
 11
145.0
 21
-118.5
  0
LINE
  8
型材断面
  6
CONTINUOUS
 10
195.0
 20
-118.5
 11
145.0
 21
-118.5
  0
ENDBLK
  0
BLOCK
  2
*DIM_0002
 70
    65
 10
0.0
 20
0.0
  0
LINE
  8
寸法
  6
BYBLOCK
 62
     0
 10
-128.742993
 20
-22.207025
 11
-128.742993
 21
-22.536362
  0
LINE
  8
寸法
  6
BYBLOCK
 62
     0
 10
71.257007
 20
-22.207025
 11
71.257007
 21
-22.536362
  0
LINE
  8
寸法
  6
BYBLOCK
 62
     0
 10
-128.742993
 20
-22.536362
 11
71.257007
 21
-22.536362
  0
POINT
  8
寸法
 62
     0
 10
-128.742993
 20
-22.536362
  0
POINT
  8
寸法
 62
     0
 10
71.257007
 20
-22.536362
  0
TEXT
  7
TextStyle03
  8
寸法
  6
CONTINUOUS
 62
     0
 10
-40.46875
 20
-22.175
  1
呼称寸法　6000
 40
3.0
 72
     5
 11
-17.03125
 21
-22.175
  0
ENDBLK
  0
BLOCK
  2
*DIM_0003
 70
    65
 10
0.0
 20
0.0
  0
LINE
  8
寸法
  6
BYBLOCK
 62
     0
 10
57.257007
 20
-71.291265
 11
87.226657
 21
-71.291265
  0
LINE
  8
寸法
  6
BYBLOCK
 62
     0
 10
87.226657
 20
-79.624597
 11
87.226657
 21
-71.291265
  0
POINT
  8
寸法
 62
     0
 10
87.226657
 20
-79.624597
  0
POINT
  8
寸法
 62
     0
 10
87.226657
 20
-71.291265
  0
TEXT
  7
TextStyle03
  8
寸法
  6
CONTINUOUS
 62
     0
 10
86.85
 20
-77.9125
  1
250
 40
3.0
 50
90.0
 72
     5
 11
86.85
 21
-73.0375
  0
ENDBLK
  0
BLOCK
  2
*DIM_0004
 70
    65
 10
0.0
 20
0.0
  0
LINE
  8
寸法
  6
BYBLOCK
 62
     0
 10
152.45694
 20
29.399048
 11
152.45694
 21
58.954983
  0
LINE
  8
寸法
  6
BYBLOCK
 62
     0
 10
160.790272
 20
58.954983
 11
152.45694
 21
58.954983
  0
POINT
  8
寸法
 62
     0
 10
160.790272
 20
58.954983
  0
POINT
  8
寸法
 62
     0
 10
152.45694
 20
58.954983
  0
TEXT
  7
TextStyle03
  8
寸法
  6
CONTINUOUS
 62
     0
 10
154.1625
 20
59.325
  1
250
 40
3.0
 72
     5
 11
159.0375
 21
59.325
  0
ENDBLK
  0
BLOCK
  2
*DIM_0005
 70
    65
 10
0.0
 20
0.0
  0
LINE
  8
寸法
  6
BYBLOCK
 62
     0
 10
105.276657
 20
13.399048
 11
105.276657
 21
43.399048
  0
POINT
  8
寸法
 62
     0
 10
105.276657
 20
13.399048
  0
POINT
  8
寸法
 62
     0
 10
105.276657
 20
43.399048
  0
TEXT
  7
TextStyle03
  8
寸法
  6
CONTINUOUS
 62
     0
 10
104.9
 20
17.5
  1
呼称寸法　900
 40
3.0
 50
90.0
 72
     5
 11
104.9
 21
39.25
  0
ENDBLK
  0
BLOCK
  2
*DIM_0006
 70
    65
 10
0.0
 20
0.0
  0
LINE
  8
寸法
  6
BYBLOCK
 62
     0
 10
134.010227
 20
-61.40435
 11
134.010227
 21
-53.939197
  0
LINE
  8
寸法
  6
BYBLOCK
 62
     0
 10
166.343563
 20
-61.40435
 11
166.343563
 21
-53.939197
  0
LINE
  8
寸法
  6
BYBLOCK
 62
     0
 10
134.010227
 20
-53.939197
 11
166.343563
 21
-53.939197
  0
POINT
  8
寸法
 62
     0
 10
134.010227
 20
-53.939197
  0
POINT
  8
寸法
 62
     0
 10
166.343563
 20
-53.939197
  0
TEXT
  7
TextStyle03
  8
寸法
  6
CONTINUOUS
 62
     0
 10
147.7375
 20
-53.55
  1
970
 40
3.0
 72
     5
 11
152.6125
 21
-53.55
  0
ENDBLK
  0
BLOCK
  2
*DIM_0007
 70
    65
 10
0.0
 20
0.0
  0
LINE
  8
寸法
  6
BYBLOCK
 62
     0
 10
167.343563
 20
-63.20038
 11
175.401852
 21
-63.20038
  0
LINE
  8
寸法
  6
BYBLOCK
 62
     0
 10
167.343563
 20
-92.533713
 11
175.401852
 21
-92.533713
  0
LINE
  8
寸法
  6
BYBLOCK
 62
     0
 10
175.401852
 20
-63.20038
 11
175.401852
 21
-92.533713
  0
POINT
  8
寸法
 62
     0
 10
175.401852
 20
-63.20038
  0
POINT
  8
寸法
 62
     0
 10
175.401852
 20
-92.533713
  0
TEXT
  7
TextStyle03
  8
寸法
  6
CONTINUOUS
 62
     0
 10
175.025
 20
-80.3125
  1
880
 40
3.0
 50
90.0
 72
     5
 11
175.025
 21
-75.4375
  0
ENDBLK
  0
BLOCK
  2
*DIM_0008
 70
    65
 10
0.0
 20
0.0
  0
LINE
  8
寸法
  6
BYBLOCK
 62
     0
 10
-112.076325
 20
9.768917
 11
-112.076325
 21
4.76842
  0
LINE
  8
寸法
  6
BYBLOCK
 62
     0
 10
-28.742993
 20
9.76892
 11
-28.742993
 21
4.76842
  0
LINE
  8
寸法
  6
BYBLOCK
 62
     0
 10
-112.076325
 20
4.76842
 11
-28.742993
 21
4.76842
  0
POINT
  8
寸法
 62
     0
 10
-112.076325
 20
4.76842
  0
POINT
  8
寸法
 62
     0
 10
-28.742993
 20
4.76842
  0
TEXT
  7
TextStyle03
  8
寸法
  6
CONTINUOUS
 62
     0
 10
-73.70625
 20
5.125
  1
2500
 40
3.0
 72
     5
 11
-67.14375
 21
5.125
  0
ENDBLK
  0
BLOCK
  2
*DIM_0009
 70
    65
 10
0.0
 20
0.0
  0
LINE
  8
寸法
  6
BYBLOCK
 62
     0
 10
54.59034
 20
9.768917
 11
54.59034
 21
4.76842
  0
LINE
  8
寸法
  6
BYBLOCK
 62
     0
 10
-28.742993
 20
4.76842
 11
54.59034
 21
4.76842
  0
POINT
  8
寸法
 62
     0
 10
54.59034
 20
4.76842
  0
TEXT
  7
TextStyle03
  8
寸法
  6
CONTINUOUS
 62
     0
 10
9.61875
 20
5.125
  1
2500
 40
3.0
 72
     5
 11
16.18125
 21
5.125
  0
ENDBLK
  0
BLOCK
  2
*DIM_0010
 70
    65
 10
0.0
 20
0.0
  0
LINE
  8
寸法
  6
BYBLOCK
 62
     0
 10
72.257007
 20
43.39905
 11
81.98129
 21
43.39905
  0
LINE
  8
寸法
  6
BYBLOCK
 62
     0
 10
74.887138
 20
39.69905
 11
81.98129
 21
39.69905
  0
LINE
  8
寸法
  6
BYBLOCK
 62
     0
 10
81.98129
 20
43.39905
 11
81.98129
 21
39.69905
  0
POINT
  8
寸法
 62
     0
 10
81.98129
 20
43.39905
  0
POINT
  8
寸法
 62
     0
 10
81.98129
 20
39.69905
  0
TEXT
  7
TextStyle03
  8
寸法
  6
CONTINUOUS
 62
     0
 10
81.65
 20
44.4125
  1
111
 40
3.0
 50
90.0
 72
     5
 11
81.65
 21
49.2875
  0
ENDBLK
  0
BLOCK
  2
*DIM_0011
 70
    65
 10
0.0
 20
0.0
  0
LINE
  8
寸法
  6
BYBLOCK
 62
     0
 10
72.257007
 20
13.399045
 11
81.98129
 21
13.399042
  0
LINE
  8
寸法
  6
BYBLOCK
 62
     0
 10
74.887138
 20
17.099045
 11
81.98129
 21
17.099042
  0
LINE
  8
寸法
  6
BYBLOCK
 62
     0
 10
81.98129
 20
13.399042
 11
81.98129
 21
17.099042
  0
POINT
  8
寸法
 62
     0
 10
81.98129
 20
13.399042
  0
POINT
  8
寸法
 62
     0
 10
81.98129
 20
17.099042
  0
TEXT
  7
TextStyle03
  8
寸法
  6
CONTINUOUS
 62
     0
 10
81.65
 20
7.5375
  1
111
 40
3.0
 50
90.0
 72
     5
 11
81.65
 21
12.4125
  0
ENDBLK
  0
BLOCK
  2
*GRP_0012
 70
    65
 10
0.0
 20
0.0
  0
LINE
  8
別途部材
  6
CONTINUOUS
 62
    96
 10
-130.409657
 20
-79.624597
 11
-130.809657
 21
-80.624597
  0
LINE
  8
別途部材
  6
CONTINUOUS
 62
    96
 10
-130.409657
 20
-79.624597
 11
-28.742993
 21
-79.624597
  0
LINE
  8
別途部材
  6
CONTINUOUS
 10
-130.809657
 20
-80.624597
 11
-28.742993
 21
-80.624597
  0
LINE
  8
別途部材
  6
CONTINUOUS
 10
-29.242993
 20
-70.291265
 11
-30.242993
 21
-71.291265
  0
LINE
  8
別途部材
  6
CONTINUOUS
 10
-31.242993
 20
-71.291265
 11
-32.242993
 21
-70.291265
  0
LINE
  8
別途部材
  6
CONTINUOUS
 10
-33.242993
 20
-70.291265
 11
-34.242993
 21
-71.291265
  0
LINE
  8
別途部材
  6
CONTINUOUS
 10
-32.242993
 20
-70.291265
 11
-33.242993
 21
-70.291265
  0
LINE
  8
別途部材
  6
CONTINUOUS
 10
-29.242993
 20
-70.291265
 11
-28.742993
 21
-70.291265
  0
LINE
  8
別途部材
  6
CONTINUOUS
 10
-35.242993
 20
-71.291265
 11
-36.242993
 21
-70.291265
  0
LINE
  8
別途部材
  6
CONTINUOUS
 10
-37.242993
 20
-70.291265
 11
-38.242993
 21
-71.291265
  0
LINE
  8
別途部材
  6
CONTINUOUS
 10
-36.242993
 20
-70.291265
 11
-37.242993
 21
-70.291265
  0
LINE
  8
別途部材
  6
CONTINUOUS
 10
-39.242993
 20
-71.291265
 11
-40.242993
 21
-70.291265
  0
LINE
  8
別途部材
  6
CONTINUOUS
 10
-41.242993
 20
-70.291265
 11
-42.242993
 21
-71.291265
  0
LINE
  8
別途部材
  6
CONTINUOUS
 10
-40.242993
 20
-70.291265
 11
-41.242993
 21
-70.291265
  0
LINE
  8
別途部材
  6
CONTINUOUS
 10
-43.242993
 20
-71.291265
 11
-44.242993
 21
-70.291265
  0
LINE
  8
別途部材
  6
CONTINUOUS
 10
-45.242993
 20
-70.291265
 11
-46.242993
 21
-71.291265
  0
LINE
  8
別途部材
  6
CONTINUOUS
 10
-44.242993
 20
-70.291265
 11
-45.242993
 21
-70.291265
  0
LINE
  8
別途部材
  6
CONTINUOUS
 10
-47.242993
 20
-71.291265
 11
-48.242993
 21
-70.291265
  0
LINE
  8
別途部材
  6
CONTINUOUS
 10
-49.242993
 20
-70.291265
 11
-50.242993
 21
-71.291265
  0
LINE
  8
別途部材
  6
CONTINUOUS
 10
-48.242993
 20
-70.291265
 11
-49.242993
 21
-70.291265
  0
LINE
  8
別途部材
  6
CONTINUOUS
 10
-51.242993
 20
-71.291265
 11
-52.242993
 21
-70.291265
  0
LINE
  8
別途部材
  6
CONTINUOUS
 10
-53.242993
 20
-70.291265
 11
-54.242993
 21
-71.291265
  0
LINE
  8
別途部材
  6
CONTINUOUS
 10
-52.242993
 20
-70.291265
 11
-53.242993
 21
-70.291265
  0
LINE
  8
別途部材
  6
CONTINUOUS
 10
-55.242993
 20
-71.291265
 11
-56.242993
 21
-70.291265
  0
LINE
  8
別途部材
  6
CONTINUOUS
 10
-57.242993
 20
-70.291265
 11
-58.242993
 21
-71.291265
  0
LINE
  8
別途部材
  6
CONTINUOUS
 10
-56.242993
 20
-70.291265
 11
-57.242993
 21
-70.291265
  0
LINE
  8
別途部材
  6
CONTINUOUS
 10
-59.242993
 20
-71.291265
 11
-60.242993
 21
-70.291265
  0
LINE
  8
別途部材
  6
CONTINUOUS
 10
-61.242993
 20
-70.291265
 11
-62.242993
 21
-71.291265
  0
LINE
  8
別途部材
  6
CONTINUOUS
 10
-60.242993
 20
-70.291265
 11
-61.242993
 21
-70.291265
  0
LINE
  8
別途部材
  6
CONTINUOUS
 10
-63.242993
 20
-71.291265
 11
-64.242993
 21
-70.291265
  0
LINE
  8
別途部材
  6
CONTINUOUS
 10
-65.242993
 20
-70.291265
 11
-66.242993
 21
-71.291265
  0
LINE
  8
別途部材
  6
CONTINUOUS
 10
-64.242993
 20
-70.291265
 11
-65.242993
 21
-70.291265
  0
LINE
  8
別途部材
  6
CONTINUOUS
 10
-67.242993
 20
-71.291265
 11
-68.242993
 21
-70.291265
  0
LINE
  8
別途部材
  6
CONTINUOUS
 10
-69.242993
 20
-70.291265
 11
-70.242993
 21
-71.291265
  0
LINE
  8
別途部材
  6
CONTINUOUS
 10
-68.242993
 20
-70.291265
 11
-69.242993
 21
-70.291265
  0
LINE
  8
別途部材
  6
CONTINUOUS
 10
-71.242993
 20
-71.291265
 11
-72.242993
 21
-70.291265
  0
LINE
  8
別途部材
  6
CONTINUOUS
 10
-73.242993
 20
-70.291265
 11
-74.242993
 21
-71.291265
  0
LINE
  8
別途部材
  6
CONTINUOUS
 10
-72.242993
 20
-70.291265
 11
-73.242993
 21
-70.291265
  0
LINE
  8
別途部材
  6
CONTINUOUS
 10
-70.242993
 20
-71.291265
 11
-71.242993
 21
-71.291265
  0
LINE
  8
別途部材
  6
CONTINUOUS
 10
-66.242993
 20
-71.291265
 11
-67.242993
 21
-71.291265
  0
LINE
  8
別途部材
  6
CONTINUOUS
 10
-62.242993
 20
-71.291265
 11
-63.242993
 21
-71.291265
  0
LINE
  8
別途部材
  6
CONTINUOUS
 10
-58.242993
 20
-71.291265
 11
-59.242993
 21
-71.291265
  0
LINE
  8
別途部材
  6
CONTINUOUS
 10
-54.242993
 20
-71.291265
 11
-55.242993
 21
-71.291265
  0
LINE
  8
別途部材
  6
CONTINUOUS
 10
-50.242993
 20
-71.291265
 11
-51.242993
 21
-71.291265
  0
LINE
  8
別途部材
  6
CONTINUOUS
 10
-46.242993
 20
-71.291265
 11
-47.242993
 21
-71.291265
  0
LINE
  8
別途部材
  6
CONTINUOUS
 10
-42.242993
 20
-71.291265
 11
-43.242993
 21
-71.291265
  0
LINE
  8
別途部材
  6
CONTINUOUS
 10
-38.242993
 20
-71.291265
 11
-39.242993
 21
-71.291265
  0
LINE
  8
別途部材
  6
CONTINUOUS
 10
-34.242993
 20
-71.291265
 11
-35.242993
 21
-71.291265
  0
LINE
  8
別途部材
  6
CONTINUOUS
 10
-31.242993
 20
-71.291265
 11
-30.242993
 21
-71.291265
  0
LINE
  8
別途部材
  6
CONTINUOUS
 10
-75.242993
 20
-71.291265
 11
-76.242993
 21
-70.291265
  0
LINE
  8
別途部材
  6
CONTINUOUS
 10
-77.242993
 20
-70.291265
 11
-78.242993
 21
-71.291265
  0
LINE
  8
別途部材
  6
CONTINUOUS
 10
-76.242993
 20
-70.291265
 11
-77.242993
 21
-70.291265
  0
LINE
  8
別途部材
  6
CONTINUOUS
 10
-79.242993
 20
-71.291265
 11
-80.242993
 21
-70.291265
  0
LINE
  8
別途部材
  6
CONTINUOUS
 10
-81.242993
 20
-70.291265
 11
-82.242993
 21
-71.291265
  0
LINE
  8
別途部材
  6
CONTINUOUS
 10
-80.242993
 20
-70.291265
 11
-81.242993
 21
-70.291265
  0
LINE
  8
別途部材
  6
CONTINUOUS
 10
-83.242993
 20
-71.291265
 11
-84.242993
 21
-70.291265
  0
LINE
  8
別途部材
  6
CONTINUOUS
 10
-85.242993
 20
-70.291265
 11
-86.242993
 21
-71.291265
  0
LINE
  8
別途部材
  6
CONTINUOUS
 10
-84.242993
 20
-70.291265
 11
-85.242993
 21
-70.291265
  0
LINE
  8
別途部材
  6
CONTINUOUS
 10
-87.242993
 20
-71.291265
 11
-88.242993
 21
-70.291265
  0
LINE
  8
別途部材
  6
CONTINUOUS
 10
-89.242993
 20
-70.291265
 11
-90.242993
 21
-71.291265
  0
LINE
  8
別途部材
  6
CONTINUOUS
 10
-88.242993
 20
-70.291265
 11
-89.242993
 21
-70.291265
  0
LINE
  8
別途部材
  6
CONTINUOUS
 10
-91.242993
 20
-71.291265
 11
-92.242993
 21
-70.291265
  0
LINE
  8
別途部材
  6
CONTINUOUS
 10
-93.242993
 20
-70.291265
 11
-94.242993
 21
-71.291265
  0
LINE
  8
別途部材
  6
CONTINUOUS
 10
-92.242993
 20
-70.291265
 11
-93.242993
 21
-70.291265
  0
LINE
  8
別途部材
  6
CONTINUOUS
 10
-95.242993
 20
-71.291265
 11
-96.242993
 21
-70.291265
  0
LINE
  8
別途部材
  6
CONTINUOUS
 10
-97.242993
 20
-70.291265
 11
-98.242993
 21
-71.291265
  0
LINE
  8
別途部材
  6
CONTINUOUS
 10
-96.242993
 20
-70.291265
 11
-97.242993
 21
-70.291265
  0
LINE
  8
別途部材
  6
CONTINUOUS
 10
-99.242993
 20
-71.291265
 11
-100.242993
 21
-70.291265
  0
LINE
  8
別途部材
  6
CONTINUOUS
 10
-101.242993
 20
-70.291265
 11
-102.242993
 21
-71.291265
  0
LINE
  8
別途部材
  6
CONTINUOUS
 10
-100.242993
 20
-70.291265
 11
-101.242993
 21
-70.291265
  0
LINE
  8
別途部材
  6
CONTINUOUS
 10
-103.242993
 20
-71.291265
 11
-104.242993
 21
-70.291265
  0
LINE
  8
別途部材
  6
CONTINUOUS
 10
-105.242993
 20
-70.291265
 11
-106.242993
 21
-71.291265
  0
LINE
  8
別途部材
  6
CONTINUOUS
 10
-104.242993
 20
-70.291265
 11
-105.242993
 21
-70.291265
  0
LINE
  8
別途部材
  6
CONTINUOUS
 10
-102.242993
 20
-71.291265
 11
-103.242993
 21
-71.291265
  0
LINE
  8
別途部材
  6
CONTINUOUS
 10
-98.242993
 20
-71.291265
 11
-99.242993
 21
-71.291265
  0
LINE
  8
別途部材
  6
CONTINUOUS
 10
-94.242993
 20
-71.291265
 11
-95.242993
 21
-71.291265
  0
LINE
  8
別途部材
  6
CONTINUOUS
 10
-90.242993
 20
-71.291265
 11
-91.242993
 21
-71.291265
  0
LINE
  8
別途部材
  6
CONTINUOUS
 10
-86.242993
 20
-71.291265
 11
-87.242993
 21
-71.291265
  0
LINE
  8
別途部材
  6
CONTINUOUS
 10
-82.242993
 20
-71.291265
 11
-83.242993
 21
-71.291265
  0
LINE
  8
別途部材
  6
CONTINUOUS
 10
-78.242993
 20
-71.291265
 11
-79.242993
 21
-71.291265
  0
LINE
  8
別途部材
  6
CONTINUOUS
 10
-74.242993
 20
-71.291265
 11
-75.242993
 21
-71.291265
  0
LINE
  8
別途部材
  6
CONTINUOUS
 10
-106.242993
 20
-71.291265
 11
-106.242993
 21
-79.624597
  0
LINE
  8
別途部材
  6
CONTINUOUS
 10
-104.242993
 20
-70.291265
 11
-104.242993
 21
-79.624597
  0
LINE
  8
別途部材
  6
CONTINUOUS
 10
-105.242993
 20
-70.291265
 11
-105.242993
 21
-79.624597
  0
LINE
  8
別途部材
  6
CONTINUOUS
 10
-102.242993
 20
-71.291265
 11
-102.242993
 21
-79.624597
  0
LINE
  8
別途部材
  6
CONTINUOUS
 10
-103.242993
 20
-71.291265
 11
-103.242993
 21
-79.624597
  0
LINE
  8
別途部材
  6
CONTINUOUS
 10
-101.242993
 20
-70.291265
 11
-101.242993
 21
-79.624597
  0
LINE
  8
別途部材
  6
CONTINUOUS
 10
-99.242993
 20
-71.291265
 11
-99.242993
 21
-79.624597
  0
LINE
  8
別途部材
  6
CONTINUOUS
 10
-100.242993
 20
-70.291265
 11
-100.242993
 21
-79.624597
  0
LINE
  8
別途部材
  6
CONTINUOUS
 10
-98.242993
 20
-71.291265
 11
-98.242993
 21
-79.624597
  0
LINE
  8
別途部材
  6
CONTINUOUS
 10
-97.242993
 20
-70.291265
 11
-97.242993
 21
-79.624597
  0
LINE
  8
別途部材
  6
CONTINUOUS
 10
-95.242993
 20
-71.291265
 11
-95.242993
 21
-79.624597
  0
LINE
  8
別途部材
  6
CONTINUOUS
 10
-96.242993
 20
-70.291265
 11
-96.242993
 21
-79.624597
  0
LINE
  8
別途部材
  6
CONTINUOUS
 10
-93.242993
 20
-70.291265
 11
-93.242993
 21
-79.624597
  0
LINE
  8
別途部材
  6
CONTINUOUS
 10
-94.242993
 20
-71.291265
 11
-94.242993
 21
-79.624597
  0
LINE
  8
別途部材
  6
CONTINUOUS
 10
-91.242993
 20
-71.291265
 11
-91.242993
 21
-79.624597
  0
LINE
  8
別途部材
  6
CONTINUOUS
 10
-92.242993
 20
-70.291265
 11
-92.242993
 21
-79.624597
  0
LINE
  8
別途部材
  6
CONTINUOUS
 10
-90.242993
 20
-71.291265
 11
-90.242993
 21
-79.624597
  0
LINE
  8
別途部材
  6
CONTINUOUS
 10
-88.242993
 20
-70.291265
 11
-88.242993
 21
-79.624597
  0
LINE
  8
別途部材
  6
CONTINUOUS
 10
-89.242993
 20
-70.291265
 11
-89.242993
 21
-79.624597
  0
LINE
  8
別途部材
  6
CONTINUOUS
 10
-87.242993
 20
-71.291265
 11
-87.242993
 21
-79.624597
  0
LINE
  8
別途部材
  6
CONTINUOUS
 10
-86.242993
 20
-71.291265
 11
-86.242993
 21
-79.624597
  0
LINE
  8
別途部材
  6
CONTINUOUS
 10
-85.242993
 20
-70.291265
 11
-85.242993
 21
-79.624597
  0
LINE
  8
別途部材
  6
CONTINUOUS
 10
-84.242993
 20
-70.291265
 11
-84.242993
 21
-79.624597
  0
LINE
  8
別途部材
  6
CONTINUOUS
 10
-80.242993
 20
-70.291265
 11
-80.242993
 21
-79.624597
  0
LINE
  8
別途部材
  6
CONTINUOUS
 10
-73.242993
 20
-70.291265
 11
-73.242993
 21
-79.624597
  0
LINE
  8
別途部材
  6
CONTINUOUS
 10
-69.242993
 20
-70.291265
 11
-69.242993
 21
-79.624597
  0
LINE
  8
別途部材
  6
CONTINUOUS
 10
-67.242993
 20
-71.291265
 11
-67.242993
 21
-79.624597
  0
LINE
  8
別途部材
  6
CONTINUOUS
 10
-72.242993
 20
-70.291265
 11
-72.242993
 21
-79.624597
  0
LINE
  8
別途部材
  6
CONTINUOUS
 10
-76.242993
 20
-70.291265
 11
-76.242993
 21
-79.624597
  0
LINE
  8
別途部材
  6
CONTINUOUS
 10
-78.242993
 20
-71.291265
 11
-78.242993
 21
-79.624597
  0
LINE
  8
別途部材
  6
CONTINUOUS
 10
-81.242993
 20
-70.291265
 11
-81.242993
 21
-79.624597
  0
LINE
  8
別途部材
  6
CONTINUOUS
 10
-82.242993
 20
-71.291265
 11
-82.242993
 21
-79.624597
  0
LINE
  8
別途部材
  6
CONTINUOUS
 10
-83.242993
 20
-71.291265
 11
-83.242993
 21
-79.624597
  0
LINE
  8
別途部材
  6
CONTINUOUS
 10
-79.242993
 20
-71.291265
 11
-79.242993
 21
-79.624597
  0
LINE
  8
別途部材
  6
CONTINUOUS
 10
-77.242993
 20
-70.291265
 11
-77.242993
 21
-79.624597
  0
LINE
  8
別途部材
  6
CONTINUOUS
 10
-75.242993
 20
-71.291265
 11
-75.242993
 21
-79.624597
  0
LINE
  8
別途部材
  6
CONTINUOUS
 10
-74.242993
 20
-71.291265
 11
-74.242993
 21
-79.624597
  0
LINE
  8
別途部材
  6
CONTINUOUS
 10
-71.242993
 20
-71.291265
 11
-71.242993
 21
-79.624597
  0
LINE
  8
別途部材
  6
CONTINUOUS
 10
-70.242993
 20
-71.291265
 11
-70.242993
 21
-79.624597
  0
LINE
  8
別途部材
  6
CONTINUOUS
 10
-68.242993
 20
-70.291265
 11
-68.242993
 21
-79.624597
  0
LINE
  8
別途部材
  6
CONTINUOUS
 10
-65.242993
 20
-70.291265
 11
-65.242993
 21
-79.624597
  0
LINE
  8
別途部材
  6
CONTINUOUS
 10
-66.242993
 20
-71.291265
 11
-66.242993
 21
-79.624597
  0
LINE
  8
別途部材
  6
CONTINUOUS
 10
-64.242993
 20
-70.291265
 11
-64.242993
 21
-79.624597
  0
LINE
  8
別途部材
  6
CONTINUOUS
 10
-63.242993
 20
-71.291265
 11
-63.242993
 21
-79.624597
  0
LINE
  8
別途部材
  6
CONTINUOUS
 10
-62.242993
 20
-71.291265
 11
-62.242993
 21
-79.624597
  0
LINE
  8
別途部材
  6
CONTINUOUS
 10
-61.242993
 20
-70.291265
 11
-61.242993
 21
-79.624597
  0
LINE
  8
別途部材
  6
CONTINUOUS
 10
-59.242993
 20
-71.291265
 11
-59.242993
 21
-79.624597
  0
LINE
  8
別途部材
  6
CONTINUOUS
 10
-60.242993
 20
-70.291265
 11
-60.242993
 21
-79.624597
  0
LINE
  8
別途部材
  6
CONTINUOUS
 10
-57.242993
 20
-70.291265
 11
-57.242993
 21
-79.624597
  0
LINE
  8
別途部材
  6
CONTINUOUS
 10
-58.242993
 20
-71.291265
 11
-58.242993
 21
-79.624597
  0
LINE
  8
別途部材
  6
CONTINUOUS
 10
-54.242993
 20
-71.291265
 11
-54.242993
 21
-79.624597
  0
LINE
  8
別途部材
  6
CONTINUOUS
 10
-53.242993
 20
-70.291265
 11
-53.242993
 21
-79.624597
  0
LINE
  8
別途部材
  6
CONTINUOUS
 10
-52.242993
 20
-70.291265
 11
-52.242993
 21
-79.624597
  0
LINE
  8
別途部材
  6
CONTINUOUS
 10
-55.242993
 20
-71.291265
 11
-55.242993
 21
-79.624597
  0
LINE
  8
別途部材
  6
CONTINUOUS
 10
-56.242993
 20
-70.291265
 11
-56.242993
 21
-79.624597
  0
LINE
  8
別途部材
  6
CONTINUOUS
 10
-48.242993
 20
-70.291265
 11
-48.242993
 21
-79.624597
  0
LINE
  8
別途部材
  6
CONTINUOUS
 10
-50.242993
 20
-71.291265
 11
-50.242993
 21
-79.624597
  0
LINE
  8
別途部材
  6
CONTINUOUS
 10
-51.242993
 20
-71.291265
 11
-51.242993
 21
-79.624597
  0
LINE
  8
別途部材
  6
CONTINUOUS
 10
-49.242993
 20
-70.291265
 11
-49.242993
 21
-79.624597
  0
LINE
  8
別途部材
  6
CONTINUOUS
 10
-47.242993
 20
-71.291265
 11
-47.242993
 21
-79.624597
  0
LINE
  8
別途部材
  6
CONTINUOUS
 10
-45.242993
 20
-70.291265
 11
-45.242993
 21
-79.624597
  0
LINE
  8
別途部材
  6
CONTINUOUS
 10
-44.242993
 20
-70.291265
 11
-44.242993
 21
-79.624597
  0
LINE
  8
別途部材
  6
CONTINUOUS
 10
-42.242993
 20
-71.291265
 11
-42.242993
 21
-79.624597
  0
LINE
  8
別途部材
  6
CONTINUOUS
 10
-43.242993
 20
-71.291265
 11
-43.242993
 21
-79.624597
  0
LINE
  8
別途部材
  6
CONTINUOUS
 10
-46.242993
 20
-71.291265
 11
-46.242993
 21
-79.624597
  0
LINE
  8
別途部材
  6
CONTINUOUS
 10
-41.242993
 20
-70.291265
 11
-41.242993
 21
-79.624597
  0
LINE
  8
別途部材
  6
CONTINUOUS
 10
-39.242993
 20
-71.291265
 11
-39.242993
 21
-79.624597
  0
LINE
  8
別途部材
  6
CONTINUOUS
 10
-40.242993
 20
-70.291265
 11
-40.242993
 21
-79.624597
  0
LINE
  8
別途部材
  6
CONTINUOUS
 10
-38.242993
 20
-71.291265
 11
-38.242993
 21
-79.624597
  0
LINE
  8
別途部材
  6
CONTINUOUS
 10
-37.242993
 20
-70.291265
 11
-37.242993
 21
-79.624597
  0
LINE
  8
別途部材
  6
CONTINUOUS
 10
-35.242993
 20
-71.291265
 11
-35.242993
 21
-79.624597
  0
LINE
  8
別途部材
  6
CONTINUOUS
 10
-36.242993
 20
-70.291265
 11
-36.242993
 21
-79.624597
  0
LINE
  8
別途部材
  6
CONTINUOUS
 10
-34.242993
 20
-71.291265
 11
-34.242993
 21
-79.624597
  0
LINE
  8
別途部材
  6
CONTINUOUS
 10
-33.242993
 20
-70.291265
 11
-33.242993
 21
-79.624597
  0
LINE
  8
別途部材
  6
CONTINUOUS
 10
-31.242993
 20
-71.291265
 11
-31.242993
 21
-79.624597
  0
LINE
  8
別途部材
  6
CONTINUOUS
 10
-32.242993
 20
-70.291265
 11
-32.242993
 21
-79.624597
  0
LINE
  8
別途部材
  6
CONTINUOUS
 10
-30.242993
 20
-71.291265
 11
-30.242993
 21
-79.624597
  0
LINE
  8
別途部材
  6
CONTINUOUS
 10
-29.242993
 20
-70.291265
 11
-29.242993
 21
-79.624597
  0
LINE
  8
別途部材
  6
CONTINUOUS
 10
-107.242993
 20
-71.291265
 11
-108.242993
 21
-70.291265
  0
LINE
  8
別途部材
  6
CONTINUOUS
 10
-109.242993
 20
-70.291265
 11
-110.242993
 21
-71.291265
  0
LINE
  8
別途部材
  6
CONTINUOUS
 10
-108.242993
 20
-70.291265
 11
-109.242993
 21
-70.291265
  0
LINE
  8
別途部材
  6
CONTINUOUS
 10
-106.242993
 20
-71.291265
 11
-107.242993
 21
-71.291265
  0
LINE
  8
別途部材
  6
CONTINUOUS
 10
-110.242993
 20
-71.291265
 11
-110.242993
 21
-79.624597
  0
LINE
  8
別途部材
  6
CONTINUOUS
 10
-108.242993
 20
-70.291265
 11
-108.242993
 21
-79.624597
  0
LINE
  8
別途部材
  6
CONTINUOUS
 10
-109.242993
 20
-70.291265
 11
-109.242993
 21
-79.624597
  0
LINE
  8
別途部材
  6
CONTINUOUS
 10
-107.242993
 20
-71.291265
 11
-107.242993
 21
-79.624597
  0
LINE
  8
別途部材
  6
CONTINUOUS
 10
-111.242993
 20
-71.291265
 11
-112.242993
 21
-70.291265
  0
LINE
  8
別途部材
  6
CONTINUOUS
 10
-113.242993
 20
-70.291265
 11
-114.242993
 21
-71.291265
  0
LINE
  8
別途部材
  6
CONTINUOUS
 10
-112.242993
 20
-70.291265
 11
-113.242993
 21
-70.291265
  0
LINE
  8
別途部材
  6
CONTINUOUS
 10
-110.242993
 20
-71.291265
 11
-111.242993
 21
-71.291265
  0
LINE
  8
別途部材
  6
CONTINUOUS
 10
-114.242993
 20
-71.291265
 11
-114.242993
 21
-79.624597
  0
LINE
  8
別途部材
  6
CONTINUOUS
 10
-112.242993
 20
-70.291265
 11
-112.242993
 21
-79.624597
  0
LINE
  8
別途部材
  6
CONTINUOUS
 10
-113.242993
 20
-70.291265
 11
-113.242993
 21
-79.624597
  0
LINE
  8
別途部材
  6
CONTINUOUS
 10
-111.242993
 20
-71.291265
 11
-111.242993
 21
-79.624597
  0
ARC
  8
別途部材
  6
CONTINUOUS
 10
-113.742989
 20
-88.957929
 40
17.666667
 50
91.621805
 51
148.109204
  0
LINE
  8
別途部材
  6
CONTINUOUS
 62
    96
 10
72.923675
 20
-79.624597
 11
73.323675
 21
-80.624597
  0
LINE
  8
別途部材
  6
CONTINUOUS
 62
    96
 10
72.923675
 20
-79.624597
 11
-28.742993
 21
-79.624597
  0
LINE
  8
別途部材
  6
CONTINUOUS
 10
73.323675
 20
-80.624597
 11
-28.742993
 21
-80.624597
  0
LINE
  8
別途部材
  6
CONTINUOUS
 10
-28.242993
 20
-70.291265
 11
-27.242993
 21
-71.291265
  0
LINE
  8
別途部材
  6
CONTINUOUS
 10
-26.242993
 20
-71.291265
 11
-25.242993
 21
-70.291265
  0
LINE
  8
別途部材
  6
CONTINUOUS
 10
-24.242993
 20
-70.291265
 11
-23.242993
 21
-71.291265
  0
LINE
  8
別途部材
  6
CONTINUOUS
 10
-25.242993
 20
-70.291265
 11
-24.242993
 21
-70.291265
  0
LINE
  8
別途部材
  6
CONTINUOUS
 10
-28.242993
 20
-70.291265
 11
-28.742993
 21
-70.291265
  0
LINE
  8
別途部材
  6
CONTINUOUS
 10
-22.242993
 20
-71.291265
 11
-21.242993
 21
-70.291265
  0
LINE
  8
別途部材
  6
CONTINUOUS
 10
-20.242993
 20
-70.291265
 11
-19.242993
 21
-71.291265
  0
LINE
  8
別途部材
  6
CONTINUOUS
 10
-21.242993
 20
-70.291265
 11
-20.242993
 21
-70.291265
  0
LINE
  8
別途部材
  6
CONTINUOUS
 10
-18.242993
 20
-71.291265
 11
-17.242993
 21
-70.291265
  0
LINE
  8
別途部材
  6
CONTINUOUS
 10
-16.242993
 20
-70.291265
 11
-15.242993
 21
-71.291265
  0
LINE
  8
別途部材
  6
CONTINUOUS
 10
-17.242993
 20
-70.291265
 11
-16.242993
 21
-70.291265
  0
LINE
  8
別途部材
  6
CONTINUOUS
 10
-14.242993
 20
-71.291265
 11
-13.242993
 21
-70.291265
  0
LINE
  8
別途部材
  6
CONTINUOUS
 10
-12.242993
 20
-70.291265
 11
-11.242993
 21
-71.291265
  0
LINE
  8
別途部材
  6
CONTINUOUS
 10
-13.242993
 20
-70.291265
 11
-12.242993
 21
-70.291265
  0
LINE
  8
別途部材
  6
CONTINUOUS
 10
-10.242993
 20
-71.291265
 11
-9.242993
 21
-70.291265
  0
LINE
  8
別途部材
  6
CONTINUOUS
 10
-8.242993
 20
-70.291265
 11
-7.242993
 21
-71.291265
  0
LINE
  8
別途部材
  6
CONTINUOUS
 10
-9.242993
 20
-70.291265
 11
-8.242993
 21
-70.291265
  0
LINE
  8
別途部材
  6
CONTINUOUS
 10
-6.242993
 20
-71.291265
 11
-5.242993
 21
-70.291265
  0
LINE
  8
別途部材
  6
CONTINUOUS
 10
-4.242993
 20
-70.291265
 11
-3.242993
 21
-71.291265
  0
LINE
  8
別途部材
  6
CONTINUOUS
 10
-5.242993
 20
-70.291265
 11
-4.242993
 21
-70.291265
  0
LINE
  8
別途部材
  6
CONTINUOUS
 10
-2.242993
 20
-71.291265
 11
-1.242993
 21
-70.291265
  0
LINE
  8
別途部材
  6
CONTINUOUS
 10
-0.242993
 20
-70.291265
 11
0.757007
 21
-71.291265
  0
LINE
  8
別途部材
  6
CONTINUOUS
 10
-1.242993
 20
-70.291265
 11
-0.242993
 21
-70.291265
  0
LINE
  8
別途部材
  6
CONTINUOUS
 10
1.757007
 20
-71.291265
 11
2.757007
 21
-70.291265
  0
LINE
  8
別途部材
  6
CONTINUOUS
 10
3.757007
 20
-70.291265
 11
4.757007
 21
-71.291265
  0
LINE
  8
別途部材
  6
CONTINUOUS
 10
2.757007
 20
-70.291265
 11
3.757007
 21
-70.291265
  0
LINE
  8
別途部材
  6
CONTINUOUS
 10
5.757007
 20
-71.291265
 11
6.757007
 21
-70.291265
  0
LINE
  8
別途部材
  6
CONTINUOUS
 10
7.757007
 20
-70.291265
 11
8.757007
 21
-71.291265
  0
LINE
  8
別途部材
  6
CONTINUOUS
 10
6.757007
 20
-70.291265
 11
7.757007
 21
-70.291265
  0
LINE
  8
別途部材
  6
CONTINUOUS
 10
9.757007
 20
-71.291265
 11
10.757007
 21
-70.291265
  0
LINE
  8
別途部材
  6
CONTINUOUS
 10
11.757007
 20
-70.291265
 11
12.757007
 21
-71.291265
  0
LINE
  8
別途部材
  6
CONTINUOUS
 10
10.757007
 20
-70.291265
 11
11.757007
 21
-70.291265
  0
LINE
  8
別途部材
  6
CONTINUOUS
 10
13.757007
 20
-71.291265
 11
14.757007
 21
-70.291265
  0
LINE
  8
別途部材
  6
CONTINUOUS
 10
15.757007
 20
-70.291265
 11
16.757007
 21
-71.291265
  0
LINE
  8
別途部材
  6
CONTINUOUS
 10
14.757007
 20
-70.291265
 11
15.757007
 21
-70.291265
  0
LINE
  8
別途部材
  6
CONTINUOUS
 10
12.757007
 20
-71.291265
 11
13.757007
 21
-71.291265
  0
LINE
  8
別途部材
  6
CONTINUOUS
 10
8.757007
 20
-71.291265
 11
9.757007
 21
-71.291265
  0
LINE
  8
別途部材
  6
CONTINUOUS
 10
4.757007
 20
-71.291265
 11
5.757007
 21
-71.291265
  0
LINE
  8
別途部材
  6
CONTINUOUS
 10
0.757007
 20
-71.291265
 11
1.757007
 21
-71.291265
  0
LINE
  8
別途部材
  6
CONTINUOUS
 10
-3.242993
 20
-71.291265
 11
-2.242993
 21
-71.291265
  0
LINE
  8
別途部材
  6
CONTINUOUS
 10
-7.242993
 20
-71.291265
 11
-6.242993
 21
-71.291265
  0
LINE
  8
別途部材
  6
CONTINUOUS
 10
-11.242993
 20
-71.291265
 11
-10.242993
 21
-71.291265
  0
LINE
  8
別途部材
  6
CONTINUOUS
 10
-15.242993
 20
-71.291265
 11
-14.242993
 21
-71.291265
  0
LINE
  8
別途部材
  6
CONTINUOUS
 10
-19.242993
 20
-71.291265
 11
-18.242993
 21
-71.291265
  0
LINE
  8
別途部材
  6
CONTINUOUS
 10
-23.242993
 20
-71.291265
 11
-22.242993
 21
-71.291265
  0
LINE
  8
別途部材
  6
CONTINUOUS
 10
-26.242993
 20
-71.291265
 11
-27.242993
 21
-71.291265
  0
LINE
  8
別途部材
  6
CONTINUOUS
 10
17.757007
 20
-71.291265
 11
18.757007
 21
-70.291265
  0
LINE
  8
別途部材
  6
CONTINUOUS
 10
19.757007
 20
-70.291265
 11
20.757007
 21
-71.291265
  0
LINE
  8
別途部材
  6
CONTINUOUS
 10
18.757007
 20
-70.291265
 11
19.757007
 21
-70.291265
  0
LINE
  8
別途部材
  6
CONTINUOUS
 10
21.757007
 20
-71.291265
 11
22.757007
 21
-70.291265
  0
LINE
  8
別途部材
  6
CONTINUOUS
 10
23.757007
 20
-70.291265
 11
24.757007
 21
-71.291265
  0
LINE
  8
別途部材
  6
CONTINUOUS
 10
22.757007
 20
-70.291265
 11
23.757007
 21
-70.291265
  0
LINE
  8
別途部材
  6
CONTINUOUS
 10
25.757007
 20
-71.291265
 11
26.757007
 21
-70.291265
  0
LINE
  8
別途部材
  6
CONTINUOUS
 10
27.757007
 20
-70.291265
 11
28.757007
 21
-71.291265
  0
LINE
  8
別途部材
  6
CONTINUOUS
 10
26.757007
 20
-70.291265
 11
27.757007
 21
-70.291265
  0
LINE
  8
別途部材
  6
CONTINUOUS
 10
29.757007
 20
-71.291265
 11
30.757007
 21
-70.291265
  0
LINE
  8
別途部材
  6
CONTINUOUS
 10
31.757007
 20
-70.291265
 11
32.757007
 21
-71.291265
  0
LINE
  8
別途部材
  6
CONTINUOUS
 10
30.757007
 20
-70.291265
 11
31.757007
 21
-70.291265
  0
LINE
  8
別途部材
  6
CONTINUOUS
 10
33.757007
 20
-71.291265
 11
34.757007
 21
-70.291265
  0
LINE
  8
別途部材
  6
CONTINUOUS
 10
35.757007
 20
-70.291265
 11
36.757007
 21
-71.291265
  0
LINE
  8
別途部材
  6
CONTINUOUS
 10
34.757007
 20
-70.291265
 11
35.757007
 21
-70.291265
  0
LINE
  8
別途部材
  6
CONTINUOUS
 10
37.757007
 20
-71.291265
 11
38.757007
 21
-70.291265
  0
LINE
  8
別途部材
  6
CONTINUOUS
 10
39.757007
 20
-70.291265
 11
40.757007
 21
-71.291265
  0
LINE
  8
別途部材
  6
CONTINUOUS
 10
38.757007
 20
-70.291265
 11
39.757007
 21
-70.291265
  0
LINE
  8
別途部材
  6
CONTINUOUS
 10
41.757007
 20
-71.291265
 11
42.757007
 21
-70.291265
  0
LINE
  8
別途部材
  6
CONTINUOUS
 10
43.757007
 20
-70.291265
 11
44.757007
 21
-71.291265
  0
LINE
  8
別途部材
  6
CONTINUOUS
 10
42.757007
 20
-70.291265
 11
43.757007
 21
-70.291265
  0
LINE
  8
別途部材
  6
CONTINUOUS
 10
45.757007
 20
-71.291265
 11
46.757007
 21
-70.291265
  0
LINE
  8
別途部材
  6
CONTINUOUS
 10
47.757007
 20
-70.291265
 11
48.757007
 21
-71.291265
  0
LINE
  8
別途部材
  6
CONTINUOUS
 10
46.757007
 20
-70.291265
 11
47.757007
 21
-70.291265
  0
LINE
  8
別途部材
  6
CONTINUOUS
 10
44.757007
 20
-71.291265
 11
45.757007
 21
-71.291265
  0
LINE
  8
別途部材
  6
CONTINUOUS
 10
40.757007
 20
-71.291265
 11
41.757007
 21
-71.291265
  0
LINE
  8
別途部材
  6
CONTINUOUS
 10
36.757007
 20
-71.291265
 11
37.757007
 21
-71.291265
  0
LINE
  8
別途部材
  6
CONTINUOUS
 10
32.757007
 20
-71.291265
 11
33.757007
 21
-71.291265
  0
LINE
  8
別途部材
  6
CONTINUOUS
 10
28.757007
 20
-71.291265
 11
29.757007
 21
-71.291265
  0
LINE
  8
別途部材
  6
CONTINUOUS
 10
24.757007
 20
-71.291265
 11
25.757007
 21
-71.291265
  0
LINE
  8
別途部材
  6
CONTINUOUS
 10
20.757007
 20
-71.291265
 11
21.757007
 21
-71.291265
  0
LINE
  8
別途部材
  6
CONTINUOUS
 10
16.757007
 20
-71.291265
 11
17.757007
 21
-71.291265
  0
LINE
  8
別途部材
  6
CONTINUOUS
 10
48.757007
 20
-71.291265
 11
48.757007
 21
-79.624597
  0
LINE
  8
別途部材
  6
CONTINUOUS
 10
46.757007
 20
-70.291265
 11
46.757007
 21
-79.624597
  0
LINE
  8
別途部材
  6
CONTINUOUS
 10
47.757007
 20
-70.291265
 11
47.757007
 21
-79.624597
  0
LINE
  8
別途部材
  6
CONTINUOUS
 10
44.757007
 20
-71.291265
 11
44.757007
 21
-79.624597
  0
LINE
  8
別途部材
  6
CONTINUOUS
 10
45.757007
 20
-71.291265
 11
45.757007
 21
-79.624597
  0
LINE
  8
別途部材
  6
CONTINUOUS
 10
43.757007
 20
-70.291265
 11
43.757007
 21
-79.624597
  0
LINE
  8
別途部材
  6
CONTINUOUS
 10
41.757007
 20
-71.291265
 11
41.757007
 21
-79.624597
  0
LINE
  8
別途部材
  6
CONTINUOUS
 10
42.757007
 20
-70.291265
 11
42.757007
 21
-79.624597
  0
LINE
  8
別途部材
  6
CONTINUOUS
 10
40.757007
 20
-71.291265
 11
40.757007
 21
-79.624597
  0
LINE
  8
別途部材
  6
CONTINUOUS
 10
39.757007
 20
-70.291265
 11
39.757007
 21
-79.624597
  0
LINE
  8
別途部材
  6
CONTINUOUS
 10
37.757007
 20
-71.291265
 11
37.757007
 21
-79.624597
  0
LINE
  8
別途部材
  6
CONTINUOUS
 10
38.757007
 20
-70.291265
 11
38.757007
 21
-79.624597
  0
LINE
  8
別途部材
  6
CONTINUOUS
 10
35.757007
 20
-70.291265
 11
35.757007
 21
-79.624597
  0
LINE
  8
別途部材
  6
CONTINUOUS
 10
36.757007
 20
-71.291265
 11
36.757007
 21
-79.624597
  0
LINE
  8
別途部材
  6
CONTINUOUS
 10
33.757007
 20
-71.291265
 11
33.757007
 21
-79.624597
  0
LINE
  8
別途部材
  6
CONTINUOUS
 10
34.757007
 20
-70.291265
 11
34.757007
 21
-79.624597
  0
LINE
  8
別途部材
  6
CONTINUOUS
 10
32.757007
 20
-71.291265
 11
32.757007
 21
-79.624597
  0
LINE
  8
別途部材
  6
CONTINUOUS
 10
30.757007
 20
-70.291265
 11
30.757007
 21
-79.624597
  0
LINE
  8
別途部材
  6
CONTINUOUS
 10
31.757007
 20
-70.291265
 11
31.757007
 21
-79.624597
  0
LINE
  8
別途部材
  6
CONTINUOUS
 10
29.757007
 20
-71.291265
 11
29.757007
 21
-79.624597
  0
LINE
  8
別途部材
  6
CONTINUOUS
 10
28.757007
 20
-71.291265
 11
28.757007
 21
-79.624597
  0
LINE
  8
別途部材
  6
CONTINUOUS
 10
27.757007
 20
-70.291265
 11
27.757007
 21
-79.624597
  0
LINE
  8
別途部材
  6
CONTINUOUS
 10
26.757007
 20
-70.291265
 11
26.757007
 21
-79.624597
  0
LINE
  8
別途部材
  6
CONTINUOUS
 10
22.757007
 20
-70.291265
 11
22.757007
 21
-79.624597
  0
LINE
  8
別途部材
  6
CONTINUOUS
 10
15.757007
 20
-70.291265
 11
15.757007
 21
-79.624597
  0
LINE
  8
別途部材
  6
CONTINUOUS
 10
11.757007
 20
-70.291265
 11
11.757007
 21
-79.624597
  0
LINE
  8
別途部材
  6
CONTINUOUS
 10
9.757007
 20
-71.291265
 11
9.757007
 21
-79.624597
  0
LINE
  8
別途部材
  6
CONTINUOUS
 10
14.757007
 20
-70.291265
 11
14.757007
 21
-79.624597
  0
LINE
  8
別途部材
  6
CONTINUOUS
 10
18.757007
 20
-70.291265
 11
18.757007
 21
-79.624597
  0
LINE
  8
別途部材
  6
CONTINUOUS
 10
20.757007
 20
-71.291265
 11
20.757007
 21
-79.624597
  0
LINE
  8
別途部材
  6
CONTINUOUS
 10
23.757007
 20
-70.291265
 11
23.757007
 21
-79.624597
  0
LINE
  8
別途部材
  6
CONTINUOUS
 10
24.757007
 20
-71.291265
 11
24.757007
 21
-79.624597
  0
LINE
  8
別途部材
  6
CONTINUOUS
 10
25.757007
 20
-71.291265
 11
25.757007
 21
-79.624597
  0
LINE
  8
別途部材
  6
CONTINUOUS
 10
21.757007
 20
-71.291265
 11
21.757007
 21
-79.624597
  0
LINE
  8
別途部材
  6
CONTINUOUS
 10
19.757007
 20
-70.291265
 11
19.757007
 21
-79.624597
  0
LINE
  8
別途部材
  6
CONTINUOUS
 10
17.757007
 20
-71.291265
 11
17.757007
 21
-79.624597
  0
LINE
  8
別途部材
  6
CONTINUOUS
 10
16.757007
 20
-71.291265
 11
16.757007
 21
-79.624597
  0
LINE
  8
別途部材
  6
CONTINUOUS
 10
13.757007
 20
-71.291265
 11
13.757007
 21
-79.624597
  0
LINE
  8
別途部材
  6
CONTINUOUS
 10
12.757007
 20
-71.291265
 11
12.757007
 21
-79.624597
  0
LINE
  8
別途部材
  6
CONTINUOUS
 10
10.757007
 20
-70.291265
 11
10.757007
 21
-79.624597
  0
LINE
  8
別途部材
  6
CONTINUOUS
 10
7.757007
 20
-70.291265
 11
7.757007
 21
-79.624597
  0
LINE
  8
別途部材
  6
CONTINUOUS
 10
8.757007
 20
-71.291265
 11
8.757007
 21
-79.624597
  0
LINE
  8
別途部材
  6
CONTINUOUS
 10
6.757007
 20
-70.291265
 11
6.757007
 21
-79.624597
  0
LINE
  8
別途部材
  6
CONTINUOUS
 10
5.757007
 20
-71.291265
 11
5.757007
 21
-79.624597
  0
LINE
  8
別途部材
  6
CONTINUOUS
 10
4.757007
 20
-71.291265
 11
4.757007
 21
-79.624597
  0
LINE
  8
別途部材
  6
CONTINUOUS
 10
3.757007
 20
-70.291265
 11
3.757007
 21
-79.624597
  0
LINE
  8
別途部材
  6
CONTINUOUS
 10
1.757007
 20
-71.291265
 11
1.757007
 21
-79.624597
  0
LINE
  8
別途部材
  6
CONTINUOUS
 10
2.757007
 20
-70.291265
 11
2.757007
 21
-79.624597
  0
LINE
  8
別途部材
  6
CONTINUOUS
 10
-0.242993
 20
-70.291265
 11
-0.242993
 21
-79.624597
  0
LINE
  8
別途部材
  6
CONTINUOUS
 10
0.757007
 20
-71.291265
 11
0.757007
 21
-79.624597
  0
LINE
  8
別途部材
  6
CONTINUOUS
 10
-3.242993
 20
-71.291265
 11
-3.242993
 21
-79.624597
  0
LINE
  8
別途部材
  6
CONTINUOUS
 10
-4.242993
 20
-70.291265
 11
-4.242993
 21
-79.624597
  0
LINE
  8
別途部材
  6
CONTINUOUS
 10
-5.242993
 20
-70.291265
 11
-5.242993
 21
-79.624597
  0
LINE
  8
別途部材
  6
CONTINUOUS
 10
-2.242993
 20
-71.291265
 11
-2.242993
 21
-79.624597
  0
LINE
  8
別途部材
  6
CONTINUOUS
 10
-1.242993
 20
-70.291265
 11
-1.242993
 21
-79.624597
  0
LINE
  8
別途部材
  6
CONTINUOUS
 10
-9.242993
 20
-70.291265
 11
-9.242993
 21
-79.624597
  0
LINE
  8
別途部材
  6
CONTINUOUS
 10
-7.242993
 20
-71.291265
 11
-7.242993
 21
-79.624597
  0
LINE
  8
別途部材
  6
CONTINUOUS
 10
-6.242993
 20
-71.291265
 11
-6.242993
 21
-79.624597
  0
LINE
  8
別途部材
  6
CONTINUOUS
 10
-8.242993
 20
-70.291265
 11
-8.242993
 21
-79.624597
  0
LINE
  8
別途部材
  6
CONTINUOUS
 10
-10.242993
 20
-71.291265
 11
-10.242993
 21
-79.624597
  0
LINE
  8
別途部材
  6
CONTINUOUS
 10
-12.242993
 20
-70.291265
 11
-12.242993
 21
-79.624597
  0
LINE
  8
別途部材
  6
CONTINUOUS
 10
-13.242993
 20
-70.291265
 11
-13.242993
 21
-79.624597
  0
LINE
  8
別途部材
  6
CONTINUOUS
 10
-15.242993
 20
-71.291265
 11
-15.242993
 21
-79.624597
  0
LINE
  8
別途部材
  6
CONTINUOUS
 10
-14.242993
 20
-71.291265
 11
-14.242993
 21
-79.624597
  0
LINE
  8
別途部材
  6
CONTINUOUS
 10
-11.242993
 20
-71.291265
 11
-11.242993
 21
-79.624597
  0
LINE
  8
別途部材
  6
CONTINUOUS
 10
-16.242993
 20
-70.291265
 11
-16.242993
 21
-79.624597
  0
LINE
  8
別途部材
  6
CONTINUOUS
 10
-18.242993
 20
-71.291265
 11
-18.242993
 21
-79.624597
  0
LINE
  8
別途部材
  6
CONTINUOUS
 10
-17.242993
 20
-70.291265
 11
-17.242993
 21
-79.624597
  0
LINE
  8
別途部材
  6
CONTINUOUS
 10
-19.242993
 20
-71.291265
 11
-19.242993
 21
-79.624597
  0
LINE
  8
別途部材
  6
CONTINUOUS
 10
-20.242993
 20
-70.291265
 11
-20.242993
 21
-79.624597
  0
LINE
  8
別途部材
  6
CONTINUOUS
 10
-22.242993
 20
-71.291265
 11
-22.242993
 21
-79.624597
  0
LINE
  8
別途部材
  6
CONTINUOUS
 10
-21.242993
 20
-70.291265
 11
-21.242993
 21
-79.624597
  0
LINE
  8
別途部材
  6
CONTINUOUS
 10
-23.242993
 20
-71.291265
 11
-23.242993
 21
-79.624597
  0
LINE
  8
別途部材
  6
CONTINUOUS
 10
-24.242993
 20
-70.291265
 11
-24.242993
 21
-79.624597
  0
LINE
  8
別途部材
  6
CONTINUOUS
 10
-26.242993
 20
-71.291265
 11
-26.242993
 21
-79.624597
  0
LINE
  8
別途部材
  6
CONTINUOUS
 10
-25.242993
 20
-70.291265
 11
-25.242993
 21
-79.624597
  0
LINE
  8
別途部材
  6
CONTINUOUS
 10
-27.242993
 20
-71.291265
 11
-27.242993
 21
-79.624597
  0
LINE
  8
別途部材
  6
CONTINUOUS
 10
-28.242993
 20
-70.291265
 11
-28.242993
 21
-79.624597
  0
LINE
  8
別途部材
  6
CONTINUOUS
 10
49.757007
 20
-71.291265
 11
50.757007
 21
-70.291265
  0
LINE
  8
別途部材
  6
CONTINUOUS
 10
51.757007
 20
-70.291265
 11
52.757007
 21
-71.291265
  0
LINE
  8
別途部材
  6
CONTINUOUS
 10
50.757007
 20
-70.291265
 11
51.757007
 21
-70.291265
  0
LINE
  8
別途部材
  6
CONTINUOUS
 10
48.757007
 20
-71.291265
 11
49.757007
 21
-71.291265
  0
LINE
  8
別途部材
  6
CONTINUOUS
 10
52.757007
 20
-71.291265
 11
52.757007
 21
-79.624597
  0
LINE
  8
別途部材
  6
CONTINUOUS
 10
50.757007
 20
-70.291265
 11
50.757007
 21
-79.624597
  0
LINE
  8
別途部材
  6
CONTINUOUS
 10
51.757007
 20
-70.291265
 11
51.757007
 21
-79.624597
  0
LINE
  8
別途部材
  6
CONTINUOUS
 10
49.757007
 20
-71.291265
 11
49.757007
 21
-79.624597
  0
LINE
  8
別途部材
  6
CONTINUOUS
 10
53.757007
 20
-71.291265
 11
54.757007
 21
-70.291265
  0
LINE
  8
別途部材
  6
CONTINUOUS
 10
55.757007
 20
-70.291265
 11
56.757007
 21
-71.291265
  0
LINE
  8
別途部材
  6
CONTINUOUS
 10
54.757007
 20
-70.291265
 11
55.757007
 21
-70.291265
  0
LINE
  8
別途部材
  6
CONTINUOUS
 10
52.757007
 20
-71.291265
 11
53.757007
 21
-71.291265
  0
LINE
  8
別途部材
  6
CONTINUOUS
 10
56.757007
 20
-71.291265
 11
56.757007
 21
-79.624597
  0
LINE
  8
別途部材
  6
CONTINUOUS
 10
54.757007
 20
-70.291265
 11
54.757007
 21
-79.624597
  0
LINE
  8
別途部材
  6
CONTINUOUS
 10
55.757007
 20
-70.291265
 11
55.757007
 21
-79.624597
  0
LINE
  8
別途部材
  6
CONTINUOUS
 10
53.757007
 20
-71.291265
 11
53.757007
 21
-79.624597
  0
ARC
  8
別途部材
  6
CONTINUOUS
 10
56.257005
 20
-88.957929
 40
17.666667
 50
31.890796
 51
88.378195
  0
ENDBLK
  0
BLOCK
  2
*GRP_0013
 70
    65
 10
0.0
 20
0.0
  0
LINE
  8
補助線
  6
BYBLOCK
 62
    64
 10
-108.679248
 20
-84.60555
 11
-108.806733
 21
-84.71291
  0
LINE
  8
補助線
  6
BYBLOCK
 62
    64
 10
-108.79667
 20
-84.595485
 11
-108.68931
 21
-84.722973
  0
LINE
  8
補助線
  6
BYBLOCK
 62
    64
 10
-100.18883
 20
-77.455527
 11
-100.316315
 21
-77.562882
  0
LINE
  8
補助線
  6
BYBLOCK
 62
    64
 10
-100.306253
 20
-77.445463
 11
-100.198892
 21
-77.572945
  0
LINE
  8
補助線
  6
BYBLOCK
 62
    64
 10
-91.825895
 20
-70.412857
 11
-91.698412
 21
-70.3055
  0
LINE
  8
補助線
  6
BYBLOCK
 62
    64
 10
-91.815835
 20
-70.295435
 11
-91.708475
 21
-70.422922
  0
LINE
  8
型材断面
  6
CONTINUOUS
 10
-109.534745
 20
-84.236528
 11
-109.595122
 21
-84.941053
  0
LINE
  8
型材断面
  6
CONTINUOUS
 10
-109.595122
 20
-84.941053
 11
-109.16569
 21
-85.450987
  0
LINE
  8
型材断面
  6
CONTINUOUS
 10
-109.16569
 20
-85.450987
 11
-108.461165
 21
-85.511365
  0
LINE
  8
型材断面
  6
CONTINUOUS
 10
-92.043977
 20
-69.507048
 11
-91.339452
 21
-69.567425
  0
LINE
  8
型材断面
  6
CONTINUOUS
 10
-91.339452
 20
-69.567425
 11
-90.91002
 21
-70.07736
  0
LINE
  8
型材断面
  6
CONTINUOUS
 10
-90.91002
 20
-70.07736
 11
-90.970398
 21
-70.781885
  0
LINE
  8
型材断面
  6
CONTINUOUS
 10
-109.534745
 20
-84.236528
 11
-92.043977
 21
-69.507048
  0
LINE
  8
型材断面
  6
CONTINUOUS
 10
-108.461165
 20
-85.511365
 11
-90.970398
 21
-70.781885
  0
CIRCLE
  8
ボルト／ビス
  6
CONTINUOUS
 10
-108.74299
 20
-84.65923
 40
0.250185
  0
CIRCLE
  8
ボルト／ビス
  6
CONTINUOUS
 10
-108.74299
 20
-84.65923
 40
0.301025
  0
LINE
  8
ボルト／ビス
  6
CONTINUOUS
 62
    64
 10
-108.989297
 20
-84.703113
 11
-108.904145
 21
-84.467865
  0
LINE
  8
ボルト／ビス
  6
CONTINUOUS
 62
    64
 10
-108.657838
 20
-84.42398
 11
-108.904145
 21
-84.467865
  0
LINE
  8
ボルト／ビス
  6
CONTINUOUS
 62
    64
 10
-108.828143
 20
-84.89448
 11
-108.581835
 21
-84.850595
  0
LINE
  8
ボルト／ビス
  6
CONTINUOUS
 62
    64
 10
-108.496683
 20
-84.615348
 11
-108.581835
 21
-84.850595
  0
LINE
  8
ボルト／ビス
  6
CONTINUOUS
 62
    64
 10
-108.989297
 20
-84.703113
 11
-108.828143
 21
-84.89448
  0
LINE
  8
ボルト／ビス
  6
CONTINUOUS
 62
    64
 10
-108.657838
 20
-84.42398
 11
-108.496683
 21
-84.615348
  0
CIRCLE
  8
ボルト／ビス
  6
CONTINUOUS
 62
    64
 10
-108.74299
 20
-84.65923
 40
0.216668
  0
CIRCLE
  8
ボルト／ビス
  6
CONTINUOUS
 10
-100.252573
 20
-77.509205
 40
0.250185
  0
CIRCLE
  8
ボルト／ビス
  6
CONTINUOUS
 10
-100.252573
 20
-77.509205
 40
0.301025
  0
LINE
  8
ボルト／ビス
  6
CONTINUOUS
 62
    64
 10
-100.49888
 20
-77.553088
 11
-100.413728
 21
-77.317838
  0
LINE
  8
ボルト／ビス
  6
CONTINUOUS
 62
    64
 10
-100.16742
 20
-77.273955
 11
-100.413728
 21
-77.317838
  0
LINE
  8
ボルト／ビス
  6
CONTINUOUS
 62
    64
 10
-100.337725
 20
-77.744455
 11
-100.091415
 21
-77.700572
  0
LINE
  8
ボルト／ビス
  6
CONTINUOUS
 62
    64
 10
-100.006265
 20
-77.465325
 11
-100.091415
 21
-77.700572
  0
LINE
  8
ボルト／ビス
  6
CONTINUOUS
 62
    64
 10
-100.49888
 20
-77.553088
 11
-100.337725
 21
-77.744455
  0
LINE
  8
ボルト／ビス
  6
CONTINUOUS
 62
    64
 10
-100.16742
 20
-77.273955
 11
-100.006265
 21
-77.465325
  0
CIRCLE
  8
ボルト／ビス
  6
CONTINUOUS
 62
    64
 10
-100.252573
 20
-77.509205
 40
0.216668
  0
CIRCLE
  8
ボルト／ビス
  6
CONTINUOUS
 10
-91.762152
 20
-70.35918
 40
0.250185
  0
CIRCLE
  8
ボルト／ビス
  6
CONTINUOUS
 10
-91.762152
 20
-70.35918
 40
0.301025
  0
LINE
  8
ボルト／ビス
  6
CONTINUOUS
 62
    64
 10
-91.677
 20
-70.12393
 11
-91.92331
 21
-70.167815
  0
LINE
  8
ボルト／ビス
  6
CONTINUOUS
 62
    64
 10
-92.008463
 20
-70.403063
 11
-91.92331
 21
-70.167815
  0
LINE
  8
ボルト／ビス
  6
CONTINUOUS
 62
    64
 10
-91.515848
 20
-70.315298
 11
-91.600997
 21
-70.550545
  0
LINE
  8
ボルト／ビス
  6
CONTINUOUS
 62
    64
 10
-91.847307
 20
-70.59443
 11
-91.600997
 21
-70.550545
  0
LINE
  8
ボルト／ビス
  6
CONTINUOUS
 62
    64
 10
-91.677
 20
-70.12393
 11
-91.515848
 21
-70.315298
  0
LINE
  8
ボルト／ビス
  6
CONTINUOUS
 62
    64
 10
-92.008463
 20
-70.403063
 11
-91.847307
 21
-70.59443
  0
CIRCLE
  8
ボルト／ビス
  6
CONTINUOUS
 62
    64
 10
-91.762152
 20
-70.35918
 40
0.216668
  0
ENDBLK
  0
BLOCK
  2
*GRP_0014
 70
    65
 10
0.0
 20
0.0
  0
LINE
  8
補助線
  6
BYBLOCK
 62
    64
 10
-91.825897
 20
-84.60555
 11
-91.698412
 21
-84.71291
  0
LINE
  8
補助線
  6
BYBLOCK
 62
    64
 10
-91.708475
 20
-84.595485
 11
-91.815835
 21
-84.722973
  0
LINE
  8
補助線
  6
BYBLOCK
 62
    64
 10
-100.316315
 20
-77.455527
 11
-100.18883
 21
-77.562882
  0
LINE
  8
補助線
  6
BYBLOCK
 62
    64
 10
-100.198892
 20
-77.445463
 11
-100.306253
 21
-77.572945
  0
LINE
  8
補助線
  6
BYBLOCK
 62
    64
 10
-108.67925
 20
-70.412857
 11
-108.806733
 21
-70.3055
  0
LINE
  8
補助線
  6
BYBLOCK
 62
    64
 10
-108.68931
 20
-70.295435
 11
-108.79667
 21
-70.422922
  0
LINE
  8
型材断面
  6
CONTINUOUS
 10
-90.9704
 20
-84.236528
 11
-90.910023
 21
-84.941053
  0
LINE
  8
型材断面
  6
CONTINUOUS
 10
-90.910023
 20
-84.941053
 11
-91.339455
 21
-85.450987
  0
LINE
  8
型材断面
  6
CONTINUOUS
 10
-91.339455
 20
-85.450987
 11
-92.04398
 21
-85.511365
  0
LINE
  8
型材断面
  6
CONTINUOUS
 10
-108.461168
 20
-69.507048
 11
-109.165693
 21
-69.567425
  0
LINE
  8
型材断面
  6
CONTINUOUS
 10
-109.165693
 20
-69.567425
 11
-109.595125
 21
-70.07736
  0
LINE
  8
型材断面
  6
CONTINUOUS
 10
-109.595125
 20
-70.07736
 11
-109.534747
 21
-70.781885
  0
LINE
  8
型材断面
  6
CONTINUOUS
 10
-90.9704
 20
-84.236528
 11
-108.461168
 21
-69.507048
  0
LINE
  8
型材断面
  6
CONTINUOUS
 10
-92.04398
 20
-85.511365
 11
-109.534747
 21
-70.781885
  0
CIRCLE
  8
ボルト／ビス
  6
CONTINUOUS
 10
-91.762155
 20
-84.65923
 40
0.250185
  0
CIRCLE
  8
ボルト／ビス
  6
CONTINUOUS
 10
-91.762155
 20
-84.65923
 40
0.301025
  0
LINE
  8
ボルト／ビス
  6
CONTINUOUS
 62
    64
 10
-91.515848
 20
-84.703113
 11
-91.601
 21
-84.467865
  0
LINE
  8
ボルト／ビス
  6
CONTINUOUS
 62
    64
 10
-91.847307
 20
-84.42398
 11
-91.601
 21
-84.467865
  0
LINE
  8
ボルト／ビス
  6
CONTINUOUS
 62
    64
 10
-91.677002
 20
-84.89448
 11
-91.92331
 21
-84.850595
  0
LINE
  8
ボルト／ビス
  6
CONTINUOUS
 62
    64
 10
-92.008463
 20
-84.615348
 11
-91.92331
 21
-84.850595
  0
LINE
  8
ボルト／ビス
  6
CONTINUOUS
 62
    64
 10
-91.515848
 20
-84.703113
 11
-91.677002
 21
-84.89448
  0
LINE
  8
ボルト／ビス
  6
CONTINUOUS
 62
    64
 10
-91.847307
 20
-84.42398
 11
-92.008463
 21
-84.615348
  0
CIRCLE
  8
ボルト／ビス
  6
CONTINUOUS
 62
    64
 10
-91.762155
 20
-84.65923
 40
0.216668
  0
CIRCLE
  8
ボルト／ビス
  6
CONTINUOUS
 10
-100.252573
 20
-77.509205
 40
0.250185
  0
CIRCLE
  8
ボルト／ビス
  6
CONTINUOUS
 10
-100.252573
 20
-77.509205
 40
0.301025
  0
LINE
  8
ボルト／ビス
  6
CONTINUOUS
 62
    64
 10
-100.006265
 20
-77.553088
 11
-100.091417
 21
-77.317838
  0
LINE
  8
ボルト／ビス
  6
CONTINUOUS
 62
    64
 10
-100.337725
 20
-77.273955
 11
-100.091417
 21
-77.317838
  0
LINE
  8
ボルト／ビス
  6
CONTINUOUS
 62
    64
 10
-100.16742
 20
-77.744455
 11
-100.41373
 21
-77.700572
  0
LINE
  8
ボルト／ビス
  6
CONTINUOUS
 62
    64
 10
-100.49888
 20
-77.465325
 11
-100.41373
 21
-77.700572
  0
LINE
  8
ボルト／ビス
  6
CONTINUOUS
 62
    64
 10
-100.006265
 20
-77.553088
 11
-100.16742
 21
-77.744455
  0
LINE
  8
ボルト／ビス
  6
CONTINUOUS
 62
    64
 10
-100.337725
 20
-77.273955
 11
-100.49888
 21
-77.465325
  0
CIRCLE
  8
ボルト／ビス
  6
CONTINUOUS
 62
    64
 10
-100.252573
 20
-77.509205
 40
0.216668
  0
CIRCLE
  8
ボルト／ビス
  6
CONTINUOUS
 10
-108.742993
 20
-70.35918
 40
0.250185
  0
CIRCLE
  8
ボルト／ビス
  6
CONTINUOUS
 10
-108.742993
 20
-70.35918
 40
0.301025
  0
LINE
  8
ボルト／ビス
  6
CONTINUOUS
 62
    64
 10
-108.828145
 20
-70.12393
 11
-108.581835
 21
-70.167815
  0
LINE
  8
ボルト／ビス
  6
CONTINUOUS
 62
    64
 10
-108.496683
 20
-70.403063
 11
-108.581835
 21
-70.167815
  0
LINE
  8
ボルト／ビス
  6
CONTINUOUS
 62
    64
 10
-108.989297
 20
-70.315298
 11
-108.904147
 21
-70.550545
  0
LINE
  8
ボルト／ビス
  6
CONTINUOUS
 62
    64
 10
-108.657838
 20
-70.59443
 11
-108.904147
 21
-70.550545
  0
LINE
  8
ボルト／ビス
  6
CONTINUOUS
 62
    64
 10
-108.828145
 20
-70.12393
 11
-108.989297
 21
-70.315298
  0
LINE
  8
ボルト／ビス
  6
CONTINUOUS
 62
    64
 10
-108.496683
 20
-70.403063
 11
-108.657838
 21
-70.59443
  0
CIRCLE
  8
ボルト／ビス
  6
CONTINUOUS
 62
    64
 10
-108.742993
 20
-70.35918
 40
0.216668
  0
ENDBLK
  0
BLOCK
  2
*GRP_0015
 70
    65
 10
0.0
 20
0.0
  0
LINE
  8
補助線
  6
BYBLOCK
 62
    64
 10
51.193262
 20
-84.60555
 11
51.320747
 21
-84.71291
  0
LINE
  8
補助線
  6
BYBLOCK
 62
    64
 10
51.310685
 20
-84.595485
 11
51.203325
 21
-84.722973
  0
LINE
  8
補助線
  6
BYBLOCK
 62
    64
 10
42.702845
 20
-77.455527
 11
42.83033
 21
-77.562882
  0
LINE
  8
補助線
  6
BYBLOCK
 62
    64
 10
42.820268
 20
-77.445463
 11
42.712908
 21
-77.572945
  0
LINE
  8
補助線
  6
BYBLOCK
 62
    64
 10
34.33991
 20
-70.412857
 11
34.212428
 21
-70.3055
  0
LINE
  8
補助線
  6
BYBLOCK
 62
    64
 10
34.32985
 20
-70.295435
 11
34.22249
 21
-70.422922
  0
LINE
  8
型材断面
  6
CONTINUOUS
 10
52.04876
 20
-84.236528
 11
52.109137
 21
-84.941053
  0
LINE
  8
型材断面
  6
CONTINUOUS
 10
52.109137
 20
-84.941053
 11
51.679705
 21
-85.450987
  0
LINE
  8
型材断面
  6
CONTINUOUS
 10
51.679705
 20
-85.450987
 11
50.97518
 21
-85.511365
  0
LINE
  8
型材断面
  6
CONTINUOUS
 10
34.557992
 20
-69.507048
 11
33.853468
 21
-69.567425
  0
LINE
  8
型材断面
  6
CONTINUOUS
 10
33.853468
 20
-69.567425
 11
33.424035
 21
-70.07736
  0
LINE
  8
型材断面
  6
CONTINUOUS
 10
33.424035
 20
-70.07736
 11
33.484412
 21
-70.781885
  0
LINE
  8
型材断面
  6
CONTINUOUS
 10
52.04876
 20
-84.236528
 11
34.557992
 21
-69.507048
  0
LINE
  8
型材断面
  6
CONTINUOUS
 10
50.97518
 20
-85.511365
 11
33.484412
 21
-70.781885
  0
CIRCLE
  8
ボルト／ビス
  6
CONTINUOUS
 10
51.257005
 20
-84.65923
 40
0.250185
  0
CIRCLE
  8
ボルト／ビス
  6
CONTINUOUS
 10
51.257005
 20
-84.65923
 40
0.301025
  0
LINE
  8
ボルト／ビス
  6
CONTINUOUS
 62
    64
 10
51.503312
 20
-84.703113
 11
51.41816
 21
-84.467865
  0
LINE
  8
ボルト／ビス
  6
CONTINUOUS
 62
    64
 10
51.171853
 20
-84.42398
 11
51.41816
 21
-84.467865
  0
LINE
  8
ボルト／ビス
  6
CONTINUOUS
 62
    64
 10
51.342158
 20
-84.89448
 11
51.09585
 21
-84.850595
  0
LINE
  8
ボルト／ビス
  6
CONTINUOUS
 62
    64
 10
51.010698
 20
-84.615348
 11
51.09585
 21
-84.850595
  0
LINE
  8
ボルト／ビス
  6
CONTINUOUS
 62
    64
 10
51.503312
 20
-84.703113
 11
51.342158
 21
-84.89448
  0
LINE
  8
ボルト／ビス
  6
CONTINUOUS
 62
    64
 10
51.171853
 20
-84.42398
 11
51.010698
 21
-84.615348
  0
CIRCLE
  8
ボルト／ビス
  6
CONTINUOUS
 62
    64
 10
51.257005
 20
-84.65923
 40
0.216668
  0
CIRCLE
  8
ボルト／ビス
  6
CONTINUOUS
 10
42.766588
 20
-77.509205
 40
0.250185
  0
CIRCLE
  8
ボルト／ビス
  6
CONTINUOUS
 10
42.766588
 20
-77.509205
 40
0.301025
  0
LINE
  8
ボルト／ビス
  6
CONTINUOUS
 62
    64
 10
43.012895
 20
-77.553088
 11
42.927743
 21
-77.317838
  0
LINE
  8
ボルト／ビス
  6
CONTINUOUS
 62
    64
 10
42.681435
 20
-77.273955
 11
42.927743
 21
-77.317838
  0
LINE
  8
ボルト／ビス
  6
CONTINUOUS
 62
    64
 10
42.85174
 20
-77.744455
 11
42.60543
 21
-77.700572
  0
LINE
  8
ボルト／ビス
  6
CONTINUOUS
 62
    64
 10
42.52028
 20
-77.465325
 11
42.60543
 21
-77.700572
  0
LINE
  8
ボルト／ビス
  6
CONTINUOUS
 62
    64
 10
43.012895
 20
-77.553088
 11
42.85174
 21
-77.744455
  0
LINE
  8
ボルト／ビス
  6
CONTINUOUS
 62
    64
 10
42.681435
 20
-77.273955
 11
42.52028
 21
-77.465325
  0
CIRCLE
  8
ボルト／ビス
  6
CONTINUOUS
 62
    64
 10
42.766588
 20
-77.509205
 40
0.216668
  0
CIRCLE
  8
ボルト／ビス
  6
CONTINUOUS
 10
34.276167
 20
-70.35918
 40
0.250185
  0
CIRCLE
  8
ボルト／ビス
  6
CONTINUOUS
 10
34.276167
 20
-70.35918
 40
0.301025
  0
LINE
  8
ボルト／ビス
  6
CONTINUOUS
 62
    64
 10
34.191015
 20
-70.12393
 11
34.437325
 21
-70.167815
  0
LINE
  8
ボルト／ビス
  6
CONTINUOUS
 62
    64
 10
34.522478
 20
-70.403063
 11
34.437325
 21
-70.167815
  0
LINE
  8
ボルト／ビス
  6
CONTINUOUS
 62
    64
 10
34.029862
 20
-70.315298
 11
34.115013
 21
-70.550545
  0
LINE
  8
ボルト／ビス
  6
CONTINUOUS
 62
    64
 10
34.361322
 20
-70.59443
 11
34.115013
 21
-70.550545
  0
LINE
  8
ボルト／ビス
  6
CONTINUOUS
 62
    64
 10
34.191015
 20
-70.12393
 11
34.029862
 21
-70.315298
  0
LINE
  8
ボルト／ビス
  6
CONTINUOUS
 62
    64
 10
34.522478
 20
-70.403063
 11
34.361322
 21
-70.59443
  0
CIRCLE
  8
ボルト／ビス
  6
CONTINUOUS
 62
    64
 10
34.276167
 20
-70.35918
 40
0.216668
  0
ENDBLK
  0
BLOCK
  2
*GRP_0016
 70
    65
 10
0.0
 20
0.0
  0
LINE
  8
補助線
  6
BYBLOCK
 62
    64
 10
34.339912
 20
-84.60555
 11
34.212428
 21
-84.71291
  0
LINE
  8
補助線
  6
BYBLOCK
 62
    64
 10
34.22249
 20
-84.595485
 11
34.32985
 21
-84.722973
  0
LINE
  8
補助線
  6
BYBLOCK
 62
    64
 10
42.83033
 20
-77.455527
 11
42.702845
 21
-77.562882
  0
LINE
  8
補助線
  6
BYBLOCK
 62
    64
 10
42.712908
 20
-77.445463
 11
42.820268
 21
-77.572945
  0
LINE
  8
補助線
  6
BYBLOCK
 62
    64
 10
51.193265
 20
-70.412857
 11
51.320747
 21
-70.3055
  0
LINE
  8
補助線
  6
BYBLOCK
 62
    64
 10
51.203325
 20
-70.295435
 11
51.310685
 21
-70.422922
  0
LINE
  8
型材断面
  6
CONTINUOUS
 10
33.484415
 20
-84.236528
 11
33.424037
 21
-84.941053
  0
LINE
  8
型材断面
  6
CONTINUOUS
 10
33.424037
 20
-84.941053
 11
33.85347
 21
-85.450987
  0
LINE
  8
型材断面
  6
CONTINUOUS
 10
33.85347
 20
-85.450987
 11
34.557995
 21
-85.511365
  0
LINE
  8
型材断面
  6
CONTINUOUS
 10
50.975182
 20
-69.507048
 11
51.679708
 21
-69.567425
  0
LINE
  8
型材断面
  6
CONTINUOUS
 10
51.679708
 20
-69.567425
 11
52.10914
 21
-70.07736
  0
LINE
  8
型材断面
  6
CONTINUOUS
 10
52.10914
 20
-70.07736
 11
52.048762
 21
-70.781885
  0
LINE
  8
型材断面
  6
CONTINUOUS
 10
33.484415
 20
-84.236528
 11
50.975182
 21
-69.507048
  0
LINE
  8
型材断面
  6
CONTINUOUS
 10
34.557995
 20
-85.511365
 11
52.048762
 21
-70.781885
  0
CIRCLE
  8
ボルト／ビス
  6
CONTINUOUS
 10
34.27617
 20
-84.65923
 40
0.250185
  0
CIRCLE
  8
ボルト／ビス
  6
CONTINUOUS
 10
34.27617
 20
-84.65923
 40
0.301025
  0
LINE
  8
ボルト／ビス
  6
CONTINUOUS
 62
    64
 10
34.029862
 20
-84.703113
 11
34.115015
 21
-84.467865
  0
LINE
  8
ボルト／ビス
  6
CONTINUOUS
 62
    64
 10
34.361322
 20
-84.42398
 11
34.115015
 21
-84.467865
  0
LINE
  8
ボルト／ビス
  6
CONTINUOUS
 62
    64
 10
34.191018
 20
-84.89448
 11
34.437325
 21
-84.850595
  0
LINE
  8
ボルト／ビス
  6
CONTINUOUS
 62
    64
 10
34.522478
 20
-84.615348
 11
34.437325
 21
-84.850595
  0
LINE
  8
ボルト／ビス
  6
CONTINUOUS
 62
    64
 10
34.029862
 20
-84.703113
 11
34.191018
 21
-84.89448
  0
LINE
  8
ボルト／ビス
  6
CONTINUOUS
 62
    64
 10
34.361322
 20
-84.42398
 11
34.522478
 21
-84.615348
  0
CIRCLE
  8
ボルト／ビス
  6
CONTINUOUS
 62
    64
 10
34.27617
 20
-84.65923
 40
0.216668
  0
CIRCLE
  8
ボルト／ビス
  6
CONTINUOUS
 10
42.766588
 20
-77.509205
 40
0.250185
  0
CIRCLE
  8
ボルト／ビス
  6
CONTINUOUS
 10
42.766588
 20
-77.509205
 40
0.301025
  0
LINE
  8
ボルト／ビス
  6
CONTINUOUS
 62
    64
 10
42.52028
 20
-77.553088
 11
42.605432
 21
-77.317838
  0
LINE
  8
ボルト／ビス
  6
CONTINUOUS
 62
    64
 10
42.85174
 20
-77.273955
 11
42.605432
 21
-77.317838
  0
LINE
  8
ボルト／ビス
  6
CONTINUOUS
 62
    64
 10
42.681435
 20
-77.744455
 11
42.927745
 21
-77.700572
  0
LINE
  8
ボルト／ビス
  6
CONTINUOUS
 62
    64
 10
43.012895
 20
-77.465325
 11
42.927745
 21
-77.700572
  0
LINE
  8
ボルト／ビス
  6
CONTINUOUS
 62
    64
 10
42.52028
 20
-77.553088
 11
42.681435
 21
-77.744455
  0
LINE
  8
ボルト／ビス
  6
CONTINUOUS
 62
    64
 10
42.85174
 20
-77.273955
 11
43.012895
 21
-77.465325
  0
CIRCLE
  8
ボルト／ビス
  6
CONTINUOUS
 62
    64
 10
42.766588
 20
-77.509205
 40
0.216668
  0
CIRCLE
  8
ボルト／ビス
  6
CONTINUOUS
 10
51.257007
 20
-70.35918
 40
0.250185
  0
CIRCLE
  8
ボルト／ビス
  6
CONTINUOUS
 10
51.257007
 20
-70.35918
 40
0.301025
  0
LINE
  8
ボルト／ビス
  6
CONTINUOUS
 62
    64
 10
51.34216
 20
-70.12393
 11
51.09585
 21
-70.167815
  0
LINE
  8
ボルト／ビス
  6
CONTINUOUS
 62
    64
 10
51.010698
 20
-70.403063
 11
51.09585
 21
-70.167815
  0
LINE
  8
ボルト／ビス
  6
CONTINUOUS
 62
    64
 10
51.503312
 20
-70.315298
 11
51.418162
 21
-70.550545
  0
LINE
  8
ボルト／ビス
  6
CONTINUOUS
 62
    64
 10
51.171853
 20
-70.59443
 11
51.418162
 21
-70.550545
  0
LINE
  8
ボルト／ビス
  6
CONTINUOUS
 62
    64
 10
51.34216
 20
-70.12393
 11
51.503312
 21
-70.315298
  0
LINE
  8
ボルト／ビス
  6
CONTINUOUS
 62
    64
 10
51.010698
 20
-70.403063
 11
51.171853
 21
-70.59443
  0
CIRCLE
  8
ボルト／ビス
  6
CONTINUOUS
 62
    64
 10
51.257007
 20
-70.35918
 40
0.216668
  0
ENDBLK
  0
BLOCK
  2
*DIM_0017
 70
    65
 10
0.0
 20
0.0
  0
LINE
  8
寸法
  6
BYBLOCK
 62
     0
 10
160.790272
 20
48.065715
 11
160.790272
 21
58.954983
  0
LINE
  8
寸法
  6
BYBLOCK
 62
     0
 10
167.823775
 20
48.382382
 11
167.823775
 21
58.954983
  0
LINE
  8
寸法
  6
BYBLOCK
 62
     0
 10
160.790272
 20
58.954983
 11
167.823775
 21
58.954983
  0
POINT
  8
寸法
 62
     0
 10
160.790272
 20
58.954983
  0
POINT
  8
寸法
 62
     0
 10
167.823775
 20
58.954983
  0
TEXT
  7
TextStyle03
  8
寸法
  6
CONTINUOUS
 62
     0
 10
161.8125
 20
59.325
  1
211
 40
3.0
 72
     5
 11
166.6875
 21
59.325
  0
ENDBLK
  0
BLOCK
  2
*DIM_0018
 70
    65
 10
0.0
 20
0.0
  0
LINE
  8
寸法
  6
BYBLOCK
 62
     0
 10
159.167058
 20
45.382382
 11
105.276657
 21
45.382382
  0
LINE
  8
寸法
  6
BYBLOCK
 62
     0
 10
105.276657
 20
43.399048
 11
105.276657
 21
45.382382
  0
POINT
  8
寸法
 62
     0
 10
105.276657
 20
43.399048
  0
POINT
  8
寸法
 62
     0
 10
105.276657
 20
45.382382
  0
TEXT
  7
TextStyle03
  8
寸法
  6
CONTINUOUS
 62
     0
 10
104.825
 20
47.86875
  1
59.5
 40
3.0
 50
90.0
 72
     5
 11
104.825
 21
54.43125
  0
ENDBLK
  0
BLOCK
  2
*DIM_0019
 70
    65
 10
0.0
 20
0.0
  0
LINE
  8
寸法
  6
BYBLOCK
 62
     0
 10
159.167058
 20
11.415715
 11
105.276657
 21
11.415715
  0
LINE
  8
寸法
  6
BYBLOCK
 62
     0
 10
105.276657
 20
13.399048
 11
105.276657
 21
11.415715
  0
POINT
  8
寸法
 62
     0
 10
105.276657
 20
13.399048
  0
POINT
  8
寸法
 62
     0
 10
105.276657
 20
11.415715
  0
TEXT
  7
TextStyle03
  8
寸法
  6
CONTINUOUS
 62
     0
 10
104.825
 20
2.36875
  1
59.5
 40
3.0
 50
90.0
 72
     5
 11
104.825
 21
8.93125
  0
ENDBLK
  0
BLOCK
  2
*DIM_0020
 70
    65
 10
0.0
 20
0.0
  0
LINE
  8
寸法
  6
BYBLOCK
 62
     0
 10
75.923675
 20
-79.624597
 11
87.226657
 21
-79.624597
  0
LINE
  8
寸法
  6
BYBLOCK
 62
     0
 10
76.240343
 20
-86.6581
 11
87.226657
 21
-86.6581
  0
LINE
  8
寸法
  6
BYBLOCK
 62
     0
 10
87.226657
 20
-79.624597
 11
87.226657
 21
-86.6581
  0
POINT
  8
寸法
 62
     0
 10
87.226657
 20
-79.624597
  0
POINT
  8
寸法
 62
     0
 10
87.226657
 20
-86.6581
  0
TEXT
  7
TextStyle03
  8
寸法
  6
CONTINUOUS
 62
     0
 10
86.825
 20
-85.5875
  1
211
 40
3.0
 50
90.0
 72
     5
 11
86.825
 21
-80.7125
  0
ENDBLK
  0
BLOCK
  2
*DIM_0021
 70
    65
 10
0.0
 20
0.0
  0
LINE
  8
寸法
  6
CONTINUOUS
 62
     0
 10
73.24034
 20
-78.001383
 11
73.24034
 21
-22.536362
  0
LINE
  8
寸法
  6
CONTINUOUS
 62
     0
 10
71.257007
 20
-22.536362
 11
73.24034
 21
-22.536362
  0
POINT
  8
寸法
 62
     0
 10
71.257007
 20
-22.536362
  0
POINT
  8
寸法
 62
     0
 10
73.24034
 20
-22.536362
  0
TEXT
  7
TextStyle03
  8
寸法
  6
CONTINUOUS
 62
     0
 10
75.71875
 20
-22.15
  1
59.5
 40
3.0
 72
     5
 11
82.28125
 21
-22.15
  0
ENDBLK
  0
BLOCK
  2
*DIM_0022
 70
    65
 10
0.0
 20
0.0
  0
LINE
  8
寸法
  6
BYBLOCK
 62
     0
 10
-130.726325
 20
-78.001383
 11
-130.726325
 21
-22.536362
  0
LINE
  8
寸法
  6
BYBLOCK
 62
     0
 10
-128.742993
 20
-22.536362
 11
-130.726325
 21
-22.536362
  0
POINT
  8
寸法
 62
     0
 10
-128.742993
 20
-22.536362
  0
POINT
  8
寸法
 62
     0
 10
-130.726325
 20
-22.536362
  0
TEXT
  7
TextStyle03
  8
寸法
  6
CONTINUOUS
 62
     0
 10
-139.78125
 20
-22.15
  1
59.5
 40
3.0
 72
     5
 11
-133.21875
 21
-22.15
  0
ENDBLK
  0
BLOCK
  2
*DIM_0023
 70
    65
 10
0.0
 20
0.0
  0
LINE
  8
寸法
  6
BYBLOCK
 62
     0
 10
-131.742993
 20
38.399048
 11
-145.03583
 21
38.399048
  0
LINE
  8
寸法
  6
BYBLOCK
 62
     0
 10
-131.742993
 20
18.399048
 11
-145.03583
 21
18.399048
  0
LINE
  8
寸法
  6
BYBLOCK
 62
     0
 10
-145.03583
 20
38.399048
 11
-145.03583
 21
18.399048
  0
POINT
  8
寸法
 62
     0
 10
-145.03583
 20
38.399048
  0
POINT
  8
寸法
 62
     0
 10
-145.03583
 20
18.399048
  0
TEXT
  7
TextStyle03
  8
寸法
  6
CONTINUOUS
 62
     0
 10
-145.375
 20
25.9625
  1
600
 40
3.0
 50
90.0
 72
     5
 11
-145.375
 21
30.8375
  0
ENDBLK
  0
BLOCK
  2
*DIM_0024
 70
    65
 10
0.0
 20
0.0
  0
LINE
  8
寸法
  6
BYBLOCK
 62
     0
 10
-122.076325
 20
46.399048
 11
-122.076325
 21
75.50712
  0
LINE
  8
寸法
  6
BYBLOCK
 62
     0
 10
-98.742993
 20
46.399048
 11
-98.742993
 21
75.50712
  0
LINE
  8
寸法
  6
BYBLOCK
 62
     0
 10
-122.076325
 20
75.50712
 11
-98.742993
 21
75.50712
  0
POINT
  8
寸法
 62
     0
 10
-122.076325
 20
75.50712
  0
POINT
  8
寸法
 62
     0
 10
-98.742993
 20
75.50712
  0
TEXT
  7
TextStyle03
  8
寸法
  6
CONTINUOUS
 62
     0
 10
-112.8625
 20
75.875
  1
700
 40
3.0
 72
     5
 11
-107.9875
 21
75.875
  0
ENDBLK
  0
BLOCK
  2
*DIM_0025
 70
    65
 10
0.0
 20
0.0
  0
LINE
  8
寸法
  6
BYBLOCK
 62
     0
 10
-75.40966
 20
46.399048
 11
-75.40966
 21
75.50712
  0
LINE
  8
寸法
  6
BYBLOCK
 62
     0
 10
-98.742993
 20
75.50712
 11
-75.40966
 21
75.50712
  0
POINT
  8
寸法
 62
     0
 10
-75.40966
 20
75.50712
  0
TEXT
  7
TextStyle03
  8
寸法
  6
CONTINUOUS
 62
     0
 10
-89.5375
 20
75.875
  1
700
 40
3.0
 72
     5
 11
-84.6625
 21
75.875
  0
ENDBLK
  0
BLOCK
  2
*DIM_0026
 70
    65
 10
0.0
 20
0.0
  0
LINE
  8
寸法
  6
BYBLOCK
 62
     0
 10
-52.076325
 20
46.399048
 11
-52.076325
 21
75.50712
  0
LINE
  8
寸法
  6
BYBLOCK
 62
     0
 10
-75.40966
 20
75.50712
 11
-52.076325
 21
75.50712
  0
POINT
  8
寸法
 62
     0
 10
-52.076325
 20
75.50712
  0
TEXT
  7
TextStyle03
  8
寸法
  6
CONTINUOUS
 62
     0
 10
-66.1875
 20
75.875
  1
700
 40
3.0
 72
     5
 11
-61.3125
 21
75.875
  0
ENDBLK
  0
BLOCK
  2
*DIM_0027
 70
    65
 10
0.0
 20
0.0
  0
LINE
  8
寸法
  6
BYBLOCK
 62
     0
 10
-28.742993
 20
46.399048
 11
-28.742993
 21
75.50712
  0
LINE
  8
寸法
  6
BYBLOCK
 62
     0
 10
-52.076325
 20
75.50712
 11
-28.742993
 21
75.50712
  0
POINT
  8
寸法
 62
     0
 10
-28.742993
 20
75.50712
  0
TEXT
  7
TextStyle03
  8
寸法
  6
CONTINUOUS
 62
     0
 10
-42.8625
 20
75.875
  1
700
 40
3.0
 72
     5
 11
-37.9875
 21
75.875
  0
ENDBLK
  0
BLOCK
  2
*DIM_0028
 70
    65
 10
0.0
 20
0.0
  0
LINE
  8
寸法
  6
BYBLOCK
 62
     0
 10
-5.40966
 20
46.399048
 11
-5.40966
 21
75.50712
  0
LINE
  8
寸法
  6
BYBLOCK
 62
     0
 10
-28.742993
 20
75.50712
 11
-5.40966
 21
75.50712
  0
POINT
  8
寸法
 62
     0
 10
-5.40966
 20
75.50712
  0
TEXT
  7
TextStyle03
  8
寸法
  6
CONTINUOUS
 62
     0
 10
-19.5375
 20
75.875
  1
700
 40
3.0
 72
     5
 11
-14.6625
 21
75.875
  0
ENDBLK
  0
BLOCK
  2
*DIM_0029
 70
    65
 10
0.0
 20
0.0
  0
LINE
  8
寸法
  6
BYBLOCK
 62
     0
 10
17.923675
 20
46.399048
 11
17.923675
 21
75.50712
  0
LINE
  8
寸法
  6
BYBLOCK
 62
     0
 10
-5.40966
 20
75.50712
 11
17.923675
 21
75.50712
  0
POINT
  8
寸法
 62
     0
 10
17.923675
 20
75.50712
  0
TEXT
  7
TextStyle03
  8
寸法
  6
CONTINUOUS
 62
     0
 10
3.8125
 20
75.875
  1
700
 40
3.0
 72
     5
 11
8.6875
 21
75.875
  0
ENDBLK
  0
BLOCK
  2
*DIM_0030
 70
    65
 10
0.0
 20
0.0
  0
LINE
  8
寸法
  6
BYBLOCK
 62
     0
 10
41.257007
 20
46.399048
 11
41.257007
 21
75.50712
  0
LINE
  8
寸法
  6
BYBLOCK
 62
     0
 10
17.923675
 20
75.50712
 11
41.257007
 21
75.50712
  0
POINT
  8
寸法
 62
     0
 10
41.257007
 20
75.50712
  0
TEXT
  7
TextStyle03
  8
寸法
  6
CONTINUOUS
 62
     0
 10
27.1375
 20
75.875
  1
700
 40
3.0
 72
     5
 11
32.0125
 21
75.875
  0
ENDBLK
  0
BLOCK
  2
*DIM_0031
 70
    65
 10
0.0
 20
0.0
  0
LINE
  8
寸法
  6
BYBLOCK
 62
     0
 10
64.59034
 20
46.399048
 11
64.59034
 21
75.50712
  0
LINE
  8
寸法
  6
BYBLOCK
 62
     0
 10
41.257007
 20
75.50712
 11
64.59034
 21
75.50712
  0
POINT
  8
寸法
 62
     0
 10
64.59034
 20
75.50712
  0
TEXT
  7
TextStyle03
  8
寸法
  6
CONTINUOUS
 62
     0
 10
50.4625
 20
75.875
  1
700
 40
3.0
 72
     5
 11
55.3375
 21
75.875
  0
ENDBLK
  0
BLOCK
  2
*GRP_0033
 70
    65
 10
0.0
 20
0.0
  0
LINE
  8
ボルト／ビス
  6
CONTINUOUS
 10
71.92367
 20
-79.624593
 11
71.92367
 21
-79.157928
  0
LINE
  8
ボルト／ビス
  6
CONTINUOUS
 10
71.557005
 20
-79.624593
 11
71.557005
 21
-79.557928
  0
LINE
  8
ボルト／ビス
  6
CONTINUOUS
 10
71.557005
 20
-79.557928
 11
72.290337
 21
-79.557928
  0
LINE
  8
ボルト／ビス
  6
CONTINUOUS
 10
72.290337
 20
-79.557928
 11
72.290337
 21
-79.624593
  0
LINE
  8
ボルト／ビス
  6
CONTINUOUS
 10
71.557005
 20
-79.624593
 11
72.290337
 21
-79.624593
  0
LINE
  8
ボルト／ビス
  6
CONTINUOUS
 10
71.62367
 20
-79.524593
 11
71.62367
 21
-79.557928
  0
LINE
  8
ボルト／ビス
  6
CONTINUOUS
 10
71.62367
 20
-79.524593
 11
72.22367
 21
-79.524593
  0
LINE
  8
ボルト／ビス
  6
CONTINUOUS
 10
72.22367
 20
-79.524593
 11
72.22367
 21
-79.557928
  0
LINE
  8
ボルト／ビス
  6
CONTINUOUS
 62
    64
 10
71.763295
 20
-79.324593
 11
71.73122
 21
-79.336268
  0
ARC
  8
ボルト／ビス
  6
CONTINUOUS
 62
    64
 10
71.779334
 20
-79.429572
 40
0.104978
 50
62.721967
 51
90.0
  0
ARC
  8
ボルト／ビス
  6
CONTINUOUS
 62
    64
 10
71.923671
 20
-79.726996
 40
0.402402
 50
76.165002
 51
103.834985
  0
LINE
  8
ボルト／ビス
  6
CONTINUOUS
 62
    64
 10
72.084045
 20
-79.324593
 11
72.11612
 21
-79.336268
  0
ARC
  8
ボルト／ビス
  6
CONTINUOUS
 62
    64
 10
72.068009
 20
-79.429572
 40
0.104978
 50
90.0
 51
117.278033
  0
LINE
  8
ボルト／ビス
  6
CONTINUOUS
 62
    64
 10
71.763295
 20
-79.324593
 11
72.084045
 21
-79.324593
  0
LINE
  8
ボルト／ビス
  6
CONTINUOUS
 62
    64
 10
72.11612
 20
-79.336268
 11
72.11612
 21
-79.457928
  0
LINE
  8
ボルト／ビス
  6
CONTINUOUS
 62
    64
 10
72.019895
 20
-79.336268
 11
72.019895
 21
-79.457928
  0
LINE
  8
ボルト／ビス
  6
CONTINUOUS
 62
    64
 10
71.73122
 20
-79.336268
 11
71.73122
 21
-79.457928
  0
LINE
  8
ボルト／ビス
  6
CONTINUOUS
 62
    64
 10
71.827445
 20
-79.336268
 11
71.827445
 21
-79.457928
  0
LINE
  8
ボルト／ビス
  6
CONTINUOUS
 10
71.73122
 20
-79.457928
 11
72.11612
 21
-79.457928
  0
LINE
  8
ボルト／ビス
  6
CONTINUOUS
 10
71.72367
 20
-79.457928
 11
71.72367
 21
-79.524593
  0
LINE
  8
ボルト／ビス
  6
CONTINUOUS
 10
71.72367
 20
-79.457928
 11
72.12367
 21
-79.457928
  0
LINE
  8
ボルト／ビス
  6
CONTINUOUS
 10
72.12367
 20
-79.457928
 11
72.12367
 21
-79.524593
  0
ENDBLK
  0
BLOCK
  2
*GRP_0034
 70
    65
 10
0.0
 20
0.0
  0
LINE
  8
ボルト／ビス
  6
DOT
 10
71.92367
 20
-67.95793
 11
71.92367
 21
-67.491265
  0
LINE
  8
ボルト／ビス
  6
DOT
 10
71.557005
 20
-67.95793
 11
71.557005
 21
-67.891265
  0
LINE
  8
ボルト／ビス
  6
DOT
 10
71.557005
 20
-67.891265
 11
72.290337
 21
-67.891265
  0
LINE
  8
ボルト／ビス
  6
DOT
 10
72.290337
 20
-67.891265
 11
72.290337
 21
-67.95793
  0
LINE
  8
ボルト／ビス
  6
DOT
 10
71.557005
 20
-67.95793
 11
72.290337
 21
-67.95793
  0
LINE
  8
ボルト／ビス
  6
DOT
 10
71.62367
 20
-67.85793
 11
71.62367
 21
-67.891265
  0
LINE
  8
ボルト／ビス
  6
DOT
 10
71.62367
 20
-67.85793
 11
72.22367
 21
-67.85793
  0
LINE
  8
ボルト／ビス
  6
DOT
 10
72.22367
 20
-67.85793
 11
72.22367
 21
-67.891265
  0
LINE
  8
ボルト／ビス
  6
DOT
 62
    64
 10
71.763295
 20
-67.65793
 11
71.73122
 21
-67.669605
  0
ARC
  8
ボルト／ビス
  6
DOT
 62
    64
 10
71.779334
 20
-67.76291
 40
0.104978
 50
62.721967
 51
90.0
  0
ARC
  8
ボルト／ビス
  6
DOT
 62
    64
 10
71.923671
 20
-68.060334
 40
0.402402
 50
76.165002
 51
103.834985
  0
LINE
  8
ボルト／ビス
  6
DOT
 62
    64
 10
72.084045
 20
-67.65793
 11
72.11612
 21
-67.669605
  0
ARC
  8
ボルト／ビス
  6
DOT
 62
    64
 10
72.068009
 20
-67.76291
 40
0.104978
 50
90.0
 51
117.278033
  0
LINE
  8
ボルト／ビス
  6
DOT
 62
    64
 10
71.763295
 20
-67.65793
 11
72.084045
 21
-67.65793
  0
LINE
  8
ボルト／ビス
  6
DOT
 62
    64
 10
72.11612
 20
-67.669605
 11
72.11612
 21
-67.791265
  0
LINE
  8
ボルト／ビス
  6
DOT
 62
    64
 10
72.019895
 20
-67.669605
 11
72.019895
 21
-67.791265
  0
LINE
  8
ボルト／ビス
  6
DOT
 62
    64
 10
71.73122
 20
-67.669605
 11
71.73122
 21
-67.791265
  0
LINE
  8
ボルト／ビス
  6
DOT
 62
    64
 10
71.827445
 20
-67.669605
 11
71.827445
 21
-67.791265
  0
LINE
  8
ボルト／ビス
  6
DOT
 10
71.73122
 20
-67.791265
 11
72.11612
 21
-67.791265
  0
LINE
  8
ボルト／ビス
  6
DOT
 10
71.72367
 20
-67.791265
 11
71.72367
 21
-67.85793
  0
LINE
  8
ボルト／ビス
  6
DOT
 10
71.72367
 20
-67.791265
 11
72.12367
 21
-67.791265
  0
LINE
  8
ボルト／ビス
  6
DOT
 10
72.12367
 20
-67.791265
 11
72.12367
 21
-67.85793
  0
ENDBLK
  0
BLOCK
  2
*GRP_0035
 70
    65
 10
0.0
 20
0.0
  0
LINE
  8
ボルト／ビス
  6
CONTINUOUS
 10
-129.409655
 20
-79.624593
 11
-129.409655
 21
-79.157928
  0
LINE
  8
ボルト／ビス
  6
CONTINUOUS
 10
-129.04299
 20
-79.624593
 11
-129.04299
 21
-79.557928
  0
LINE
  8
ボルト／ビス
  6
CONTINUOUS
 10
-129.04299
 20
-79.557928
 11
-129.776322
 21
-79.557928
  0
LINE
  8
ボルト／ビス
  6
CONTINUOUS
 10
-129.776322
 20
-79.557928
 11
-129.776322
 21
-79.624593
  0
LINE
  8
ボルト／ビス
  6
CONTINUOUS
 10
-129.04299
 20
-79.624593
 11
-129.776322
 21
-79.624593
  0
LINE
  8
ボルト／ビス
  6
CONTINUOUS
 10
-129.109655
 20
-79.524593
 11
-129.109655
 21
-79.557928
  0
LINE
  8
ボルト／ビス
  6
CONTINUOUS
 10
-129.109655
 20
-79.524593
 11
-129.709655
 21
-79.524593
  0
LINE
  8
ボルト／ビス
  6
CONTINUOUS
 10
-129.709655
 20
-79.524593
 11
-129.709655
 21
-79.557928
  0
LINE
  8
ボルト／ビス
  6
CONTINUOUS
 62
    64
 10
-129.24928
 20
-79.324593
 11
-129.217205
 21
-79.336268
  0
ARC
  8
ボルト／ビス
  6
CONTINUOUS
 62
    64
 10
-129.265319
 20
-79.429572
 40
0.104978
 50
90.0
 51
117.278033
  0
ARC
  8
ボルト／ビス
  6
CONTINUOUS
 62
    64
 10
-129.409656
 20
-79.726996
 40
0.402402
 50
76.165015
 51
103.834998
  0
LINE
  8
ボルト／ビス
  6
CONTINUOUS
 62
    64
 10
-129.57003
 20
-79.324593
 11
-129.602105
 21
-79.336268
  0
ARC
  8
ボルト／ビス
  6
CONTINUOUS
 62
    64
 10
-129.553994
 20
-79.429572
 40
0.104978
 50
62.721967
 51
90.0
  0
LINE
  8
ボルト／ビス
  6
CONTINUOUS
 62
    64
 10
-129.24928
 20
-79.324593
 11
-129.57003
 21
-79.324593
  0
LINE
  8
ボルト／ビス
  6
CONTINUOUS
 62
    64
 10
-129.602105
 20
-79.336268
 11
-129.602105
 21
-79.457928
  0
LINE
  8
ボルト／ビス
  6
CONTINUOUS
 62
    64
 10
-129.50588
 20
-79.336268
 11
-129.50588
 21
-79.457928
  0
LINE
  8
ボルト／ビス
  6
CONTINUOUS
 62
    64
 10
-129.217205
 20
-79.336268
 11
-129.217205
 21
-79.457928
  0
LINE
  8
ボルト／ビス
  6
CONTINUOUS
 62
    64
 10
-129.31343
 20
-79.336268
 11
-129.31343
 21
-79.457928
  0
LINE
  8
ボルト／ビス
  6
CONTINUOUS
 10
-129.217205
 20
-79.457928
 11
-129.602105
 21
-79.457928
  0
LINE
  8
ボルト／ビス
  6
CONTINUOUS
 10
-129.209655
 20
-79.457928
 11
-129.209655
 21
-79.524593
  0
LINE
  8
ボルト／ビス
  6
CONTINUOUS
 10
-129.209655
 20
-79.457928
 11
-129.609655
 21
-79.457928
  0
LINE
  8
ボルト／ビス
  6
CONTINUOUS
 10
-129.609655
 20
-79.457928
 11
-129.609655
 21
-79.524593
  0
ENDBLK
  0
BLOCK
  2
*GRP_0036
 70
    65
 10
0.0
 20
0.0
  0
LINE
  8
ボルト／ビス
  6
DOT
 10
-129.409655
 20
-67.95793
 11
-129.409655
 21
-67.491265
  0
LINE
  8
ボルト／ビス
  6
DOT
 10
-129.04299
 20
-67.95793
 11
-129.04299
 21
-67.891265
  0
LINE
  8
ボルト／ビス
  6
DOT
 10
-129.04299
 20
-67.891265
 11
-129.776322
 21
-67.891265
  0
LINE
  8
ボルト／ビス
  6
DOT
 10
-129.776322
 20
-67.891265
 11
-129.776322
 21
-67.95793
  0
LINE
  8
ボルト／ビス
  6
DOT
 10
-129.04299
 20
-67.95793
 11
-129.776322
 21
-67.95793
  0
LINE
  8
ボルト／ビス
  6
DOT
 10
-129.109655
 20
-67.85793
 11
-129.109655
 21
-67.891265
  0
LINE
  8
ボルト／ビス
  6
DOT
 10
-129.109655
 20
-67.85793
 11
-129.709655
 21
-67.85793
  0
LINE
  8
ボルト／ビス
  6
DOT
 10
-129.709655
 20
-67.85793
 11
-129.709655
 21
-67.891265
  0
LINE
  8
ボルト／ビス
  6
DOT
 62
    64
 10
-129.24928
 20
-67.65793
 11
-129.217205
 21
-67.669605
  0
ARC
  8
ボルト／ビス
  6
DOT
 62
    64
 10
-129.265319
 20
-67.76291
 40
0.104978
 50
90.0
 51
117.278033
  0
ARC
  8
ボルト／ビス
  6
DOT
 62
    64
 10
-129.409656
 20
-68.060334
 40
0.402402
 50
76.165015
 51
103.834998
  0
LINE
  8
ボルト／ビス
  6
DOT
 62
    64
 10
-129.57003
 20
-67.65793
 11
-129.602105
 21
-67.669605
  0
ARC
  8
ボルト／ビス
  6
DOT
 62
    64
 10
-129.553994
 20
-67.76291
 40
0.104978
 50
62.721967
 51
90.0
  0
LINE
  8
ボルト／ビス
  6
DOT
 62
    64
 10
-129.24928
 20
-67.65793
 11
-129.57003
 21
-67.65793
  0
LINE
  8
ボルト／ビス
  6
DOT
 62
    64
 10
-129.602105
 20
-67.669605
 11
-129.602105
 21
-67.791265
  0
LINE
  8
ボルト／ビス
  6
DOT
 62
    64
 10
-129.50588
 20
-67.669605
 11
-129.50588
 21
-67.791265
  0
LINE
  8
ボルト／ビス
  6
DOT
 62
    64
 10
-129.217205
 20
-67.669605
 11
-129.217205
 21
-67.791265
  0
LINE
  8
ボルト／ビス
  6
DOT
 62
    64
 10
-129.31343
 20
-67.669605
 11
-129.31343
 21
-67.791265
  0
LINE
  8
ボルト／ビス
  6
DOT
 10
-129.217205
 20
-67.791265
 11
-129.602105
 21
-67.791265
  0
LINE
  8
ボルト／ビス
  6
DOT
 10
-129.209655
 20
-67.791265
 11
-129.209655
 21
-67.85793
  0
LINE
  8
ボルト／ビス
  6
DOT
 10
-129.209655
 20
-67.791265
 11
-129.609655
 21
-67.791265
  0
LINE
  8
ボルト／ビス
  6
DOT
 10
-129.609655
 20
-67.791265
 11
-129.609655
 21
-67.85793
  0
ENDBLK
  0
BLOCK
  2
*GRP_0037
 70
    65
 10
0.0
 20
0.0
  0
LINE
  8
ボルト／ビス
  6
CONTINUOUS
 10
160.790272
 20
12.73238
 11
160.323608
 21
12.73238
  0
LINE
  8
ボルト／ビス
  6
CONTINUOUS
 10
160.790272
 20
12.365715
 11
160.723608
 21
12.365715
  0
LINE
  8
ボルト／ビス
  6
CONTINUOUS
 10
160.723608
 20
12.365715
 11
160.723608
 21
13.099048
  0
LINE
  8
ボルト／ビス
  6
CONTINUOUS
 10
160.723608
 20
13.099048
 11
160.790272
 21
13.099048
  0
LINE
  8
ボルト／ビス
  6
CONTINUOUS
 10
160.790272
 20
12.365715
 11
160.790272
 21
13.099048
  0
LINE
  8
ボルト／ビス
  6
CONTINUOUS
 10
160.690272
 20
12.43238
 11
160.723608
 21
12.43238
  0
LINE
  8
ボルト／ビス
  6
CONTINUOUS
 10
160.690272
 20
12.43238
 11
160.690272
 21
13.03238
  0
LINE
  8
ボルト／ビス
  6
CONTINUOUS
 10
160.690272
 20
13.03238
 11
160.723608
 21
13.03238
  0
LINE
  8
ボルト／ビス
  6
CONTINUOUS
 62
    64
 10
160.490273
 20
12.572005
 11
160.501947
 21
12.53993
  0
ARC
  8
ボルト／ビス
  6
CONTINUOUS
 62
    64
 10
160.595253
 20
12.588044
 40
0.104978
 50
152.721967
 51
180.0
  0
ARC
  8
ボルト／ビス
  6
CONTINUOUS
 62
    64
 10
160.892677
 20
12.732382
 40
0.402402
 50
166.165002
 51
193.834985
  0
LINE
  8
ボルト／ビス
  6
CONTINUOUS
 62
    64
 10
160.490273
 20
12.892755
 11
160.501947
 21
12.92483
  0
ARC
  8
ボルト／ビス
  6
CONTINUOUS
 62
    64
 10
160.595253
 20
12.876719
 40
0.104978
 50
180.0
 51
207.278033
  0
LINE
  8
ボルト／ビス
  6
CONTINUOUS
 62
    64
 10
160.490273
 20
12.572005
 11
160.490273
 21
12.892755
  0
LINE
  8
ボルト／ビス
  6
CONTINUOUS
 62
    64
 10
160.501947
 20
12.92483
 11
160.623608
 21
12.92483
  0
LINE
  8
ボルト／ビス
  6
CONTINUOUS
 62
    64
 10
160.501947
 20
12.828605
 11
160.623608
 21
12.828605
  0
LINE
  8
ボルト／ビス
  6
CONTINUOUS
 62
    64
 10
160.501947
 20
12.53993
 11
160.623608
 21
12.53993
  0
LINE
  8
ボルト／ビス
  6
CONTINUOUS
 62
    64
 10
160.501947
 20
12.636155
 11
160.623608
 21
12.636155
  0
LINE
  8
ボルト／ビス
  6
CONTINUOUS
 10
160.623608
 20
12.53993
 11
160.623608
 21
12.92483
  0
LINE
  8
ボルト／ビス
  6
CONTINUOUS
 10
160.623608
 20
12.53238
 11
160.690272
 21
12.53238
  0
LINE
  8
ボルト／ビス
  6
CONTINUOUS
 10
160.623608
 20
12.53238
 11
160.623608
 21
12.93238
  0
LINE
  8
ボルト／ビス
  6
CONTINUOUS
 10
160.623608
 20
12.93238
 11
160.690272
 21
12.93238
  0
ENDBLK
  0
BLOCK
  2
*GRP_0038
 70
    65
 10
0.0
 20
0.0
  0
LINE
  8
ボルト／ビス
  6
CONTINUOUS
 10
160.790272
 20
44.065715
 11
160.323608
 21
44.065715
  0
LINE
  8
ボルト／ビス
  6
CONTINUOUS
 10
160.790272
 20
44.43238
 11
160.723608
 21
44.43238
  0
LINE
  8
ボルト／ビス
  6
CONTINUOUS
 10
160.723608
 20
44.43238
 11
160.723608
 21
43.699048
  0
LINE
  8
ボルト／ビス
  6
CONTINUOUS
 10
160.723608
 20
43.699048
 11
160.790272
 21
43.699048
  0
LINE
  8
ボルト／ビス
  6
CONTINUOUS
 10
160.790272
 20
44.43238
 11
160.790272
 21
43.699048
  0
LINE
  8
ボルト／ビス
  6
CONTINUOUS
 10
160.690272
 20
44.365715
 11
160.723608
 21
44.365715
  0
LINE
  8
ボルト／ビス
  6
CONTINUOUS
 10
160.690272
 20
44.365715
 11
160.690272
 21
43.765715
  0
LINE
  8
ボルト／ビス
  6
CONTINUOUS
 10
160.690272
 20
43.765715
 11
160.723608
 21
43.765715
  0
LINE
  8
ボルト／ビス
  6
CONTINUOUS
 62
    64
 10
160.490273
 20
44.22609
 11
160.501947
 21
44.258165
  0
ARC
  8
ボルト／ビス
  6
CONTINUOUS
 62
    64
 10
160.595253
 20
44.210051
 40
0.104978
 50
180.0
 51
207.278033
  0
ARC
  8
ボルト／ビス
  6
CONTINUOUS
 62
    64
 10
160.892677
 20
44.065713
 40
0.402402
 50
166.165015
 51
193.834998
  0
LINE
  8
ボルト／ビス
  6
CONTINUOUS
 62
    64
 10
160.490273
 20
43.90534
 11
160.501947
 21
43.873265
  0
ARC
  8
ボルト／ビス
  6
CONTINUOUS
 62
    64
 10
160.595253
 20
43.921376
 40
0.104978
 50
152.721967
 51
180.0
  0
LINE
  8
ボルト／ビス
  6
CONTINUOUS
 62
    64
 10
160.490273
 20
44.22609
 11
160.490273
 21
43.90534
  0
LINE
  8
ボルト／ビス
  6
CONTINUOUS
 62
    64
 10
160.501947
 20
43.873265
 11
160.623608
 21
43.873265
  0
LINE
  8
ボルト／ビス
  6
CONTINUOUS
 62
    64
 10
160.501947
 20
43.96949
 11
160.623608
 21
43.96949
  0
LINE
  8
ボルト／ビス
  6
CONTINUOUS
 62
    64
 10
160.501947
 20
44.258165
 11
160.623608
 21
44.258165
  0
LINE
  8
ボルト／ビス
  6
CONTINUOUS
 62
    64
 10
160.501947
 20
44.16194
 11
160.623608
 21
44.16194
  0
LINE
  8
ボルト／ビス
  6
CONTINUOUS
 10
160.623608
 20
44.258165
 11
160.623608
 21
43.873265
  0
LINE
  8
ボルト／ビス
  6
CONTINUOUS
 10
160.623608
 20
44.265715
 11
160.690272
 21
44.265715
  0
LINE
  8
ボルト／ビス
  6
CONTINUOUS
 10
160.623608
 20
44.265715
 11
160.623608
 21
43.865715
  0
LINE
  8
ボルト／ビス
  6
CONTINUOUS
 10
160.623608
 20
43.865715
 11
160.690272
 21
43.865715
  0
ENDBLK
  0
BLOCK
  2
*DIM_0039
 70
    65
 10
0.0
 20
0.0
  0
LINE
  8
寸法
  6
BYBLOCK
 62
     0
 10
59.257007
 20
-59.624597
 11
87.226657
 21
-59.624597
  0
LINE
  8
寸法
  6
BYBLOCK
 62
     0
 10
87.226657
 20
-71.291265
 11
87.226657
 21
-59.624597
  0
POINT
  8
寸法
 62
     0
 10
87.226657
 20
-71.291265
  0
POINT
  8
寸法
 62
     0
 10
87.226657
 20
-59.624597
  0
TEXT
  7
TextStyle03
  8
寸法
  6
CONTINUOUS
 62
     0
 10
87.0
 20
-58.2125
  1
上昇高さ350
 40
3.0
 50
90.0
 72
     5
 11
87.0
 21
-39.8375
  0
ENDBLK
  0
ENDSEC
  0
SECTION
  2
ENTITIES
  0
POLYLINE
  8
通り芯
  6
CONTINUOUS
 66
     1
 70
     1
  0
VERTEX
  8
通り芯
 10
-210.0
 20
-148.5
  0
VERTEX
  8
通り芯
 10
210.0
 20
-148.5
  0
VERTEX
  8
通り芯
 10
210.0
 20
148.5
  0
VERTEX
  8
通り芯
 10
-210.0
 20
148.5
  0
SEQEND
  0
INSERT
  2
*GRP_0001
  8
型材断面
  6
CONTINUOUS
 10
0.0
 20
0.0
  0
LINE
  8
型材断面
  6
DASHDOT
 10
-128.742993
 20
13.399048
 11
168.93377
 21
13.399048
  0
POLYLINE
  8
型材断面
  6
CONTINUOUS
 66
     1
 70
     1
  0
VERTEX
  8
型材断面
 10
-19.342983
 20
3.623125
  0
VERTEX
  8
型材断面
 10
-38.114912
 20
3.623125
  0
VERTEX
  8
型材断面
 10
-38.114912
 20
-1.113717
  0
VERTEX
  8
型材断面
 10
-19.342983
 20
-1.113717
  0
SEQEND
  0
LINE
  8
型材断面
  6
DASHDOT
 10
-128.742993
 20
28.399048
 11
168.93377
 21
28.399048
  0
LINE
  8
型材断面
  6
DASHDOT
 10
-128.742993
 20
43.399048
 11
168.93377
 21
43.399048
  0
LINE
  8
型材断面
  6
DASHDOT
 10
-95.542993
 20
13.399048
 11
-95.542993
 21
43.399048
  0
LINE
  8
型材断面
  6
DOT
 10
-96.792993
 20
13.399048
 11
-96.792993
 21
43.399048
  0
LINE
  8
型材断面
  6
DOT
 10
-94.292993
 20
13.399048
 11
-94.292993
 21
43.399048
  0
LINE
  8
型材断面
  6
DASHDOT
 10
-128.742993
 20
-87.251428
 11
-128.742993
 21
43.399048
  0
LINE
  8
型材断面
  6
DOT
 10
-63.392993
 20
13.399048
 11
-63.392993
 21
43.399048
  0
LINE
  8
型材断面
  6
DOT
 10
-60.892993
 20
13.399048
 11
-60.892993
 21
43.399048
  0
LINE
  8
型材断面
  6
DASHDOT
 10
-62.142993
 20
13.399048
 11
-62.142993
 21
43.399048
  0
LINE
  8
型材断面
  6
DASHDOT
 10
-28.742993
 20
-87.251428
 11
-28.742993
 21
43.399048
  0
LINE
  8
型材断面
  6
DOT
 10
-29.992993
 20
13.399048
 11
-29.992993
 21
43.399048
  0
LINE
  8
型材断面
  6
DOT
 10
-27.492993
 20
13.399048
 11
-27.492993
 21
43.399048
  0
LINE
  8
型材断面
  6
DASHDOT
 10
4.657007
 20
13.399048
 11
4.657007
 21
43.399048
  0
LINE
  8
型材断面
  6
DOT
 10
3.407007
 20
13.399048
 11
3.407007
 21
43.399048
  0
LINE
  8
型材断面
  6
DOT
 10
5.907007
 20
13.399048
 11
5.907007
 21
43.399048
  0
LINE
  8
型材断面
  6
DOT
 10
36.807007
 20
13.399048
 11
36.807007
 21
43.399048
  0
LINE
  8
型材断面
  6
DOT
 10
39.307007
 20
13.399048
 11
39.307007
 21
43.399048
  0
LINE
  8
型材断面
  6
DASHDOT
 10
38.057007
 20
13.399048
 11
38.057007
 21
43.399048
  0
LINE
  8
型材断面
  6
DASHDOT
 10
71.257007
 20
-87.251428
 11
71.257007
 21
43.399048
  0
POLYLINE
  8
型材断面
  6
CONTINUOUS
 66
     1
 70
     1
  0
VERTEX
  8
型材断面
 10
-19.342983
 20
53.17497
  0
VERTEX
  8
型材断面
 10
-38.114912
 20
53.17497
  0
VERTEX
  8
型材断面
 10
-38.114912
 20
57.911813
  0
VERTEX
  8
型材断面
 10
-19.342983
 20
57.911813
  0
SEQEND
  0
LINE
  8
型材断面
  6
CONTINUOUS
 10
-112.076325
 20
46.029177
 11
-113.571955
 21
48.619685
  0
LINE
  8
型材断面
  6
CONTINUOUS
 10
-112.076325
 20
46.029177
 11
-110.580695
 21
48.619685
  0
LINE
  8
型材断面
  6
CONTINUOUS
 10
-110.580695
 20
48.619685
 11
-113.571955
 21
48.619685
  0
LINE
  8
型材断面
  6
CONTINUOUS
 10
-169.5952
 20
81.37652
 11
-168.999145
 21
78.786012
  0
LINE
  8
型材断面
  6
CONTINUOUS
 10
-169.5952
 20
81.37652
 11
-170.191258
 21
78.786012
  0
LINE
  8
型材断面
  6
CONTINUOUS
 10
-170.191258
 20
78.786012
 11
-168.999145
 21
78.786012
  0
LINE
  8
型材断面
  6
CONTINUOUS
 10
-175.617788
 20
75.50712
 11
-129.37601
 21
75.50712
  0
LINE
  8
型材断面
  6
CONTINUOUS
 10
-169.5952
 20
87.906395
 11
-171.09083
 21
85.315887
  0
LINE
  8
型材断面
  6
CONTINUOUS
 10
-169.5952
 20
87.906395
 11
-168.09957
 21
85.315887
  0
LINE
  8
型材断面
  6
CONTINUOUS
 10
-168.09957
 20
85.315887
 11
-171.09083
 21
85.315887
  0
LINE
  8
型材断面
  6
CONTINUOUS
 10
-175.617788
 20
84.377292
 11
-129.37601
 21
84.377292
  0
LINE
  8
型材断面
  6
CONTINUOUS
 10
-175.617788
 20
69.719088
 11
-129.37601
 21
69.719088
  0
LINE
  8
型材断面
  6
CONTINUOUS
 10
-131.373123
 20
28.399048
 11
-133.96363
 21
29.894678
  0
LINE
  8
型材断面
  6
CONTINUOUS
 10
-131.373123
 20
28.399048
 11
-133.96363
 21
26.903418
  0
LINE
  8
型材断面
  6
CONTINUOUS
 10
-133.96363
 20
26.903418
 11
-133.96363
 21
29.894678
  0
LINE
  8
型材断面
  6
CONTINUOUS
 10
-112.076325
 20
10.768917
 11
-113.571955
 21
8.17841
  0
LINE
  8
型材断面
  6
CONTINUOUS
 10
-112.076325
 20
10.768917
 11
-110.580695
 21
8.17841
  0
LINE
  8
型材断面
  6
CONTINUOUS
 10
-110.580695
 20
8.17841
 11
-113.571955
 21
8.17841
  0
LINE
  8
型材断面
  6
CONTINUOUS
 10
54.59034
 20
46.029177
 11
56.08597
 21
48.619685
  0
LINE
  8
型材断面
  6
CONTINUOUS
 10
54.59034
 20
46.029177
 11
53.09471
 21
48.619685
  0
LINE
  8
型材断面
  6
CONTINUOUS
 10
53.09471
 20
48.619685
 11
56.08597
 21
48.619685
  0
LINE
  8
型材断面
  6
CONTINUOUS
 10
54.59034
 20
10.768917
 11
56.08597
 21
8.17841
  0
LINE
  8
型材断面
  6
CONTINUOUS
 10
54.59034
 20
10.768917
 11
53.09471
 21
8.17841
  0
LINE
  8
型材断面
  6
CONTINUOUS
 10
53.09471
 20
8.17841
 11
56.08597
 21
8.17841
  0
LINE
  8
型材断面
  6
CONTINUOUS
 10
-28.742993
 20
46.029175
 11
-27.247362
 21
48.619683
  0
LINE
  8
型材断面
  6
CONTINUOUS
 10
-28.742993
 20
46.029175
 11
-30.238623
 21
48.619683
  0
LINE
  8
型材断面
  6
CONTINUOUS
 10
-30.238623
 20
48.619683
 11
-27.247362
 21
48.619683
  0
LINE
  8
型材断面
  6
CONTINUOUS
 10
-28.742993
 20
10.768915
 11
-27.247362
 21
8.178407
  0
LINE
  8
型材断面
  6
CONTINUOUS
 10
-28.742993
 20
10.768915
 11
-30.238623
 21
8.178407
  0
LINE
  8
型材断面
  6
CONTINUOUS
 10
-30.238623
 20
8.178407
 11
-27.247362
 21
8.178407
  0
LINE
  8
型材断面
  6
CONTINUOUS
 10
73.887138
 20
28.399048
 11
76.477645
 21
29.894678
  0
LINE
  8
型材断面
  6
CONTINUOUS
 10
73.887138
 20
28.399048
 11
76.477645
 21
26.903418
  0
LINE
  8
型材断面
  6
CONTINUOUS
 10
76.477645
 20
26.903418
 11
76.477645
 21
29.894678
  0
LINE
  8
型材断面
  6
CONTINUOUS
 10
73.887138
 20
39.69905
 11
76.477648
 21
39.102997
  0
LINE
  8
型材断面
  6
CONTINUOUS
 10
73.887138
 20
39.69905
 11
76.477645
 21
40.29511
  0
LINE
  8
型材断面
  6
CONTINUOUS
 10
76.477645
 20
40.29511
 11
76.477648
 21
39.102997
  0
LINE
  8
型材断面
  6
CONTINUOUS
 10
73.887138
 20
17.099045
 11
76.477648
 21
17.695097
  0
LINE
  8
型材断面
  6
CONTINUOUS
 10
73.887138
 20
17.099045
 11
76.477645
 21
16.502985
  0
LINE
  8
型材断面
  6
CONTINUOUS
 10
76.477645
 20
16.502985
 11
76.477648
 21
17.695097
  0
LINE
  8
型材断面
  6
CONTINUOUS
 10
-131.373123
 20
39.69905
 11
-133.963633
 21
39.102997
  0
LINE
  8
型材断面
  6
CONTINUOUS
 10
-131.373123
 20
39.69905
 11
-133.96363
 21
40.29511
  0
LINE
  8
型材断面
  6
CONTINUOUS
 10
-133.96363
 20
40.29511
 11
-133.963633
 21
39.102997
  0
LINE
  8
型材断面
  6
CONTINUOUS
 10
-131.373123
 20
17.099045
 11
-133.963633
 21
17.695097
  0
LINE
  8
型材断面
  6
CONTINUOUS
 10
-131.373123
 20
17.099045
 11
-133.96363
 21
16.502985
  0
LINE
  8
型材断面
  6
CONTINUOUS
 10
-133.96363
 20
16.502985
 11
-133.963633
 21
17.695097
  0
INSERT
  2
*GRP_0013
  8
型材断面
  6
CONTINUOUS
 10
0.0
 20
0.0
  0
INSERT
  2
*GRP_0014
  8
型材断面
  6
CONTINUOUS
 10
0.0
 20
0.0
  0
INSERT
  2
*GRP_0015
  8
型材断面
  6
CONTINUOUS
 10
0.0
 20
0.0
  0
INSERT
  2
*GRP_0016
  8
型材断面
  6
CONTINUOUS
 10
0.0
 20
0.0
  0
LINE
  8
型材断面
  6
CONTINUOUS
 62
    47
 10
168.323775
 20
11.915715
 11
167.823775
 21
11.915715
  0
LINE
  8
型材断面
  6
CONTINUOUS
 62
    47
 10
167.823775
 20
11.415715
 11
164.507107
 21
11.415715
  0
LINE
  8
型材断面
  6
CONTINUOUS
 62
    47
 10
162.167058
 20
11.415715
 11
164.34039
 21
11.415715
  0
LINE
  8
型材断面
  6
CONTINUOUS
 62
    47
 10
162.167058
 20
12.299048
 11
161.790272
 21
12.299048
  0
LINE
  8
型材断面
  6
CONTINUOUS
 62
    47
 10
162.167058
 20
11.415715
 11
162.167058
 21
28.399048
  0
LINE
  8
型材断面
  6
CONTINUOUS
 62
    47
 10
164.507107
 20
11.415715
 11
164.507075
 21
28.399048
  0
LINE
  8
型材断面
  6
CONTINUOUS
 62
    47
 10
167.823775
 20
11.415715
 11
167.823775
 21
28.399048
  0
LINE
  8
型材断面
  6
CONTINUOUS
 62
    47
 10
168.323775
 20
11.915715
 11
168.323775
 21
28.399048
  0
LINE
  8
型材断面
  6
CONTINUOUS
 62
    47
 10
164.34039
 20
11.415715
 11
164.34039
 21
28.399048
  0
LINE
  8
型材断面
  6
CONTINUOUS
 62
    47
 10
168.323775
 20
44.882382
 11
167.823775
 21
44.882382
  0
LINE
  8
型材断面
  6
CONTINUOUS
 62
    47
 10
167.823775
 20
45.382382
 11
164.507107
 21
45.382382
  0
LINE
  8
型材断面
  6
CONTINUOUS
 62
    47
 10
162.167058
 20
45.382382
 11
164.34039
 21
45.382382
  0
LINE
  8
型材断面
  6
CONTINUOUS
 62
    47
 10
162.167058
 20
44.499048
 11
161.790272
 21
44.499048
  0
LINE
  8
型材断面
  6
CONTINUOUS
 62
    47
 10
162.167058
 20
45.382382
 11
162.167058
 21
28.399048
  0
LINE
  8
型材断面
  6
CONTINUOUS
 62
    47
 10
164.507107
 20
45.382382
 11
164.507075
 21
28.399048
  0
LINE
  8
型材断面
  6
CONTINUOUS
 62
    47
 10
167.823775
 20
45.382382
 11
167.823775
 21
28.399048
  0
LINE
  8
型材断面
  6
CONTINUOUS
 62
    47
 10
168.323775
 20
44.882382
 11
168.323775
 21
28.399048
  0
LINE
  8
型材断面
  6
CONTINUOUS
 62
    47
 10
164.34039
 20
45.382382
 11
164.34039
 21
28.399048
  0
LINE
  8
型材断面
  6
CONTINUOUS
 62
    47
 10
72.74034
 20
-87.1581
 11
72.74034
 21
-86.6581
  0
LINE
  8
型材断面
  6
CONTINUOUS
 62
    47
 10
73.24034
 20
-86.6581
 11
73.24034
 21
-83.341432
  0
LINE
  8
型材断面
  6
CONTINUOUS
 62
    47
 10
73.24034
 20
-81.001383
 11
73.24034
 21
-83.174715
  0
LINE
  8
型材断面
  6
CONTINUOUS
 62
    47
 10
72.357007
 20
-81.001383
 11
72.357007
 21
-80.624597
  0
LINE
  8
型材断面
  6
CONTINUOUS
 62
    47
 10
72.74034
 20
-87.1581
 11
-28.742993
 21
-87.1581
  0
LINE
  8
型材断面
  6
CONTINUOUS
 62
    47
 10
73.24034
 20
-86.6581
 11
-28.742993
 21
-86.6581
  0
LINE
  8
型材断面
  6
CONTINUOUS
 62
    47
 10
73.24034
 20
-83.341432
 11
-28.742993
 21
-83.341243
  0
LINE
  8
型材断面
  6
CONTINUOUS
 62
    47
 10
73.24034
 20
-83.174715
 11
-28.742993
 21
-83.174715
  0
LINE
  8
型材断面
  6
CONTINUOUS
 62
    47
 10
73.24034
 20
-81.001383
 11
-28.742993
 21
-81.001383
  0
LINE
  8
型材断面
  6
CONTINUOUS
 62
    47
 10
-130.226325
 20
-87.1581
 11
-130.226325
 21
-86.6581
  0
LINE
  8
型材断面
  6
CONTINUOUS
 62
    47
 10
-130.726325
 20
-86.6581
 11
-130.726325
 21
-83.341432
  0
LINE
  8
型材断面
  6
CONTINUOUS
 62
    47
 10
-130.726325
 20
-81.001383
 11
-130.726325
 21
-83.174715
  0
LINE
  8
型材断面
  6
CONTINUOUS
 62
    47
 10
-129.842993
 20
-81.001383
 11
-129.842993
 21
-80.624597
  0
LINE
  8
型材断面
  6
CONTINUOUS
 62
    47
 10
-130.226325
 20
-87.1581
 11
-28.742993
 21
-87.1581
  0
LINE
  8
型材断面
  6
CONTINUOUS
 62
    47
 10
-130.726325
 20
-86.6581
 11
-28.742993
 21
-86.6581
  0
LINE
  8
型材断面
  6
CONTINUOUS
 62
    47
 10
-130.726325
 20
-83.341432
 11
-28.742993
 21
-83.341243
  0
LINE
  8
型材断面
  6
CONTINUOUS
 62
    47
 10
-130.726325
 20
-83.174715
 11
-28.742993
 21
-83.174715
  0
LINE
  8
型材断面
  6
CONTINUOUS
 62
    47
 10
-130.726325
 20
-81.001383
 11
-28.742993
 21
-81.001383
  0
LINE
  8
型材断面
  6
CONTINUOUS
 10
-175.617788
 20
63.931055
 11
-129.37601
 21
63.931055
  0
TEXT
  7
TextStyle03
  8
文字
  6
CONTINUOUS
 10
-37.025
 20
-0.075
  1
可動装置側
 40
3.0
 72
     5
 11
-20.525
 21
-0.075
  0
TEXT
  7
TextStyle03
  8
文字
  6
CONTINUOUS
 10
147.775
 20
-86.1
  1
網入り6.8t
 40
3.0
 72
     5
 11
164.4625
 21
-86.1
  0
TEXT
  7
TextStyle03
  8
文字
  6
CONTINUOUS
 10
154.45
 20
-90.775
  1
×６枚
 40
3.0
 72
     5
 11
164.2
 21
-90.775
  0
TEXT
  7
TextStyle03
  8
文字
  6
CONTINUOUS
 10
-37.025
 20
53.875
  1
可動装置側
 40
3.0
 72
     5
 11
-20.525
 21
53.875
  0
TEXT
  7
TextStyle03
  8
文字
  6
CONTINUOUS
 10
-166.775
 20
80.0
  1
はケーシング位置を示す
 40
3.0
 72
     5
 11
-130.025
 21
80.0
  0
TEXT
  7
TextStyle03
  8
文字
  6
CONTINUOUS
 10
-166.775
 20
76.625
  1
４ヶ所中1ヶ所に設定
 40
3.0
 72
     5
 11
-135.0875
 21
76.625
  0
TEXT
  7
TextStyle03
  8
文字
  6
CONTINUOUS
 10
-166.775
 20
85.525
  1
は排水穴位置を示す
 40
3.0
 72
     5
 11
-136.775
 21
85.525
  0
TEXT
  7
TextStyle03
  8
文字
  6
CONTINUOUS
 10
-149.7
 20
6.875
  1
アンカーピッチ
 40
3.0
 50
90.0
 72
     5
 11
-149.7
 21
30.125
  0
TEXT
  7
TextStyle03
  8
文字
  6
CONTINUOUS
 10
-115.3
 20
80.55
  1
アンカーピッチ
 40
3.0
 72
     5
 11
-92.05
 21
80.55
  0
TEXT
  7
TextStyle03
  8
文字
  6
CONTINUOUS
 10
-170.5
 20
70.65
  1
アンカー数量　２２ヶ所
 40
3.0
 72
     5
 11
-133.75
 21
70.65
  0
TEXT
  7
TextStyle03
  8
文字
  6
CONTINUOUS
 10
-170.55
 20
64.875
  1
アームユニット数　４～６ヶ所
 40
3.0
 72
     5
 11
-123.675
 21
64.875
  0
TEXT
  7
TextStyle03
  8
文字
  6
CONTINUOUS
 10
-175.475
 20
59.925
  1
※重量に依るのでご相談ください
 40
3.0
 72
     5
 11
-125.225
 21
59.925
  0
TEXT
  7
TextStyle03
  8
文字
  6
CONTINUOUS
 10
78.1
 20
125.25
  1
シリーズ：ＴＤ２Ｌ
 40
5.0
 72
     5
 11
128.1
 21
125.25
  0
TEXT
  7
TextStyle03
  8
文字
  6
CONTINUOUS
 10
78.1
 20
119.625
  1
　　　　　（上下可動）900×6000タイプ
 40
5.0
 72
     5
 11
181.5375
 21
119.625
  0
TEXT
  7
TextStyle03
  8
文字
  6
CONTINUOUS
 10
78.1
 20
114.0
  1
図面名　：外観姿図
 40
5.0
 72
     5
 11
128.1
 21
114.0
  0
TEXT
  7
TextStyle03
  8
文字
  6
CONTINUOUS
 10
78.1
 20
108.375
  1
　　　　　　
 40
5.0
 72
     5
 11
111.225
 21
108.375
  0
TEXT
  7
TextStyle03
  8
文字
  6
CONTINUOUS
 10
77.125
 20
103.95
  1
ＮＳコード：ＮＳＤＺＬ
 40
5.0
 72
     5
 11
138.375
 21
103.95
  0
INSERT
  2
*DIM_0002
  8
寸法
  6
CONTINUOUS
 10
0.0
 20
0.0
  0
INSERT
  2
*DIM_0003
  8
寸法
  6
CONTINUOUS
 10
0.0
 20
0.0
  0
INSERT
  2
*DIM_0004
  8
寸法
  6
CONTINUOUS
 10
0.0
 20
0.0
  0
INSERT
  2
*DIM_0005
  8
寸法
  6
CONTINUOUS
 10
0.0
 20
0.0
  0
INSERT
  2
*DIM_0006
  8
寸法
  6
CONTINUOUS
 10
0.0
 20
0.0
  0
INSERT
  2
*DIM_0007
  8
寸法
  6
CONTINUOUS
 10
0.0
 20
0.0
  0
INSERT
  2
*DIM_0008
  8
寸法
  6
CONTINUOUS
 10
0.0
 20
0.0
  0
INSERT
  2
*DIM_0009
  8
寸法
  6
CONTINUOUS
 10
0.0
 20
0.0
  0
INSERT
  2
*DIM_0010
  8
寸法
  6
CONTINUOUS
 10
0.0
 20
0.0
  0
INSERT
  2
*DIM_0011
  8
寸法
  6
CONTINUOUS
 10
0.0
 20
0.0
  0
INSERT
  2
*DIM_0017
  8
寸法
  6
CONTINUOUS
 10
0.0
 20
0.0
  0
INSERT
  2
*DIM_0018
  8
寸法
  6
CONTINUOUS
 10
0.0
 20
0.0
  0
INSERT
  2
*DIM_0019
  8
寸法
  6
CONTINUOUS
 10
0.0
 20
0.0
  0
INSERT
  2
*DIM_0020
  8
寸法
  6
CONTINUOUS
 10
0.0
 20
0.0
  0
INSERT
  2
*DIM_0021
  8
寸法
  6
CONTINUOUS
 10
0.0
 20
0.0
  0
INSERT
  2
*DIM_0022
  8
寸法
  6
CONTINUOUS
 10
0.0
 20
0.0
  0
INSERT
  2
*DIM_0023
  8
寸法
  6
CONTINUOUS
 10
0.0
 20
0.0
  0
INSERT
  2
*DIM_0024
  8
寸法
  6
CONTINUOUS
 10
0.0
 20
0.0
  0
INSERT
  2
*DIM_0025
  8
寸法
  6
CONTINUOUS
 10
0.0
 20
0.0
  0
INSERT
  2
*DIM_0026
  8
寸法
  6
CONTINUOUS
 10
0.0
 20
0.0
  0
INSERT
  2
*DIM_0027
  8
寸法
  6
CONTINUOUS
 10
0.0
 20
0.0
  0
INSERT
  2
*DIM_0028
  8
寸法
  6
CONTINUOUS
 10
0.0
 20
0.0
  0
INSERT
  2
*DIM_0029
  8
寸法
  6
CONTINUOUS
 10
0.0
 20
0.0
  0
INSERT
  2
*DIM_0030
  8
寸法
  6
CONTINUOUS
 10
0.0
 20
0.0
  0
INSERT
  2
*DIM_0031
  8
寸法
  6
CONTINUOUS
 10
0.0
 20
0.0
  0
INSERT
  2
*DIM_0039
  8
寸法
  6
CONTINUOUS
 10
0.0
 20
0.0
  0
LINE
  8
別途部材
  6
CONTINUOUS
 10
-130.80966
 20
11.33238
 11
-130.40966
 21
11.73238
  0
LINE
  8
別途部材
  6
CONTINUOUS
 10
-128.742993
 20
13.399048
 11
-120.683738
 21
21.458305
  0
LINE
  8
別途部材
  6
CONTINUOUS
 10
-130.40966
 20
11.73238
 11
-28.742993
 21
11.73238
  0
LINE
  8
別途部材
  6
CONTINUOUS
 10
-130.80966
 20
11.33238
 11
-28.742993
 21
11.33238
  0
LINE
  8
別途部材
  6
CONTINUOUS
 10
73.323675
 20
11.33238
 11
72.923675
 21
11.73238
  0
LINE
  8
別途部材
  6
CONTINUOUS
 10
71.257007
 20
13.399048
 11
63.197753
 21
21.458305
  0
LINE
  8
別途部材
  6
CONTINUOUS
 10
72.923675
 20
11.73238
 11
-28.742993
 21
11.73238
  0
LINE
  8
別途部材
  6
CONTINUOUS
 10
73.323675
 20
11.33238
 11
-28.742993
 21
11.33238
  0
LINE
  8
別途部材
  6
CONTINUOUS
 62
    96
 10
160.790272
 20
11.73238
 11
161.790272
 21
11.33238
  0
LINE
  8
別途部材
  6
CONTINUOUS
 10
72.923675
 20
11.73238
 11
72.923675
 21
28.399048
  0
LINE
  8
別途部材
  6
CONTINUOUS
 10
73.323675
 20
11.33238
 11
73.323675
 21
28.399048
  0
LINE
  8
別途部材
  6
CONTINUOUS
 10
-130.80966
 20
11.33238
 11
-130.80966
 21
28.399048
  0
LINE
  8
別途部材
  6
CONTINUOUS
 10
-130.40966
 20
11.73238
 11
-130.40966
 21
28.399048
  0
LINE
  8
別途部材
  6
CONTINUOUS
 10
-130.80966
 20
45.465715
 11
-130.40966
 21
45.065715
  0
LINE
  8
別途部材
  6
CONTINUOUS
 10
-128.742993
 20
43.399048
 11
-120.683738
 21
35.33979
  0
LINE
  8
別途部材
  6
CONTINUOUS
 10
-130.40966
 20
45.065715
 11
-28.742993
 21
45.065715
  0
LINE
  8
別途部材
  6
CONTINUOUS
 10
-130.80966
 20
45.465715
 11
-28.742993
 21
45.465715
  0
LINE
  8
別途部材
  6
CONTINUOUS
 10
73.323675
 20
45.465715
 11
72.923675
 21
45.065715
  0
LINE
  8
別途部材
  6
CONTINUOUS
 10
71.257007
 20
43.399048
 11
63.197753
 21
35.33979
  0
LINE
  8
別途部材
  6
CONTINUOUS
 10
72.923675
 20
45.065715
 11
-28.742993
 21
45.065715
  0
LINE
  8
別途部材
  6
CONTINUOUS
 10
73.323675
 20
45.465715
 11
-28.742993
 21
45.465715
  0
LINE
  8
別途部材
  6
CONTINUOUS
 10
72.923675
 20
45.065715
 11
72.923675
 21
28.399048
  0
LINE
  8
別途部材
  6
CONTINUOUS
 10
73.323675
 20
45.465715
 11
73.323675
 21
28.399048
  0
LINE
  8
別途部材
  6
CONTINUOUS
 10
-130.80966
 20
45.465715
 11
-130.80966
 21
28.399048
  0
LINE
  8
別途部材
  6
CONTINUOUS
 10
-130.40966
 20
45.065715
 11
-130.40966
 21
28.399048
  0
LINE
  8
別途部材
  6
CONTINUOUS
 62
    96
 10
160.790272
 20
11.73238
 11
160.790272
 21
28.399048
  0
LINE
  8
別途部材
  6
CONTINUOUS
 10
161.790272
 20
11.33238
 11
161.790272
 21
28.399048
  0
LINE
  8
別途部材
  6
CONTINUOUS
 62
    96
 10
160.790272
 20
45.065715
 11
161.790272
 21
45.465715
  0
LINE
  8
別途部材
  6
CONTINUOUS
 62
    96
 10
160.790272
 20
45.065715
 11
160.790272
 21
28.399048
  0
LINE
  8
別途部材
  6
CONTINUOUS
 10
161.790272
 20
45.465715
 11
161.790272
 21
28.399048
  0
ARC
  8
別途部材
  6
CONTINUOUS
 10
170.123608
 20
28.399048
 40
17.666667
 50
121.890796
 51
238.109204
  0
LINE
  8
別途部材
  6
DOT
 62
    96
 10
-130.40966
 20
-67.95793
 11
-130.80966
 21
-68.95793
  0
LINE
  8
別途部材
  6
DOT
 62
    96
 10
-130.40966
 20
-67.95793
 11
-28.742993
 21
-67.95793
  0
LINE
  8
別途部材
  6
DOT
 10
-130.80966
 20
-68.95793
 11
-28.742993
 21
-68.95793
  0
LINE
  8
別途部材
  6
DOT
 62
    96
 10
72.923675
 20
-67.95793
 11
73.323675
 21
-68.95793
  0
LINE
  8
別途部材
  6
DOT
 62
    96
 10
72.923675
 20
-67.95793
 11
-28.742993
 21
-67.95793
  0
LINE
  8
別途部材
  6
DOT
 10
73.323675
 20
-68.95793
 11
-28.742993
 21
-68.95793
  0
ARC
  8
別途部材
  6
DOT
 10
-113.742993
 20
-77.291265
 40
17.666667
 50
90.0
 51
148.109204
  0
LINE
  8
別途部材
  6
DOT
 10
-28.742993
 20
-59.624597
 11
-113.742993
 21
-59.624597
  0
ARC
  8
別途部材
  6
DOT
 10
56.257007
 20
-77.291265
 40
17.666667
 50
31.890796
 51
90.0
  0
LINE
  8
別途部材
  6
DOT
 10
-28.742993
 20
-59.624597
 11
56.257007
 21
-59.624597
  0
INSERT
  2
*GRP_0012
  8
別途部材
  6
CONTINUOUS
 10
0.0
 20
0.0
  0
INSERT
  2
*GRP_0033
  8
別途部材
  6
DOT
 10
0.0
 20
0.0
  0
INSERT
  2
*GRP_0034
  8
別途部材
  6
DOT
 10
0.0
 20
0.0
  0
INSERT
  2
*GRP_0035
  8
別途部材
  6
DOT
 10
0.0
 20
0.0
  0
INSERT
  2
*GRP_0036
  8
別途部材
  6
DOT
 10
0.0
 20
0.0
  0
INSERT
  2
*GRP_0037
  8
別途部材
  6
DOT
 10
0.0
 20
0.0
  0
INSERT
  2
*GRP_0038
  8
別途部材
  6
DOT
 10
0.0
 20
0.0
  0
LINE
  8
曲げ物
  6
CONTINUOUS
 10
166.343563
 20
-92.533713
 11
134.010227
 21
-92.533713
  0
LINE
  8
曲げ物
  6
CONTINUOUS
 10
166.343563
 20
-63.20038
 11
134.010227
 21
-63.20038
  0
LINE
  8
曲げ物
  6
CONTINUOUS
 10
134.010227
 20
-92.533713
 11
134.010227
 21
-63.20038
  0
LINE
  8
曲げ物
  6
CONTINUOUS
 10
166.343563
 20
-92.533713
 11
166.343563
 21
-63.20038
  0
ENDSEC
  0
EOF
