  0
SECTION
  2
HEADER
  9
$EXTMIN
 10
-210.0
 20
-148.5
  9
$EXTMAX
 10
210.0
 20
148.5
  9
$PDMODE
 70
    32
  9
$PDSIZE
 40
1.5
  9
$LTSCALE
 40
10.0
  0
ENDSEC
  0
SECTION
  2
TABLES
  0
TABLE
  2
LTYPE
 70
    15
  0
LTYPE
  2
CONTINUOUS
 70
    64
  3
実線
 72
    65
 73
     0
 40
0.0
  0
LTYPE
  2
DASHED
 70
    64
  3
破線A
 72
    65
 73
     2
 40
0.6
 49
0.4
 49
-0.2
  0
LTYPE
  2
DASHEDX2
 70
    64
  3
破線B
 72
    65
 73
     2
 40
1.3
 49
0.9
 49
-0.4
  0
LTYPE
  2
DASHDOT
 70
    64
  3
１点鎖線A
 72
    65
 73
     4
 40
0.5375
 49
0.375
 49
-0.05
 49
0.0625
 49
-0.05
  0
LTYPE
  2
DASHDOTX2
 70
    64
  3
１点鎖線B
 72
    65
 73
     4
 40
1.075
 49
0.75
 49
-0.1
 49
0.125
 49
-0.1
  0
LTYPE
  2
DIVIDE2
 70
    64
  3
２点鎖線A
 72
    65
 73
     6
 40
0.5125
 49
0.3
 49
-0.0375
 49
0.05
 49
-0.0375
 49
0.05
 49
-0.0375
  0
LTYPE
  2
DIVIDE
 70
    64
  3
２点鎖線B
 72
    65
 73
     6
 40
1.05
 49
0.55
 49
-0.1
 49
0.1
 49
-0.1
 49
0.1
 49
-0.1
  0
LTYPE
  2
DOT
 70
    64
  3
点線A
 72
    65
 73
     2
 40
0.1125
 49
0.0625
 49
-0.05
  0
LTYPE
  2
DOTX2
 70
    64
  3
点線B
 72
    65
 73
     2
 40
0.275
 49
0.15
 49
-0.125
  0
LTYPE
  2
CONTINUOUS
 70
    64
  3
実線
 72
    65
 73
     0
 40
0.0
  0
LTYPE
  2
CONTINUOUS
 70
    64
  3
実線
 72
    65
 73
     0
 40
0.0
  0
LTYPE
  2
CONTINUOUS
 70
    64
  3
実線
 72
    65
 73
     0
 40
0.0
  0
LTYPE
  2
CONTINUOUS
 70
    64
  3
実線
 72
    65
 73
     0
 40
0.0
  0
LTYPE
  2
CONTINUOUS
 70
    64
  3
実線
 72
    65
 73
     0
 40
0.0
  0
LTYPE
  2
CONTINUOUS
 70
    64
  3
実線
 72
    65
 73
     0
 40
0.0
  0
ENDTAB
  0
TABLE
  2
LAYER
 70
    34
  0
LAYER
  2
通り芯
 70
     0
 62
    15
  6
CONTINUOUS
  0
LAYER
  2
補助線
 70
     0
 62
    16
  6
DOT
  0
LAYER
  2
躯体
 70
     0
 62
    31
  6
CONTINUOUS
  0
LAYER
  2
型材
 70
     0
 62
    32
  6
CONTINUOUS
  0
LAYER
  2
型材断面
 70
     0
 62
    47
  6
CONTINUOUS
  0
LAYER
  2
ガラス
 70
     0
 62
    48
  6
CONTINUOUS
  0
LAYER
  2
ゴム等
 70
     0
 62
    63
  6
CONTINUOUS
  0
LAYER
  2
ボルト／ビス
 70
     0
 62
    64
  6
CONTINUOUS
  0
LAYER
  2
文字
 70
     0
 62
    79
  6
CONTINUOUS
  0
LAYER
  2
寸法
 70
     0
 62
    80
  6
CONTINUOUS
  0
LAYER
  2
ﾊｯﾁﾝｸﾞ
 70
     0
 62
    95
  6
CONTINUOUS
  0
LAYER
  2
別途部材
 70
     0
 62
    96
  6
CONTINUOUS
  0
LAYER
  2
曲げ物
 70
     0
 62
   111
  6
CONTINUOUS
  0
LAYER
  2
鉄骨等
 70
     0
 62
   112
  6
CONTINUOUS
  0
LAYER
  2
St
 70
     0
 62
   127
  6
CONTINUOUS
  0
LAYER
  2
その他部品等
 70
     0
 62
   128
  6
CONTINUOUS
  0
LAYER
  2
ｶﾞｽｹｯﾄ
 70
     0
 62
   143
  6
CONTINUOUS
  0
LAYER
  2
ｽｹｯﾁ
 70
     0
 62
    14
  6
CONTINUOUS
  0
LAYER
  2
0
 70
     0
 62
    17
  6
CONTINUOUS
  0
LAYER
  2
1
 70
     0
 62
    30
  6
CONTINUOUS
  0
LAYER
  2
4
 70
     0
 62
    33
  6
CONTINUOUS
  0
LAYER
  2
ﾚｲﾔ3
 70
     0
 62
    46
  6
CONTINUOUS
  0
LAYER
  2
外形線
 70
     0
 62
    49
  6
CONTINUOUS
  0
LAYER
  2
部品
 70
     0
 62
    14
  6
CONTINUOUS
  0
LAYER
  2
サッシ芯
 70
     0
 62
    17
  6
DASHDOTX2
  0
LAYER
  2
寸法線
 70
     0
 62
    62
  6
CONTINUOUS
  0
LAYER
  2
姿図外形線
 70
     0
 62
    65
  6
CONTINUOUS
  0
LAYER
  2
姿補助線
 70
     0
 62
    30
  6
CONTINUOUS
  0
LAYER
  2
透視線
 70
     0
 62
    78
  6
DOT
  0
LAYER
  2
用紙
 70
     0
 62
    81
  6
CONTINUOUS
  0
LAYER
  2
実線図枠
 70
     0
 62
    94
  6
CONTINUOUS
  0
LAYER
  2
補助図枠
 70
     0
 62
    97
  6
CONTINUOUS
  0
LAYER
  2
建具記号
 70
     0
 62
   110
  6
CONTINUOUS
  0
LAYER
  2
補助文字
 70
     0
 62
   113
  6
CONTINUOUS
  0
ENDTAB
  0
TABLE
  2
STYLE
 70
    10
  0
STYLE
  2
STANDARD
 70
     0
 40
1.0
 41
1.0
 42
1.0
 50
0.0
 71
     0
  3
TXT
  4
BIGFONT
  0
STYLE
  2
TATE
 70
     4
 40
1.0
 41
1.0
 42
1.0
 50
0.0
 71
     0
  3
TXT
  4
BIGFONT
  0
STYLE
  2
TextStyle03
 70
     0
 40
1.0
 41
1.0
 42
1.0
 50
0.0
 71
     0
  3
MONOTXT
  4
BIGFONT
  0
STYLE
  2
TextStyle04
 70
     0
 40
1.0
 41
1.0
 42
1.0
 50
0.0
 71
     0
  3
MONOTXT
  4
BIGFONT
  0
STYLE
  2
TextStyle05
 70
     0
 40
1.0
 41
1.0
 42
1.0
 50
0.0
 71
     0
  3
MONOTXT
  4
BIGFONT
  0
STYLE
  2
TextStyle06
 70
     0
 40
1.0
 41
1.0
 42
1.0
 50
0.0
 71
     0
  3
MONOTXT
  4
BIGFONT
  0
STYLE
  2
TextStyle07
 70
     0
 40
1.0
 41
1.0
 42
1.0
 50
0.0
 71
     0
  3
MONOTXT
  4
BIGFONT
  0
STYLE
  2
TextStyle08
 70
     0
 40
1.0
 41
1.0
 42
1.0
 50
0.0
 71
     0
  3
MONOTXT
  4
BIGFONT
  0
STYLE
  2
TextStyle09
 70
     0
 40
1.0
 41
1.0
 42
1.0
 50
0.0
 71
     0
  3
MONOTXT
  4
BIGFONT
  0
STYLE
  2
TextStyle10
 70
     0
 40
1.0
 41
1.0
 42
1.0
 50
0.0
 71
     0
  3
MONOTXT
  4
BIGFONT
  0
ENDTAB
  0
ENDSEC
  0
SECTION
  2
BLOCKS
  0
BLOCK
  2
*GRP_0001
 70
    65
 10
0.0
 20
0.0
  0
LINE
  8
型材断面
  6
CONTINUOUS
 10
195.0
 20
133.5
 11
195.0
 21
-133.5
  0
LINE
  8
型材断面
  6
CONTINUOUS
 10
195.0
 20
-133.5
 11
-185.0
 21
-133.5
  0
LINE
  8
型材断面
  6
CONTINUOUS
 10
-185.0
 20
-133.5
 11
-185.0
 21
133.5
  0
LINE
  8
型材断面
  6
CONTINUOUS
 10
195.0
 20
133.5
 11
-185.0
 21
133.5
  0
LINE
  8
型材断面
  6
CONTINUOUS
 10
145.0
 20
-133.5
 11
145.0
 21
-118.5
  0
LINE
  8
型材断面
  6
CONTINUOUS
 10
195.0
 20
-118.5
 11
145.0
 21
-118.5
  0
ENDBLK
  0
BLOCK
  2
*DIM_0002
 70
    65
 10
0.0
 20
0.0
  0
LINE
  8
寸法
  6
BYBLOCK
 62
     0
 10
57.257007
 20
-71.291265
 11
87.226657
 21
-71.291265
  0
LINE
  8
寸法
  6
BYBLOCK
 62
     0
 10
87.226657
 20
-79.624597
 11
87.226657
 21
-71.291265
  0
POINT
  8
寸法
 62
     0
 10
87.226657
 20
-79.624597
  0
POINT
  8
寸法
 62
     0
 10
87.226657
 20
-71.291265
  0
TEXT
  7
TextStyle03
  8
寸法
  6
CONTINUOUS
 62
     0
 10
86.85
 20
-77.9125
  1
250
 40
3.0
 50
90.0
 72
     5
 11
86.85
 21
-73.0375
  0
ENDBLK
  0
BLOCK
  2
*DIM_0003
 70
    65
 10
0.0
 20
0.0
  0
LINE
  8
寸法
  6
BYBLOCK
 62
     0
 10
152.45694
 20
29.399048
 11
152.45694
 21
58.954983
  0
LINE
  8
寸法
  6
BYBLOCK
 62
     0
 10
160.790272
 20
58.954983
 11
152.45694
 21
58.954983
  0
POINT
  8
寸法
 62
     0
 10
160.790272
 20
58.954983
  0
POINT
  8
寸法
 62
     0
 10
152.45694
 20
58.954983
  0
TEXT
  7
TextStyle03
  8
寸法
  6
CONTINUOUS
 62
     0
 10
154.1625
 20
59.325
  1
250
 40
3.0
 72
     5
 11
159.0375
 21
59.325
  0
ENDBLK
  0
BLOCK
  2
*DIM_0004
 70
    65
 10
0.0
 20
0.0
  0
LINE
  8
寸法
  6
BYBLOCK
 62
     0
 10
105.276657
 20
13.399048
 11
105.276657
 21
43.399048
  0
POINT
  8
寸法
 62
     0
 10
105.276657
 20
13.399048
  0
POINT
  8
寸法
 62
     0
 10
105.276657
 20
43.399048
  0
TEXT
  7
TextStyle03
  8
寸法
  6
CONTINUOUS
 62
     0
 10
104.9
 20
17.5
  1
呼称寸法　900
 40
3.0
 50
90.0
 72
     5
 11
104.9
 21
39.25
  0
ENDBLK
  0
BLOCK
  2
*DIM_0005
 70
    65
 10
0.0
 20
0.0
  0
LINE
  8
寸法
  6
BYBLOCK
 62
     0
 10
167.343563
 20
-63.20038
 11
175.401852
 21
-63.20038
  0
LINE
  8
寸法
  6
BYBLOCK
 62
     0
 10
167.343563
 20
-92.533713
 11
175.401852
 21
-92.533713
  0
LINE
  8
寸法
  6
BYBLOCK
 62
     0
 10
175.401852
 20
-63.20038
 11
175.401852
 21
-92.533713
  0
POINT
  8
寸法
 62
     0
 10
175.401852
 20
-63.20038
  0
POINT
  8
寸法
 62
     0
 10
175.401852
 20
-92.533713
  0
TEXT
  7
TextStyle03
  8
寸法
  6
CONTINUOUS
 62
     0
 10
175.025
 20
-80.3125
  1
880
 40
3.0
 50
90.0
 72
     5
 11
175.025
 21
-75.4375
  0
ENDBLK
  0
BLOCK
  2
*DIM_0006
 70
    65
 10
0.0
 20
0.0
  0
LINE
  8
寸法
  6
BYBLOCK
 62
     0
 10
-112.076325
 20
-22.92619
 11
-112.076325
 21
-22.536362
  0
LINE
  8
寸法
  6
BYBLOCK
 62
     0
 10
71.257007
 20
-22.536362
 11
-112.076325
 21
-22.536362
  0
POINT
  8
寸法
 62
     0
 10
71.257007
 20
-22.536362
  0
POINT
  8
寸法
 62
     0
 10
-112.076325
 20
-22.536362
  0
TEXT
  7
TextStyle03
  8
寸法
  6
CONTINUOUS
 62
     0
 10
-32.14375
 20
-22.175
  1
呼称寸法　5500
 40
3.0
 72
     5
 11
-8.70625
 21
-22.175
  0
ENDBLK
  0
BLOCK
  2
*DIM_0007
 70
    65
 10
0.0
 20
0.0
  0
LINE
  8
寸法
  6
BYBLOCK
 62
     0
 10
130.663563
 20
-62.20038
 11
130.663563
 21
-54.712327
  0
LINE
  8
寸法
  6
BYBLOCK
 62
     0
 10
166.343563
 20
-62.20038
 11
166.343563
 21
-54.712327
  0
LINE
  8
寸法
  6
BYBLOCK
 62
     0
 10
130.663563
 20
-54.712327
 11
166.343563
 21
-54.712327
  0
POINT
  8
寸法
 62
     0
 10
130.663563
 20
-54.712327
  0
POINT
  8
寸法
 62
     0
 10
166.343563
 20
-54.712327
  0
TEXT
  7
TextStyle03
  8
寸法
  6
CONTINUOUS
 62
     0
 10
143.53125
 20
-54.35
  1
1070.4
 40
3.0
 72
     5
 11
153.46875
 21
-54.35
  0
ENDBLK
  0
BLOCK
  2
*DIM_0008
 70
    65
 10
0.0
 20
0.0
  0
LINE
  8
寸法
  6
BYBLOCK
 62
     0
 10
-95.409657
 20
9.768917
 11
-95.409657
 21
4.783553
  0
LINE
  8
寸法
  6
BYBLOCK
 62
     0
 10
-20.40966
 20
9.76892
 11
-20.40966
 21
4.783553
  0
LINE
  8
寸法
  6
BYBLOCK
 62
     0
 10
-95.409657
 20
4.783553
 11
-20.40966
 21
4.783553
  0
POINT
  8
寸法
 62
     0
 10
-95.409657
 20
4.783553
  0
POINT
  8
寸法
 62
     0
 10
-20.40966
 20
4.783553
  0
TEXT
  7
TextStyle03
  8
寸法
  6
CONTINUOUS
 62
     0
 10
-61.20625
 20
5.15
  1
2250
 40
3.0
 72
     5
 11
-54.64375
 21
5.15
  0
ENDBLK
  0
BLOCK
  2
*DIM_0009
 70
    65
 10
0.0
 20
0.0
  0
LINE
  8
寸法
  6
BYBLOCK
 62
     0
 10
54.590337
 20
9.768917
 11
54.590337
 21
4.783553
  0
LINE
  8
寸法
  6
BYBLOCK
 62
     0
 10
-20.40966
 20
4.783553
 11
54.590337
 21
4.783553
  0
POINT
  8
寸法
 62
     0
 10
54.590337
 20
4.783553
  0
TEXT
  7
TextStyle03
  8
寸法
  6
CONTINUOUS
 62
     0
 10
13.79375
 20
5.15
  1
2250
 40
3.0
 72
     5
 11
20.35625
 21
5.15
  0
ENDBLK
  0
BLOCK
  2
*DIM_0010
 70
    65
 10
0.0
 20
0.0
  0
LINE
  8
寸法
  6
BYBLOCK
 62
     0
 10
72.257007
 20
43.39905
 11
81.98129
 21
43.39905
  0
LINE
  8
寸法
  6
BYBLOCK
 62
     0
 10
74.887138
 20
39.69905
 11
81.98129
 21
39.69905
  0
LINE
  8
寸法
  6
BYBLOCK
 62
     0
 10
81.98129
 20
43.39905
 11
81.98129
 21
39.69905
  0
POINT
  8
寸法
 62
     0
 10
81.98129
 20
43.39905
  0
POINT
  8
寸法
 62
     0
 10
81.98129
 20
39.69905
  0
TEXT
  7
TextStyle03
  8
寸法
  6
CONTINUOUS
 62
     0
 10
81.65
 20
44.4125
  1
111
 40
3.0
 50
90.0
 72
     5
 11
81.65
 21
49.2875
  0
ENDBLK
  0
BLOCK
  2
*DIM_0011
 70
    65
 10
0.0
 20
0.0
  0
LINE
  8
寸法
  6
BYBLOCK
 62
     0
 10
72.257007
 20
13.399045
 11
81.98129
 21
13.399042
  0
LINE
  8
寸法
  6
BYBLOCK
 62
     0
 10
74.887138
 20
17.099045
 11
81.98129
 21
17.099042
  0
LINE
  8
寸法
  6
BYBLOCK
 62
     0
 10
81.98129
 20
13.399042
 11
81.98129
 21
17.099042
  0
POINT
  8
寸法
 62
     0
 10
81.98129
 20
13.399042
  0
POINT
  8
寸法
 62
     0
 10
81.98129
 20
17.099042
  0
TEXT
  7
TextStyle03
  8
寸法
  6
CONTINUOUS
 62
     0
 10
81.65
 20
7.5375
  1
111
 40
3.0
 50
90.0
 72
     5
 11
81.65
 21
12.4125
  0
ENDBLK
  0
BLOCK
  2
*GRP_0012
 70
    65
 10
0.0
 20
0.0
  0
LINE
  8
別途部材
  6
CONTINUOUS
 62
    96
 10
-113.742993
 20
-79.624597
 11
-114.142993
 21
-80.624597
  0
LINE
  8
別途部材
  6
CONTINUOUS
 10
-114.142993
 20
-80.624597
 11
-20.409657
 21
-80.624597
  0
LINE
  8
別途部材
  6
CONTINUOUS
 62
    96
 10
-113.742993
 20
-79.624597
 11
-20.409657
 21
-79.624597
  0
LINE
  8
別途部材
  6
CONTINUOUS
 10
-20.909657
 20
-70.291265
 11
-21.909657
 21
-71.291265
  0
LINE
  8
別途部材
  6
CONTINUOUS
 10
-22.909657
 20
-71.291265
 11
-23.909657
 21
-70.291265
  0
LINE
  8
別途部材
  6
CONTINUOUS
 10
-24.909657
 20
-70.291265
 11
-25.909657
 21
-71.291265
  0
LINE
  8
別途部材
  6
CONTINUOUS
 10
-23.909657
 20
-70.291265
 11
-24.909657
 21
-70.291265
  0
LINE
  8
別途部材
  6
CONTINUOUS
 10
-20.909657
 20
-70.291265
 11
-20.409657
 21
-70.291265
  0
LINE
  8
別途部材
  6
CONTINUOUS
 10
-26.909657
 20
-71.291265
 11
-27.909657
 21
-70.291265
  0
LINE
  8
別途部材
  6
CONTINUOUS
 10
-28.909657
 20
-70.291265
 11
-29.909657
 21
-71.291265
  0
LINE
  8
別途部材
  6
CONTINUOUS
 10
-27.909657
 20
-70.291265
 11
-28.909657
 21
-70.291265
  0
LINE
  8
別途部材
  6
CONTINUOUS
 10
-30.909657
 20
-71.291265
 11
-31.909657
 21
-70.291265
  0
LINE
  8
別途部材
  6
CONTINUOUS
 10
-32.909657
 20
-70.291265
 11
-33.909657
 21
-71.291265
  0
LINE
  8
別途部材
  6
CONTINUOUS
 10
-31.909657
 20
-70.291265
 11
-32.909657
 21
-70.291265
  0
LINE
  8
別途部材
  6
CONTINUOUS
 10
-34.909657
 20
-71.291265
 11
-35.909657
 21
-70.291265
  0
LINE
  8
別途部材
  6
CONTINUOUS
 10
-36.909657
 20
-70.291265
 11
-37.909657
 21
-71.291265
  0
LINE
  8
別途部材
  6
CONTINUOUS
 10
-35.909657
 20
-70.291265
 11
-36.909657
 21
-70.291265
  0
LINE
  8
別途部材
  6
CONTINUOUS
 10
-38.909657
 20
-71.291265
 11
-39.909657
 21
-70.291265
  0
LINE
  8
別途部材
  6
CONTINUOUS
 10
-40.909657
 20
-70.291265
 11
-41.909657
 21
-71.291265
  0
LINE
  8
別途部材
  6
CONTINUOUS
 10
-39.909657
 20
-70.291265
 11
-40.909657
 21
-70.291265
  0
LINE
  8
別途部材
  6
CONTINUOUS
 10
-42.909657
 20
-71.291265
 11
-43.909657
 21
-70.291265
  0
LINE
  8
別途部材
  6
CONTINUOUS
 10
-44.909657
 20
-70.291265
 11
-45.909657
 21
-71.291265
  0
LINE
  8
別途部材
  6
CONTINUOUS
 10
-43.909657
 20
-70.291265
 11
-44.909657
 21
-70.291265
  0
LINE
  8
別途部材
  6
CONTINUOUS
 10
-46.909657
 20
-71.291265
 11
-47.909657
 21
-70.291265
  0
LINE
  8
別途部材
  6
CONTINUOUS
 10
-48.909657
 20
-70.291265
 11
-49.909657
 21
-71.291265
  0
LINE
  8
別途部材
  6
CONTINUOUS
 10
-47.909657
 20
-70.291265
 11
-48.909657
 21
-70.291265
  0
LINE
  8
別途部材
  6
CONTINUOUS
 10
-50.909657
 20
-71.291265
 11
-51.909657
 21
-70.291265
  0
LINE
  8
別途部材
  6
CONTINUOUS
 10
-52.909657
 20
-70.291265
 11
-53.909657
 21
-71.291265
  0
LINE
  8
別途部材
  6
CONTINUOUS
 10
-51.909657
 20
-70.291265
 11
-52.909657
 21
-70.291265
  0
LINE
  8
別途部材
  6
CONTINUOUS
 10
-54.909657
 20
-71.291265
 11
-55.909657
 21
-70.291265
  0
LINE
  8
別途部材
  6
CONTINUOUS
 10
-56.909657
 20
-70.291265
 11
-57.909657
 21
-71.291265
  0
LINE
  8
別途部材
  6
CONTINUOUS
 10
-55.909657
 20
-70.291265
 11
-56.909657
 21
-70.291265
  0
LINE
  8
別途部材
  6
CONTINUOUS
 10
-58.909657
 20
-71.291265
 11
-59.909657
 21
-70.291265
  0
LINE
  8
別途部材
  6
CONTINUOUS
 10
-60.909657
 20
-70.291265
 11
-61.909657
 21
-71.291265
  0
LINE
  8
別途部材
  6
CONTINUOUS
 10
-59.909657
 20
-70.291265
 11
-60.909657
 21
-70.291265
  0
LINE
  8
別途部材
  6
CONTINUOUS
 10
-62.909657
 20
-71.291265
 11
-63.909657
 21
-70.291265
  0
LINE
  8
別途部材
  6
CONTINUOUS
 10
-64.909657
 20
-70.291265
 11
-65.909657
 21
-71.291265
  0
LINE
  8
別途部材
  6
CONTINUOUS
 10
-63.909657
 20
-70.291265
 11
-64.909657
 21
-70.291265
  0
LINE
  8
別途部材
  6
CONTINUOUS
 10
-61.909657
 20
-71.291265
 11
-62.909657
 21
-71.291265
  0
LINE
  8
別途部材
  6
CONTINUOUS
 10
-57.909657
 20
-71.291265
 11
-58.909657
 21
-71.291265
  0
LINE
  8
別途部材
  6
CONTINUOUS
 10
-53.909657
 20
-71.291265
 11
-54.909657
 21
-71.291265
  0
LINE
  8
別途部材
  6
CONTINUOUS
 10
-49.909657
 20
-71.291265
 11
-50.909657
 21
-71.291265
  0
LINE
  8
別途部材
  6
CONTINUOUS
 10
-45.909657
 20
-71.291265
 11
-46.909657
 21
-71.291265
  0
LINE
  8
別途部材
  6
CONTINUOUS
 10
-41.909657
 20
-71.291265
 11
-42.909657
 21
-71.291265
  0
LINE
  8
別途部材
  6
CONTINUOUS
 10
-37.909657
 20
-71.291265
 11
-38.909657
 21
-71.291265
  0
LINE
  8
別途部材
  6
CONTINUOUS
 10
-33.909657
 20
-71.291265
 11
-34.909657
 21
-71.291265
  0
LINE
  8
別途部材
  6
CONTINUOUS
 10
-29.909657
 20
-71.291265
 11
-30.909657
 21
-71.291265
  0
LINE
  8
別途部材
  6
CONTINUOUS
 10
-25.909657
 20
-71.291265
 11
-26.909657
 21
-71.291265
  0
LINE
  8
別途部材
  6
CONTINUOUS
 10
-22.909657
 20
-71.291265
 11
-21.909657
 21
-71.291265
  0
LINE
  8
別途部材
  6
CONTINUOUS
 10
-66.909657
 20
-71.291265
 11
-67.909657
 21
-70.291265
  0
LINE
  8
別途部材
  6
CONTINUOUS
 10
-68.909657
 20
-70.291265
 11
-69.909657
 21
-71.291265
  0
LINE
  8
別途部材
  6
CONTINUOUS
 10
-67.909657
 20
-70.291265
 11
-68.909657
 21
-70.291265
  0
LINE
  8
別途部材
  6
CONTINUOUS
 10
-70.909657
 20
-71.291265
 11
-71.909657
 21
-70.291265
  0
LINE
  8
別途部材
  6
CONTINUOUS
 10
-72.909657
 20
-70.291265
 11
-73.909657
 21
-71.291265
  0
LINE
  8
別途部材
  6
CONTINUOUS
 10
-71.909657
 20
-70.291265
 11
-72.909657
 21
-70.291265
  0
LINE
  8
別途部材
  6
CONTINUOUS
 10
-74.909657
 20
-71.291265
 11
-75.909657
 21
-70.291265
  0
LINE
  8
別途部材
  6
CONTINUOUS
 10
-76.909657
 20
-70.291265
 11
-77.909657
 21
-71.291265
  0
LINE
  8
別途部材
  6
CONTINUOUS
 10
-75.909657
 20
-70.291265
 11
-76.909657
 21
-70.291265
  0
LINE
  8
別途部材
  6
CONTINUOUS
 10
-78.909657
 20
-71.291265
 11
-79.909657
 21
-70.291265
  0
LINE
  8
別途部材
  6
CONTINUOUS
 10
-80.909657
 20
-70.291265
 11
-81.909657
 21
-71.291265
  0
LINE
  8
別途部材
  6
CONTINUOUS
 10
-79.909657
 20
-70.291265
 11
-80.909657
 21
-70.291265
  0
LINE
  8
別途部材
  6
CONTINUOUS
 10
-82.909657
 20
-71.291265
 11
-83.909657
 21
-70.291265
  0
LINE
  8
別途部材
  6
CONTINUOUS
 10
-84.909657
 20
-70.291265
 11
-85.909657
 21
-71.291265
  0
LINE
  8
別途部材
  6
CONTINUOUS
 10
-83.909657
 20
-70.291265
 11
-84.909657
 21
-70.291265
  0
LINE
  8
別途部材
  6
CONTINUOUS
 10
-86.909657
 20
-71.291265
 11
-87.909657
 21
-70.291265
  0
LINE
  8
別途部材
  6
CONTINUOUS
 10
-88.909657
 20
-70.291265
 11
-89.909657
 21
-71.291265
  0
LINE
  8
別途部材
  6
CONTINUOUS
 10
-87.909657
 20
-70.291265
 11
-88.909657
 21
-70.291265
  0
LINE
  8
別途部材
  6
CONTINUOUS
 10
-90.909657
 20
-71.291265
 11
-91.909657
 21
-70.291265
  0
LINE
  8
別途部材
  6
CONTINUOUS
 10
-92.909657
 20
-70.291265
 11
-93.909657
 21
-71.291265
  0
LINE
  8
別途部材
  6
CONTINUOUS
 10
-91.909657
 20
-70.291265
 11
-92.909657
 21
-70.291265
  0
LINE
  8
別途部材
  6
CONTINUOUS
 10
-94.909657
 20
-71.291265
 11
-95.909657
 21
-70.291265
  0
LINE
  8
別途部材
  6
CONTINUOUS
 10
-96.909657
 20
-70.291265
 11
-97.909657
 21
-71.291265
  0
LINE
  8
別途部材
  6
CONTINUOUS
 10
-95.909657
 20
-70.291265
 11
-96.909657
 21
-70.291265
  0
LINE
  8
別途部材
  6
CONTINUOUS
 10
-93.909657
 20
-71.291265
 11
-94.909657
 21
-71.291265
  0
LINE
  8
別途部材
  6
CONTINUOUS
 10
-89.909657
 20
-71.291265
 11
-90.909657
 21
-71.291265
  0
LINE
  8
別途部材
  6
CONTINUOUS
 10
-85.909657
 20
-71.291265
 11
-86.909657
 21
-71.291265
  0
LINE
  8
別途部材
  6
CONTINUOUS
 10
-81.909657
 20
-71.291265
 11
-82.909657
 21
-71.291265
  0
LINE
  8
別途部材
  6
CONTINUOUS
 10
-77.909657
 20
-71.291265
 11
-78.909657
 21
-71.291265
  0
LINE
  8
別途部材
  6
CONTINUOUS
 10
-73.909657
 20
-71.291265
 11
-74.909657
 21
-71.291265
  0
LINE
  8
別途部材
  6
CONTINUOUS
 10
-69.909657
 20
-71.291265
 11
-70.909657
 21
-71.291265
  0
LINE
  8
別途部材
  6
CONTINUOUS
 10
-65.909657
 20
-71.291265
 11
-66.909657
 21
-71.291265
  0
LINE
  8
別途部材
  6
CONTINUOUS
 10
-97.909657
 20
-71.291265
 11
-97.909657
 21
-79.624597
  0
LINE
  8
別途部材
  6
CONTINUOUS
 10
-95.909657
 20
-70.291265
 11
-95.909657
 21
-79.624597
  0
LINE
  8
別途部材
  6
CONTINUOUS
 10
-96.909657
 20
-70.291265
 11
-96.909657
 21
-79.624597
  0
LINE
  8
別途部材
  6
CONTINUOUS
 10
-93.909657
 20
-71.291265
 11
-93.909657
 21
-79.624597
  0
LINE
  8
別途部材
  6
CONTINUOUS
 10
-94.909657
 20
-71.291265
 11
-94.909657
 21
-79.624597
  0
LINE
  8
別途部材
  6
CONTINUOUS
 10
-92.909657
 20
-70.291265
 11
-92.909657
 21
-79.624597
  0
LINE
  8
別途部材
  6
CONTINUOUS
 10
-90.909657
 20
-71.291265
 11
-90.909657
 21
-79.624597
  0
LINE
  8
別途部材
  6
CONTINUOUS
 10
-91.909657
 20
-70.291265
 11
-91.909657
 21
-79.624597
  0
LINE
  8
別途部材
  6
CONTINUOUS
 10
-89.909657
 20
-71.291265
 11
-89.909657
 21
-79.624597
  0
LINE
  8
別途部材
  6
CONTINUOUS
 10
-88.909657
 20
-70.291265
 11
-88.909657
 21
-79.624597
  0
LINE
  8
別途部材
  6
CONTINUOUS
 10
-86.909657
 20
-71.291265
 11
-86.909657
 21
-79.624597
  0
LINE
  8
別途部材
  6
CONTINUOUS
 10
-87.909657
 20
-70.291265
 11
-87.909657
 21
-79.624597
  0
LINE
  8
別途部材
  6
CONTINUOUS
 10
-84.909657
 20
-70.291265
 11
-84.909657
 21
-79.624597
  0
LINE
  8
別途部材
  6
CONTINUOUS
 10
-85.909657
 20
-71.291265
 11
-85.909657
 21
-79.624597
  0
LINE
  8
別途部材
  6
CONTINUOUS
 10
-82.909657
 20
-71.291265
 11
-82.909657
 21
-79.624597
  0
LINE
  8
別途部材
  6
CONTINUOUS
 10
-83.909657
 20
-70.291265
 11
-83.909657
 21
-79.624597
  0
LINE
  8
別途部材
  6
CONTINUOUS
 10
-81.909657
 20
-71.291265
 11
-81.909657
 21
-79.624597
  0
LINE
  8
別途部材
  6
CONTINUOUS
 10
-79.909657
 20
-70.291265
 11
-79.909657
 21
-79.624597
  0
LINE
  8
別途部材
  6
CONTINUOUS
 10
-80.909657
 20
-70.291265
 11
-80.909657
 21
-79.624597
  0
LINE
  8
別途部材
  6
CONTINUOUS
 10
-78.909657
 20
-71.291265
 11
-78.909657
 21
-79.624597
  0
LINE
  8
別途部材
  6
CONTINUOUS
 10
-77.909657
 20
-71.291265
 11
-77.909657
 21
-79.624597
  0
LINE
  8
別途部材
  6
CONTINUOUS
 10
-76.909657
 20
-70.291265
 11
-76.909657
 21
-79.624597
  0
LINE
  8
別途部材
  6
CONTINUOUS
 10
-75.909657
 20
-70.291265
 11
-75.909657
 21
-79.624597
  0
LINE
  8
別途部材
  6
CONTINUOUS
 10
-71.909657
 20
-70.291265
 11
-71.909657
 21
-79.624597
  0
LINE
  8
別途部材
  6
CONTINUOUS
 10
-64.909657
 20
-70.291265
 11
-64.909657
 21
-79.624597
  0
LINE
  8
別途部材
  6
CONTINUOUS
 10
-60.909657
 20
-70.291265
 11
-60.909657
 21
-79.624597
  0
LINE
  8
別途部材
  6
CONTINUOUS
 10
-58.909657
 20
-71.291265
 11
-58.909657
 21
-79.624597
  0
LINE
  8
別途部材
  6
CONTINUOUS
 10
-63.909657
 20
-70.291265
 11
-63.909657
 21
-79.624597
  0
LINE
  8
別途部材
  6
CONTINUOUS
 10
-67.909657
 20
-70.291265
 11
-67.909657
 21
-79.624597
  0
LINE
  8
別途部材
  6
CONTINUOUS
 10
-69.909657
 20
-71.291265
 11
-69.909657
 21
-79.624597
  0
LINE
  8
別途部材
  6
CONTINUOUS
 10
-72.909657
 20
-70.291265
 11
-72.909657
 21
-79.624597
  0
LINE
  8
別途部材
  6
CONTINUOUS
 10
-73.909657
 20
-71.291265
 11
-73.909657
 21
-79.624597
  0
LINE
  8
別途部材
  6
CONTINUOUS
 10
-74.909657
 20
-71.291265
 11
-74.909657
 21
-79.624597
  0
LINE
  8
別途部材
  6
CONTINUOUS
 10
-70.909657
 20
-71.291265
 11
-70.909657
 21
-79.624597
  0
LINE
  8
別途部材
  6
CONTINUOUS
 10
-68.909657
 20
-70.291265
 11
-68.909657
 21
-79.624597
  0
LINE
  8
別途部材
  6
CONTINUOUS
 10
-66.909657
 20
-71.291265
 11
-66.909657
 21
-79.624597
  0
LINE
  8
別途部材
  6
CONTINUOUS
 10
-65.909657
 20
-71.291265
 11
-65.909657
 21
-79.624597
  0
LINE
  8
別途部材
  6
CONTINUOUS
 10
-62.909657
 20
-71.291265
 11
-62.909657
 21
-79.624597
  0
LINE
  8
別途部材
  6
CONTINUOUS
 10
-61.909657
 20
-71.291265
 11
-61.909657
 21
-79.624597
  0
LINE
  8
別途部材
  6
CONTINUOUS
 10
-59.909657
 20
-70.291265
 11
-59.909657
 21
-79.624597
  0
LINE
  8
別途部材
  6
CONTINUOUS
 10
-56.909657
 20
-70.291265
 11
-56.909657
 21
-79.624597
  0
LINE
  8
別途部材
  6
CONTINUOUS
 10
-57.909657
 20
-71.291265
 11
-57.909657
 21
-79.624597
  0
LINE
  8
別途部材
  6
CONTINUOUS
 10
-55.909657
 20
-70.291265
 11
-55.909657
 21
-79.624597
  0
LINE
  8
別途部材
  6
CONTINUOUS
 10
-54.909657
 20
-71.291265
 11
-54.909657
 21
-79.624597
  0
LINE
  8
別途部材
  6
CONTINUOUS
 10
-53.909657
 20
-71.291265
 11
-53.909657
 21
-79.624597
  0
LINE
  8
別途部材
  6
CONTINUOUS
 10
-52.909657
 20
-70.291265
 11
-52.909657
 21
-79.624597
  0
LINE
  8
別途部材
  6
CONTINUOUS
 10
-50.909657
 20
-71.291265
 11
-50.909657
 21
-79.624597
  0
LINE
  8
別途部材
  6
CONTINUOUS
 10
-51.909657
 20
-70.291265
 11
-51.909657
 21
-79.624597
  0
LINE
  8
別途部材
  6
CONTINUOUS
 10
-48.909657
 20
-70.291265
 11
-48.909657
 21
-79.624597
  0
LINE
  8
別途部材
  6
CONTINUOUS
 10
-49.909657
 20
-71.291265
 11
-49.909657
 21
-79.624597
  0
LINE
  8
別途部材
  6
CONTINUOUS
 10
-45.909657
 20
-71.291265
 11
-45.909657
 21
-79.624597
  0
LINE
  8
別途部材
  6
CONTINUOUS
 10
-44.909657
 20
-70.291265
 11
-44.909657
 21
-79.624597
  0
LINE
  8
別途部材
  6
CONTINUOUS
 10
-43.909657
 20
-70.291265
 11
-43.909657
 21
-79.624597
  0
LINE
  8
別途部材
  6
CONTINUOUS
 10
-46.909657
 20
-71.291265
 11
-46.909657
 21
-79.624597
  0
LINE
  8
別途部材
  6
CONTINUOUS
 10
-47.909657
 20
-70.291265
 11
-47.909657
 21
-79.624597
  0
LINE
  8
別途部材
  6
CONTINUOUS
 10
-39.909657
 20
-70.291265
 11
-39.909657
 21
-79.624597
  0
LINE
  8
別途部材
  6
CONTINUOUS
 10
-41.909657
 20
-71.291265
 11
-41.909657
 21
-79.624597
  0
LINE
  8
別途部材
  6
CONTINUOUS
 10
-42.909657
 20
-71.291265
 11
-42.909657
 21
-79.624597
  0
LINE
  8
別途部材
  6
CONTINUOUS
 10
-40.909657
 20
-70.291265
 11
-40.909657
 21
-79.624597
  0
LINE
  8
別途部材
  6
CONTINUOUS
 10
-38.909657
 20
-71.291265
 11
-38.909657
 21
-79.624597
  0
LINE
  8
別途部材
  6
CONTINUOUS
 10
-36.909657
 20
-70.291265
 11
-36.909657
 21
-79.624597
  0
LINE
  8
別途部材
  6
CONTINUOUS
 10
-35.909657
 20
-70.291265
 11
-35.909657
 21
-79.624597
  0
LINE
  8
別途部材
  6
CONTINUOUS
 10
-33.909657
 20
-71.291265
 11
-33.909657
 21
-79.624597
  0
LINE
  8
別途部材
  6
CONTINUOUS
 10
-34.909657
 20
-71.291265
 11
-34.909657
 21
-79.624597
  0
LINE
  8
別途部材
  6
CONTINUOUS
 10
-37.909657
 20
-71.291265
 11
-37.909657
 21
-79.624597
  0
LINE
  8
別途部材
  6
CONTINUOUS
 10
-32.909657
 20
-70.291265
 11
-32.909657
 21
-79.624597
  0
LINE
  8
別途部材
  6
CONTINUOUS
 10
-30.909657
 20
-71.291265
 11
-30.909657
 21
-79.624597
  0
LINE
  8
別途部材
  6
CONTINUOUS
 10
-31.909657
 20
-70.291265
 11
-31.909657
 21
-79.624597
  0
LINE
  8
別途部材
  6
CONTINUOUS
 10
-29.909657
 20
-71.291265
 11
-29.909657
 21
-79.624597
  0
LINE
  8
別途部材
  6
CONTINUOUS
 10
-28.909657
 20
-70.291265
 11
-28.909657
 21
-79.624597
  0
LINE
  8
別途部材
  6
CONTINUOUS
 10
-26.909657
 20
-71.291265
 11
-26.909657
 21
-79.624597
  0
LINE
  8
別途部材
  6
CONTINUOUS
 10
-27.909657
 20
-70.291265
 11
-27.909657
 21
-79.624597
  0
LINE
  8
別途部材
  6
CONTINUOUS
 10
-25.909657
 20
-71.291265
 11
-25.909657
 21
-79.624597
  0
LINE
  8
別途部材
  6
CONTINUOUS
 10
-24.909657
 20
-70.291265
 11
-24.909657
 21
-79.624597
  0
LINE
  8
別途部材
  6
CONTINUOUS
 10
-22.909657
 20
-71.291265
 11
-22.909657
 21
-79.624597
  0
LINE
  8
別途部材
  6
CONTINUOUS
 10
-23.909657
 20
-70.291265
 11
-23.909657
 21
-79.624597
  0
LINE
  8
別途部材
  6
CONTINUOUS
 10
-21.909657
 20
-71.291265
 11
-21.909657
 21
-79.624597
  0
LINE
  8
別途部材
  6
CONTINUOUS
 10
-20.909657
 20
-70.291265
 11
-20.909657
 21
-79.624597
  0
ARC
  8
別途部材
  6
CONTINUOUS
 10
-97.076326
 20
-88.957936
 40
17.666667
 50
92.703632
 51
148.109204
  0
LINE
  8
別途部材
  6
CONTINUOUS
 62
    96
 10
72.923675
 20
-79.624597
 11
73.323675
 21
-80.624597
  0
LINE
  8
別途部材
  6
CONTINUOUS
 10
73.323675
 20
-80.624597
 11
-20.409657
 21
-80.624597
  0
LINE
  8
別途部材
  6
CONTINUOUS
 62
    96
 10
72.923675
 20
-79.624597
 11
-20.409657
 21
-79.624597
  0
LINE
  8
別途部材
  6
CONTINUOUS
 10
-19.909657
 20
-70.291265
 11
-18.909657
 21
-71.291265
  0
LINE
  8
別途部材
  6
CONTINUOUS
 10
-17.909657
 20
-71.291265
 11
-16.909657
 21
-70.291265
  0
LINE
  8
別途部材
  6
CONTINUOUS
 10
-15.909657
 20
-70.291265
 11
-14.909657
 21
-71.291265
  0
LINE
  8
別途部材
  6
CONTINUOUS
 10
-16.909657
 20
-70.291265
 11
-15.909657
 21
-70.291265
  0
LINE
  8
別途部材
  6
CONTINUOUS
 10
-19.909657
 20
-70.291265
 11
-20.409657
 21
-70.291265
  0
LINE
  8
別途部材
  6
CONTINUOUS
 10
-13.909657
 20
-71.291265
 11
-12.909657
 21
-70.291265
  0
LINE
  8
別途部材
  6
CONTINUOUS
 10
-11.909657
 20
-70.291265
 11
-10.909657
 21
-71.291265
  0
LINE
  8
別途部材
  6
CONTINUOUS
 10
-12.909657
 20
-70.291265
 11
-11.909657
 21
-70.291265
  0
LINE
  8
別途部材
  6
CONTINUOUS
 10
-9.909657
 20
-71.291265
 11
-8.909657
 21
-70.291265
  0
LINE
  8
別途部材
  6
CONTINUOUS
 10
-7.909657
 20
-70.291265
 11
-6.909657
 21
-71.291265
  0
LINE
  8
別途部材
  6
CONTINUOUS
 10
-8.909657
 20
-70.291265
 11
-7.909657
 21
-70.291265
  0
LINE
  8
別途部材
  6
CONTINUOUS
 10
-5.909657
 20
-71.291265
 11
-4.909657
 21
-70.291265
  0
LINE
  8
別途部材
  6
CONTINUOUS
 10
-3.909657
 20
-70.291265
 11
-2.909657
 21
-71.291265
  0
LINE
  8
別途部材
  6
CONTINUOUS
 10
-4.909657
 20
-70.291265
 11
-3.909657
 21
-70.291265
  0
LINE
  8
別途部材
  6
CONTINUOUS
 10
-1.909657
 20
-71.291265
 11
-0.909657
 21
-70.291265
  0
LINE
  8
別途部材
  6
CONTINUOUS
 10
0.090343
 20
-70.291265
 11
1.090343
 21
-71.291265
  0
LINE
  8
別途部材
  6
CONTINUOUS
 10
-0.909657
 20
-70.291265
 11
0.090343
 21
-70.291265
  0
LINE
  8
別途部材
  6
CONTINUOUS
 10
2.090343
 20
-71.291265
 11
3.090343
 21
-70.291265
  0
LINE
  8
別途部材
  6
CONTINUOUS
 10
4.090343
 20
-70.291265
 11
5.090343
 21
-71.291265
  0
LINE
  8
別途部材
  6
CONTINUOUS
 10
3.090343
 20
-70.291265
 11
4.090343
 21
-70.291265
  0
LINE
  8
別途部材
  6
CONTINUOUS
 10
6.090343
 20
-71.291265
 11
7.090343
 21
-70.291265
  0
LINE
  8
別途部材
  6
CONTINUOUS
 10
8.090343
 20
-70.291265
 11
9.090343
 21
-71.291265
  0
LINE
  8
別途部材
  6
CONTINUOUS
 10
7.090343
 20
-70.291265
 11
8.090343
 21
-70.291265
  0
LINE
  8
別途部材
  6
CONTINUOUS
 10
10.090343
 20
-71.291265
 11
11.090343
 21
-70.291265
  0
LINE
  8
別途部材
  6
CONTINUOUS
 10
12.090343
 20
-70.291265
 11
13.090343
 21
-71.291265
  0
LINE
  8
別途部材
  6
CONTINUOUS
 10
11.090343
 20
-70.291265
 11
12.090343
 21
-70.291265
  0
LINE
  8
別途部材
  6
CONTINUOUS
 10
14.090343
 20
-71.291265
 11
15.090343
 21
-70.291265
  0
LINE
  8
別途部材
  6
CONTINUOUS
 10
16.090343
 20
-70.291265
 11
17.090343
 21
-71.291265
  0
LINE
  8
別途部材
  6
CONTINUOUS
 10
15.090343
 20
-70.291265
 11
16.090343
 21
-70.291265
  0
LINE
  8
別途部材
  6
CONTINUOUS
 10
18.090343
 20
-71.291265
 11
19.090343
 21
-70.291265
  0
LINE
  8
別途部材
  6
CONTINUOUS
 10
20.090343
 20
-70.291265
 11
21.090343
 21
-71.291265
  0
LINE
  8
別途部材
  6
CONTINUOUS
 10
19.090343
 20
-70.291265
 11
20.090343
 21
-70.291265
  0
LINE
  8
別途部材
  6
CONTINUOUS
 10
22.090343
 20
-71.291265
 11
23.090343
 21
-70.291265
  0
LINE
  8
別途部材
  6
CONTINUOUS
 10
24.090343
 20
-70.291265
 11
25.090343
 21
-71.291265
  0
LINE
  8
別途部材
  6
CONTINUOUS
 10
23.090343
 20
-70.291265
 11
24.090343
 21
-70.291265
  0
LINE
  8
別途部材
  6
CONTINUOUS
 10
21.090343
 20
-71.291265
 11
22.090343
 21
-71.291265
  0
LINE
  8
別途部材
  6
CONTINUOUS
 10
17.090343
 20
-71.291265
 11
18.090343
 21
-71.291265
  0
LINE
  8
別途部材
  6
CONTINUOUS
 10
13.090343
 20
-71.291265
 11
14.090343
 21
-71.291265
  0
LINE
  8
別途部材
  6
CONTINUOUS
 10
9.090343
 20
-71.291265
 11
10.090343
 21
-71.291265
  0
LINE
  8
別途部材
  6
CONTINUOUS
 10
5.090343
 20
-71.291265
 11
6.090343
 21
-71.291265
  0
LINE
  8
別途部材
  6
CONTINUOUS
 10
1.090343
 20
-71.291265
 11
2.090343
 21
-71.291265
  0
LINE
  8
別途部材
  6
CONTINUOUS
 10
-2.909657
 20
-71.291265
 11
-1.909657
 21
-71.291265
  0
LINE
  8
別途部材
  6
CONTINUOUS
 10
-6.909657
 20
-71.291265
 11
-5.909657
 21
-71.291265
  0
LINE
  8
別途部材
  6
CONTINUOUS
 10
-10.909657
 20
-71.291265
 11
-9.909657
 21
-71.291265
  0
LINE
  8
別途部材
  6
CONTINUOUS
 10
-14.909657
 20
-71.291265
 11
-13.909657
 21
-71.291265
  0
LINE
  8
別途部材
  6
CONTINUOUS
 10
-17.909657
 20
-71.291265
 11
-18.909657
 21
-71.291265
  0
LINE
  8
別途部材
  6
CONTINUOUS
 10
26.090343
 20
-71.291265
 11
27.090343
 21
-70.291265
  0
LINE
  8
別途部材
  6
CONTINUOUS
 10
28.090343
 20
-70.291265
 11
29.090343
 21
-71.291265
  0
LINE
  8
別途部材
  6
CONTINUOUS
 10
27.090343
 20
-70.291265
 11
28.090343
 21
-70.291265
  0
LINE
  8
別途部材
  6
CONTINUOUS
 10
30.090343
 20
-71.291265
 11
31.090343
 21
-70.291265
  0
LINE
  8
別途部材
  6
CONTINUOUS
 10
32.090343
 20
-70.291265
 11
33.090343
 21
-71.291265
  0
LINE
  8
別途部材
  6
CONTINUOUS
 10
31.090343
 20
-70.291265
 11
32.090343
 21
-70.291265
  0
LINE
  8
別途部材
  6
CONTINUOUS
 10
34.090343
 20
-71.291265
 11
35.090343
 21
-70.291265
  0
LINE
  8
別途部材
  6
CONTINUOUS
 10
36.090343
 20
-70.291265
 11
37.090343
 21
-71.291265
  0
LINE
  8
別途部材
  6
CONTINUOUS
 10
35.090343
 20
-70.291265
 11
36.090343
 21
-70.291265
  0
LINE
  8
別途部材
  6
CONTINUOUS
 10
38.090343
 20
-71.291265
 11
39.090343
 21
-70.291265
  0
LINE
  8
別途部材
  6
CONTINUOUS
 10
40.090343
 20
-70.291265
 11
41.090343
 21
-71.291265
  0
LINE
  8
別途部材
  6
CONTINUOUS
 10
39.090343
 20
-70.291265
 11
40.090343
 21
-70.291265
  0
LINE
  8
別途部材
  6
CONTINUOUS
 10
42.090343
 20
-71.291265
 11
43.090343
 21
-70.291265
  0
LINE
  8
別途部材
  6
CONTINUOUS
 10
44.090343
 20
-70.291265
 11
45.090343
 21
-71.291265
  0
LINE
  8
別途部材
  6
CONTINUOUS
 10
43.090343
 20
-70.291265
 11
44.090343
 21
-70.291265
  0
LINE
  8
別途部材
  6
CONTINUOUS
 10
46.090343
 20
-71.291265
 11
47.090343
 21
-70.291265
  0
LINE
  8
別途部材
  6
CONTINUOUS
 10
48.090343
 20
-70.291265
 11
49.090343
 21
-71.291265
  0
LINE
  8
別途部材
  6
CONTINUOUS
 10
47.090343
 20
-70.291265
 11
48.090343
 21
-70.291265
  0
LINE
  8
別途部材
  6
CONTINUOUS
 10
50.090343
 20
-71.291265
 11
51.090343
 21
-70.291265
  0
LINE
  8
別途部材
  6
CONTINUOUS
 10
52.090343
 20
-70.291265
 11
53.090343
 21
-71.291265
  0
LINE
  8
別途部材
  6
CONTINUOUS
 10
51.090343
 20
-70.291265
 11
52.090343
 21
-70.291265
  0
LINE
  8
別途部材
  6
CONTINUOUS
 10
54.090343
 20
-71.291265
 11
55.090343
 21
-70.291265
  0
LINE
  8
別途部材
  6
CONTINUOUS
 10
56.090343
 20
-70.291265
 11
57.090343
 21
-71.291265
  0
LINE
  8
別途部材
  6
CONTINUOUS
 10
55.090343
 20
-70.291265
 11
56.090343
 21
-70.291265
  0
LINE
  8
別途部材
  6
CONTINUOUS
 10
53.090343
 20
-71.291265
 11
54.090343
 21
-71.291265
  0
LINE
  8
別途部材
  6
CONTINUOUS
 10
49.090343
 20
-71.291265
 11
50.090343
 21
-71.291265
  0
LINE
  8
別途部材
  6
CONTINUOUS
 10
45.090343
 20
-71.291265
 11
46.090343
 21
-71.291265
  0
LINE
  8
別途部材
  6
CONTINUOUS
 10
41.090343
 20
-71.291265
 11
42.090343
 21
-71.291265
  0
LINE
  8
別途部材
  6
CONTINUOUS
 10
37.090343
 20
-71.291265
 11
38.090343
 21
-71.291265
  0
LINE
  8
別途部材
  6
CONTINUOUS
 10
33.090343
 20
-71.291265
 11
34.090343
 21
-71.291265
  0
LINE
  8
別途部材
  6
CONTINUOUS
 10
29.090343
 20
-71.291265
 11
30.090343
 21
-71.291265
  0
LINE
  8
別途部材
  6
CONTINUOUS
 10
25.090343
 20
-71.291265
 11
26.090343
 21
-71.291265
  0
LINE
  8
別途部材
  6
CONTINUOUS
 10
57.090343
 20
-71.291265
 11
57.090343
 21
-79.624597
  0
LINE
  8
別途部材
  6
CONTINUOUS
 10
55.090343
 20
-70.291265
 11
55.090343
 21
-79.624597
  0
LINE
  8
別途部材
  6
CONTINUOUS
 10
56.090343
 20
-70.291265
 11
56.090343
 21
-79.624597
  0
LINE
  8
別途部材
  6
CONTINUOUS
 10
53.090343
 20
-71.291265
 11
53.090343
 21
-79.624597
  0
LINE
  8
別途部材
  6
CONTINUOUS
 10
54.090343
 20
-71.291265
 11
54.090343
 21
-79.624597
  0
LINE
  8
別途部材
  6
CONTINUOUS
 10
52.090343
 20
-70.291265
 11
52.090343
 21
-79.624597
  0
LINE
  8
別途部材
  6
CONTINUOUS
 10
50.090343
 20
-71.291265
 11
50.090343
 21
-79.624597
  0
LINE
  8
別途部材
  6
CONTINUOUS
 10
51.090343
 20
-70.291265
 11
51.090343
 21
-79.624597
  0
LINE
  8
別途部材
  6
CONTINUOUS
 10
49.090343
 20
-71.291265
 11
49.090343
 21
-79.624597
  0
LINE
  8
別途部材
  6
CONTINUOUS
 10
48.090343
 20
-70.291265
 11
48.090343
 21
-79.624597
  0
LINE
  8
別途部材
  6
CONTINUOUS
 10
46.090343
 20
-71.291265
 11
46.090343
 21
-79.624597
  0
LINE
  8
別途部材
  6
CONTINUOUS
 10
47.090343
 20
-70.291265
 11
47.090343
 21
-79.624597
  0
LINE
  8
別途部材
  6
CONTINUOUS
 10
44.090343
 20
-70.291265
 11
44.090343
 21
-79.624597
  0
LINE
  8
別途部材
  6
CONTINUOUS
 10
45.090343
 20
-71.291265
 11
45.090343
 21
-79.624597
  0
LINE
  8
別途部材
  6
CONTINUOUS
 10
42.090343
 20
-71.291265
 11
42.090343
 21
-79.624597
  0
LINE
  8
別途部材
  6
CONTINUOUS
 10
43.090343
 20
-70.291265
 11
43.090343
 21
-79.624597
  0
LINE
  8
別途部材
  6
CONTINUOUS
 10
41.090343
 20
-71.291265
 11
41.090343
 21
-79.624597
  0
LINE
  8
別途部材
  6
CONTINUOUS
 10
39.090343
 20
-70.291265
 11
39.090343
 21
-79.624597
  0
LINE
  8
別途部材
  6
CONTINUOUS
 10
40.090343
 20
-70.291265
 11
40.090343
 21
-79.624597
  0
LINE
  8
別途部材
  6
CONTINUOUS
 10
38.090343
 20
-71.291265
 11
38.090343
 21
-79.624597
  0
LINE
  8
別途部材
  6
CONTINUOUS
 10
37.090343
 20
-71.291265
 11
37.090343
 21
-79.624597
  0
LINE
  8
別途部材
  6
CONTINUOUS
 10
36.090343
 20
-70.291265
 11
36.090343
 21
-79.624597
  0
LINE
  8
別途部材
  6
CONTINUOUS
 10
35.090343
 20
-70.291265
 11
35.090343
 21
-79.624597
  0
LINE
  8
別途部材
  6
CONTINUOUS
 10
31.090343
 20
-70.291265
 11
31.090343
 21
-79.624597
  0
LINE
  8
別途部材
  6
CONTINUOUS
 10
24.090343
 20
-70.291265
 11
24.090343
 21
-79.624597
  0
LINE
  8
別途部材
  6
CONTINUOUS
 10
20.090343
 20
-70.291265
 11
20.090343
 21
-79.624597
  0
LINE
  8
別途部材
  6
CONTINUOUS
 10
18.090343
 20
-71.291265
 11
18.090343
 21
-79.624597
  0
LINE
  8
別途部材
  6
CONTINUOUS
 10
23.090343
 20
-70.291265
 11
23.090343
 21
-79.624597
  0
LINE
  8
別途部材
  6
CONTINUOUS
 10
27.090343
 20
-70.291265
 11
27.090343
 21
-79.624597
  0
LINE
  8
別途部材
  6
CONTINUOUS
 10
29.090343
 20
-71.291265
 11
29.090343
 21
-79.624597
  0
LINE
  8
別途部材
  6
CONTINUOUS
 10
32.090343
 20
-70.291265
 11
32.090343
 21
-79.624597
  0
LINE
  8
別途部材
  6
CONTINUOUS
 10
33.090343
 20
-71.291265
 11
33.090343
 21
-79.624597
  0
LINE
  8
別途部材
  6
CONTINUOUS
 10
34.090343
 20
-71.291265
 11
34.090343
 21
-79.624597
  0
LINE
  8
別途部材
  6
CONTINUOUS
 10
30.090343
 20
-71.291265
 11
30.090343
 21
-79.624597
  0
LINE
  8
別途部材
  6
CONTINUOUS
 10
28.090343
 20
-70.291265
 11
28.090343
 21
-79.624597
  0
LINE
  8
別途部材
  6
CONTINUOUS
 10
26.090343
 20
-71.291265
 11
26.090343
 21
-79.624597
  0
LINE
  8
別途部材
  6
CONTINUOUS
 10
25.090343
 20
-71.291265
 11
25.090343
 21
-79.624597
  0
LINE
  8
別途部材
  6
CONTINUOUS
 10
22.090343
 20
-71.291265
 11
22.090343
 21
-79.624597
  0
LINE
  8
別途部材
  6
CONTINUOUS
 10
21.090343
 20
-71.291265
 11
21.090343
 21
-79.624597
  0
LINE
  8
別途部材
  6
CONTINUOUS
 10
19.090343
 20
-70.291265
 11
19.090343
 21
-79.624597
  0
LINE
  8
別途部材
  6
CONTINUOUS
 10
16.090343
 20
-70.291265
 11
16.090343
 21
-79.624597
  0
LINE
  8
別途部材
  6
CONTINUOUS
 10
17.090343
 20
-71.291265
 11
17.090343
 21
-79.624597
  0
LINE
  8
別途部材
  6
CONTINUOUS
 10
15.090343
 20
-70.291265
 11
15.090343
 21
-79.624597
  0
LINE
  8
別途部材
  6
CONTINUOUS
 10
14.090343
 20
-71.291265
 11
14.090343
 21
-79.624597
  0
LINE
  8
別途部材
  6
CONTINUOUS
 10
13.090343
 20
-71.291265
 11
13.090343
 21
-79.624597
  0
LINE
  8
別途部材
  6
CONTINUOUS
 10
12.090343
 20
-70.291265
 11
12.090343
 21
-79.624597
  0
LINE
  8
別途部材
  6
CONTINUOUS
 10
10.090343
 20
-71.291265
 11
10.090343
 21
-79.624597
  0
LINE
  8
別途部材
  6
CONTINUOUS
 10
11.090343
 20
-70.291265
 11
11.090343
 21
-79.624597
  0
LINE
  8
別途部材
  6
CONTINUOUS
 10
8.090343
 20
-70.291265
 11
8.090343
 21
-79.624597
  0
LINE
  8
別途部材
  6
CONTINUOUS
 10
9.090343
 20
-71.291265
 11
9.090343
 21
-79.624597
  0
LINE
  8
別途部材
  6
CONTINUOUS
 10
5.090343
 20
-71.291265
 11
5.090343
 21
-79.624597
  0
LINE
  8
別途部材
  6
CONTINUOUS
 10
4.090343
 20
-70.291265
 11
4.090343
 21
-79.624597
  0
LINE
  8
別途部材
  6
CONTINUOUS
 10
3.090343
 20
-70.291265
 11
3.090343
 21
-79.624597
  0
LINE
  8
別途部材
  6
CONTINUOUS
 10
6.090343
 20
-71.291265
 11
6.090343
 21
-79.624597
  0
LINE
  8
別途部材
  6
CONTINUOUS
 10
7.090343
 20
-70.291265
 11
7.090343
 21
-79.624597
  0
LINE
  8
別途部材
  6
CONTINUOUS
 10
-0.909657
 20
-70.291265
 11
-0.909657
 21
-79.624597
  0
LINE
  8
別途部材
  6
CONTINUOUS
 10
1.090343
 20
-71.291265
 11
1.090343
 21
-79.624597
  0
LINE
  8
別途部材
  6
CONTINUOUS
 10
2.090343
 20
-71.291265
 11
2.090343
 21
-79.624597
  0
LINE
  8
別途部材
  6
CONTINUOUS
 10
0.090343
 20
-70.291265
 11
0.090343
 21
-79.624597
  0
LINE
  8
別途部材
  6
CONTINUOUS
 10
-1.909657
 20
-71.291265
 11
-1.909657
 21
-79.624597
  0
LINE
  8
別途部材
  6
CONTINUOUS
 10
-3.909657
 20
-70.291265
 11
-3.909657
 21
-79.624597
  0
LINE
  8
別途部材
  6
CONTINUOUS
 10
-4.909657
 20
-70.291265
 11
-4.909657
 21
-79.624597
  0
LINE
  8
別途部材
  6
CONTINUOUS
 10
-6.909657
 20
-71.291265
 11
-6.909657
 21
-79.624597
  0
LINE
  8
別途部材
  6
CONTINUOUS
 10
-5.909657
 20
-71.291265
 11
-5.909657
 21
-79.624597
  0
LINE
  8
別途部材
  6
CONTINUOUS
 10
-2.909657
 20
-71.291265
 11
-2.909657
 21
-79.624597
  0
LINE
  8
別途部材
  6
CONTINUOUS
 10
-7.909657
 20
-70.291265
 11
-7.909657
 21
-79.624597
  0
LINE
  8
別途部材
  6
CONTINUOUS
 10
-9.909657
 20
-71.291265
 11
-9.909657
 21
-79.624597
  0
LINE
  8
別途部材
  6
CONTINUOUS
 10
-8.909657
 20
-70.291265
 11
-8.909657
 21
-79.624597
  0
LINE
  8
別途部材
  6
CONTINUOUS
 10
-10.909657
 20
-71.291265
 11
-10.909657
 21
-79.624597
  0
LINE
  8
別途部材
  6
CONTINUOUS
 10
-11.909657
 20
-70.291265
 11
-11.909657
 21
-79.624597
  0
LINE
  8
別途部材
  6
CONTINUOUS
 10
-13.909657
 20
-71.291265
 11
-13.909657
 21
-79.624597
  0
LINE
  8
別途部材
  6
CONTINUOUS
 10
-12.909657
 20
-70.291265
 11
-12.909657
 21
-79.624597
  0
LINE
  8
別途部材
  6
CONTINUOUS
 10
-14.909657
 20
-71.291265
 11
-14.909657
 21
-79.624597
  0
LINE
  8
別途部材
  6
CONTINUOUS
 10
-15.909657
 20
-70.291265
 11
-15.909657
 21
-79.624597
  0
LINE
  8
別途部材
  6
CONTINUOUS
 10
-17.909657
 20
-71.291265
 11
-17.909657
 21
-79.624597
  0
LINE
  8
別途部材
  6
CONTINUOUS
 10
-16.909657
 20
-70.291265
 11
-16.909657
 21
-79.624597
  0
LINE
  8
別途部材
  6
CONTINUOUS
 10
-18.909657
 20
-71.291265
 11
-18.909657
 21
-79.624597
  0
LINE
  8
別途部材
  6
CONTINUOUS
 10
-19.909657
 20
-70.291265
 11
-19.909657
 21
-79.624597
  0
ARC
  8
別途部材
  6
CONTINUOUS
 10
56.257009
 20
-88.957936
 40
17.666667
 50
31.890796
 51
87.296368
  0
ENDBLK
  0
BLOCK
  2
*GRP_0013
 70
    65
 10
0.0
 20
0.0
  0
LINE
  8
補助線
  6
BYBLOCK
 62
    64
 10
-92.012585
 20
-84.605558
 11
-92.14007
 21
-84.712918
  0
LINE
  8
補助線
  6
BYBLOCK
 62
    64
 10
-92.130008
 20
-84.595493
 11
-92.022648
 21
-84.72298
  0
LINE
  8
補助線
  6
BYBLOCK
 62
    64
 10
-83.522167
 20
-77.455535
 11
-83.649652
 21
-77.56289
  0
LINE
  8
補助線
  6
BYBLOCK
 62
    64
 10
-83.63959
 20
-77.44547
 11
-83.53223
 21
-77.572952
  0
LINE
  8
補助線
  6
BYBLOCK
 62
    64
 10
-75.159232
 20
-70.412865
 11
-75.03175
 21
-70.305508
  0
LINE
  8
補助線
  6
BYBLOCK
 62
    64
 10
-75.149172
 20
-70.295442
 11
-75.041813
 21
-70.42293
  0
LINE
  8
型材断面
  6
CONTINUOUS
 10
-92.868083
 20
-84.236535
 11
-92.92846
 21
-84.94106
  0
LINE
  8
型材断面
  6
CONTINUOUS
 10
-92.92846
 20
-84.94106
 11
-92.499028
 21
-85.450995
  0
LINE
  8
型材断面
  6
CONTINUOUS
 10
-92.499028
 20
-85.450995
 11
-91.794502
 21
-85.511373
  0
LINE
  8
型材断面
  6
CONTINUOUS
 10
-75.377315
 20
-69.507055
 11
-74.67279
 21
-69.567432
  0
LINE
  8
型材断面
  6
CONTINUOUS
 10
-74.67279
 20
-69.567432
 11
-74.243358
 21
-70.077368
  0
LINE
  8
型材断面
  6
CONTINUOUS
 10
-74.243358
 20
-70.077368
 11
-74.303735
 21
-70.781892
  0
LINE
  8
型材断面
  6
CONTINUOUS
 10
-92.868083
 20
-84.236535
 11
-75.377315
 21
-69.507055
  0
LINE
  8
型材断面
  6
CONTINUOUS
 10
-91.794502
 20
-85.511373
 11
-74.303735
 21
-70.781892
  0
CIRCLE
  8
ボルト／ビス
  6
CONTINUOUS
 10
-92.076328
 20
-84.659238
 40
0.250185
  0
CIRCLE
  8
ボルト／ビス
  6
CONTINUOUS
 10
-92.076328
 20
-84.659238
 40
0.301025
  0
LINE
  8
ボルト／ビス
  6
CONTINUOUS
 62
    64
 10
-92.322635
 20
-84.70312
 11
-92.237482
 21
-84.467872
  0
LINE
  8
ボルト／ビス
  6
CONTINUOUS
 62
    64
 10
-91.991175
 20
-84.423988
 11
-92.237482
 21
-84.467872
  0
LINE
  8
ボルト／ビス
  6
CONTINUOUS
 62
    64
 10
-92.16148
 20
-84.894488
 11
-91.915172
 21
-84.850602
  0
LINE
  8
ボルト／ビス
  6
CONTINUOUS
 62
    64
 10
-91.83002
 20
-84.615355
 11
-91.915172
 21
-84.850602
  0
LINE
  8
ボルト／ビス
  6
CONTINUOUS
 62
    64
 10
-92.322635
 20
-84.70312
 11
-92.16148
 21
-84.894488
  0
LINE
  8
ボルト／ビス
  6
CONTINUOUS
 62
    64
 10
-91.991175
 20
-84.423988
 11
-91.83002
 21
-84.615355
  0
CIRCLE
  8
ボルト／ビス
  6
CONTINUOUS
 62
    64
 10
-92.076328
 20
-84.659238
 40
0.216668
  0
CIRCLE
  8
ボルト／ビス
  6
CONTINUOUS
 10
-83.58591
 20
-77.509213
 40
0.250185
  0
CIRCLE
  8
ボルト／ビス
  6
CONTINUOUS
 10
-83.58591
 20
-77.509213
 40
0.301025
  0
LINE
  8
ボルト／ビス
  6
CONTINUOUS
 62
    64
 10
-83.832218
 20
-77.553095
 11
-83.747065
 21
-77.317845
  0
LINE
  8
ボルト／ビス
  6
CONTINUOUS
 62
    64
 10
-83.500757
 20
-77.273963
 11
-83.747065
 21
-77.317845
  0
LINE
  8
ボルト／ビス
  6
CONTINUOUS
 62
    64
 10
-83.671062
 20
-77.744463
 11
-83.424752
 21
-77.70058
  0
LINE
  8
ボルト／ビス
  6
CONTINUOUS
 62
    64
 10
-83.339602
 20
-77.465333
 11
-83.424752
 21
-77.70058
  0
LINE
  8
ボルト／ビス
  6
CONTINUOUS
 62
    64
 10
-83.832218
 20
-77.553095
 11
-83.671062
 21
-77.744463
  0
LINE
  8
ボルト／ビス
  6
CONTINUOUS
 62
    64
 10
-83.500757
 20
-77.273963
 11
-83.339602
 21
-77.465333
  0
CIRCLE
  8
ボルト／ビス
  6
CONTINUOUS
 62
    64
 10
-83.58591
 20
-77.509213
 40
0.216668
  0
CIRCLE
  8
ボルト／ビス
  6
CONTINUOUS
 10
-75.09549
 20
-70.359188
 40
0.250185
  0
CIRCLE
  8
ボルト／ビス
  6
CONTINUOUS
 10
-75.09549
 20
-70.359188
 40
0.301025
  0
LINE
  8
ボルト／ビス
  6
CONTINUOUS
 62
    64
 10
-75.010337
 20
-70.123938
 11
-75.256647
 21
-70.167822
  0
LINE
  8
ボルト／ビス
  6
CONTINUOUS
 62
    64
 10
-75.3418
 20
-70.40307
 11
-75.256647
 21
-70.167822
  0
LINE
  8
ボルト／ビス
  6
CONTINUOUS
 62
    64
 10
-74.849185
 20
-70.315305
 11
-74.934335
 21
-70.550552
  0
LINE
  8
ボルト／ビス
  6
CONTINUOUS
 62
    64
 10
-75.180645
 20
-70.594437
 11
-74.934335
 21
-70.550552
  0
LINE
  8
ボルト／ビス
  6
CONTINUOUS
 62
    64
 10
-75.010337
 20
-70.123938
 11
-74.849185
 21
-70.315305
  0
LINE
  8
ボルト／ビス
  6
CONTINUOUS
 62
    64
 10
-75.3418
 20
-70.40307
 11
-75.180645
 21
-70.594437
  0
CIRCLE
  8
ボルト／ビス
  6
CONTINUOUS
 62
    64
 10
-75.09549
 20
-70.359188
 40
0.216668
  0
ENDBLK
  0
BLOCK
  2
*GRP_0014
 70
    65
 10
0.0
 20
0.0
  0
LINE
  8
補助線
  6
BYBLOCK
 62
    64
 10
-75.159235
 20
-84.605558
 11
-75.03175
 21
-84.712918
  0
LINE
  8
補助線
  6
BYBLOCK
 62
    64
 10
-75.041813
 20
-84.595493
 11
-75.149172
 21
-84.72298
  0
LINE
  8
補助線
  6
BYBLOCK
 62
    64
 10
-83.649652
 20
-77.455535
 11
-83.522167
 21
-77.56289
  0
LINE
  8
補助線
  6
BYBLOCK
 62
    64
 10
-83.53223
 20
-77.44547
 11
-83.63959
 21
-77.572952
  0
LINE
  8
補助線
  6
BYBLOCK
 62
    64
 10
-92.012587
 20
-70.412865
 11
-92.14007
 21
-70.305508
  0
LINE
  8
補助線
  6
BYBLOCK
 62
    64
 10
-92.022648
 20
-70.295442
 11
-92.130008
 21
-70.42293
  0
LINE
  8
型材断面
  6
CONTINUOUS
 10
-74.303737
 20
-84.236535
 11
-74.24336
 21
-84.94106
  0
LINE
  8
型材断面
  6
CONTINUOUS
 10
-74.24336
 20
-84.94106
 11
-74.672793
 21
-85.450995
  0
LINE
  8
型材断面
  6
CONTINUOUS
 10
-74.672793
 20
-85.450995
 11
-75.377318
 21
-85.511373
  0
LINE
  8
型材断面
  6
CONTINUOUS
 10
-91.794505
 20
-69.507055
 11
-92.49903
 21
-69.567432
  0
LINE
  8
型材断面
  6
CONTINUOUS
 10
-92.49903
 20
-69.567432
 11
-92.928463
 21
-70.077368
  0
LINE
  8
型材断面
  6
CONTINUOUS
 10
-92.928463
 20
-70.077368
 11
-92.868085
 21
-70.781892
  0
LINE
  8
型材断面
  6
CONTINUOUS
 10
-74.303737
 20
-84.236535
 11
-91.794505
 21
-69.507055
  0
LINE
  8
型材断面
  6
CONTINUOUS
 10
-75.377318
 20
-85.511373
 11
-92.868085
 21
-70.781892
  0
CIRCLE
  8
ボルト／ビス
  6
CONTINUOUS
 10
-75.095493
 20
-84.659238
 40
0.250185
  0
CIRCLE
  8
ボルト／ビス
  6
CONTINUOUS
 10
-75.095493
 20
-84.659238
 40
0.301025
  0
LINE
  8
ボルト／ビス
  6
CONTINUOUS
 62
    64
 10
-74.849185
 20
-84.70312
 11
-74.934338
 21
-84.467872
  0
LINE
  8
ボルト／ビス
  6
CONTINUOUS
 62
    64
 10
-75.180645
 20
-84.423988
 11
-74.934338
 21
-84.467872
  0
LINE
  8
ボルト／ビス
  6
CONTINUOUS
 62
    64
 10
-75.01034
 20
-84.894488
 11
-75.256647
 21
-84.850602
  0
LINE
  8
ボルト／ビス
  6
CONTINUOUS
 62
    64
 10
-75.3418
 20
-84.615355
 11
-75.256647
 21
-84.850602
  0
LINE
  8
ボルト／ビス
  6
CONTINUOUS
 62
    64
 10
-74.849185
 20
-84.70312
 11
-75.01034
 21
-84.894488
  0
LINE
  8
ボルト／ビス
  6
CONTINUOUS
 62
    64
 10
-75.180645
 20
-84.423988
 11
-75.3418
 21
-84.615355
  0
CIRCLE
  8
ボルト／ビス
  6
CONTINUOUS
 62
    64
 10
-75.095493
 20
-84.659238
 40
0.216668
  0
CIRCLE
  8
ボルト／ビス
  6
CONTINUOUS
 10
-83.58591
 20
-77.509213
 40
0.250185
  0
CIRCLE
  8
ボルト／ビス
  6
CONTINUOUS
 10
-83.58591
 20
-77.509213
 40
0.301025
  0
LINE
  8
ボルト／ビス
  6
CONTINUOUS
 62
    64
 10
-83.339602
 20
-77.553095
 11
-83.424755
 21
-77.317845
  0
LINE
  8
ボルト／ビス
  6
CONTINUOUS
 62
    64
 10
-83.671062
 20
-77.273963
 11
-83.424755
 21
-77.317845
  0
LINE
  8
ボルト／ビス
  6
CONTINUOUS
 62
    64
 10
-83.500757
 20
-77.744463
 11
-83.747067
 21
-77.70058
  0
LINE
  8
ボルト／ビス
  6
CONTINUOUS
 62
    64
 10
-83.832218
 20
-77.465333
 11
-83.747067
 21
-77.70058
  0
LINE
  8
ボルト／ビス
  6
CONTINUOUS
 62
    64
 10
-83.339602
 20
-77.553095
 11
-83.500757
 21
-77.744463
  0
LINE
  8
ボルト／ビス
  6
CONTINUOUS
 62
    64
 10
-83.671062
 20
-77.273963
 11
-83.832218
 21
-77.465333
  0
CIRCLE
  8
ボルト／ビス
  6
CONTINUOUS
 62
    64
 10
-83.58591
 20
-77.509213
 40
0.216668
  0
CIRCLE
  8
ボルト／ビス
  6
CONTINUOUS
 10
-92.07633
 20
-70.359188
 40
0.250185
  0
CIRCLE
  8
ボルト／ビス
  6
CONTINUOUS
 10
-92.07633
 20
-70.359188
 40
0.301025
  0
LINE
  8
ボルト／ビス
  6
CONTINUOUS
 62
    64
 10
-92.161482
 20
-70.123938
 11
-91.915172
 21
-70.167822
  0
LINE
  8
ボルト／ビス
  6
CONTINUOUS
 62
    64
 10
-91.83002
 20
-70.40307
 11
-91.915172
 21
-70.167822
  0
LINE
  8
ボルト／ビス
  6
CONTINUOUS
 62
    64
 10
-92.322635
 20
-70.315305
 11
-92.237485
 21
-70.550552
  0
LINE
  8
ボルト／ビス
  6
CONTINUOUS
 62
    64
 10
-91.991175
 20
-70.594437
 11
-92.237485
 21
-70.550552
  0
LINE
  8
ボルト／ビス
  6
CONTINUOUS
 62
    64
 10
-92.161482
 20
-70.123938
 11
-92.322635
 21
-70.315305
  0
LINE
  8
ボルト／ビス
  6
CONTINUOUS
 62
    64
 10
-91.83002
 20
-70.40307
 11
-91.991175
 21
-70.594437
  0
CIRCLE
  8
ボルト／ビス
  6
CONTINUOUS
 62
    64
 10
-92.07633
 20
-70.359188
 40
0.216668
  0
ENDBLK
  0
BLOCK
  2
*GRP_0015
 70
    65
 10
0.0
 20
0.0
  0
LINE
  8
補助線
  6
BYBLOCK
 62
    64
 10
51.193265
 20
-84.605558
 11
51.32075
 21
-84.712918
  0
LINE
  8
補助線
  6
BYBLOCK
 62
    64
 10
51.310687
 20
-84.595493
 11
51.203327
 21
-84.72298
  0
LINE
  8
補助線
  6
BYBLOCK
 62
    64
 10
42.702847
 20
-77.455535
 11
42.830333
 21
-77.56289
  0
LINE
  8
補助線
  6
BYBLOCK
 62
    64
 10
42.82027
 20
-77.44547
 11
42.71291
 21
-77.572952
  0
LINE
  8
補助線
  6
BYBLOCK
 62
    64
 10
34.339912
 20
-70.412865
 11
34.21243
 21
-70.305508
  0
LINE
  8
補助線
  6
BYBLOCK
 62
    64
 10
34.329853
 20
-70.295442
 11
34.222493
 21
-70.42293
  0
LINE
  8
型材断面
  6
CONTINUOUS
 10
52.048762
 20
-84.236535
 11
52.10914
 21
-84.94106
  0
LINE
  8
型材断面
  6
CONTINUOUS
 10
52.10914
 20
-84.94106
 11
51.679708
 21
-85.450995
  0
LINE
  8
型材断面
  6
CONTINUOUS
 10
51.679708
 20
-85.450995
 11
50.975182
 21
-85.511373
  0
LINE
  8
型材断面
  6
CONTINUOUS
 10
34.557995
 20
-69.507055
 11
33.85347
 21
-69.567432
  0
LINE
  8
型材断面
  6
CONTINUOUS
 10
33.85347
 20
-69.567432
 11
33.424037
 21
-70.077368
  0
LINE
  8
型材断面
  6
CONTINUOUS
 10
33.424037
 20
-70.077368
 11
33.484415
 21
-70.781892
  0
LINE
  8
型材断面
  6
CONTINUOUS
 10
52.048762
 20
-84.236535
 11
34.557995
 21
-69.507055
  0
LINE
  8
型材断面
  6
CONTINUOUS
 10
50.975182
 20
-85.511373
 11
33.484415
 21
-70.781892
  0
CIRCLE
  8
ボルト／ビス
  6
CONTINUOUS
 10
51.257007
 20
-84.659238
 40
0.250185
  0
CIRCLE
  8
ボルト／ビス
  6
CONTINUOUS
 10
51.257007
 20
-84.659238
 40
0.301025
  0
LINE
  8
ボルト／ビス
  6
CONTINUOUS
 62
    64
 10
51.503315
 20
-84.70312
 11
51.418162
 21
-84.467872
  0
LINE
  8
ボルト／ビス
  6
CONTINUOUS
 62
    64
 10
51.171855
 20
-84.423988
 11
51.418162
 21
-84.467872
  0
LINE
  8
ボルト／ビス
  6
CONTINUOUS
 62
    64
 10
51.34216
 20
-84.894488
 11
51.095852
 21
-84.850602
  0
LINE
  8
ボルト／ビス
  6
CONTINUOUS
 62
    64
 10
51.0107
 20
-84.615355
 11
51.095852
 21
-84.850602
  0
LINE
  8
ボルト／ビス
  6
CONTINUOUS
 62
    64
 10
51.503315
 20
-84.70312
 11
51.34216
 21
-84.894488
  0
LINE
  8
ボルト／ビス
  6
CONTINUOUS
 62
    64
 10
51.171855
 20
-84.423988
 11
51.0107
 21
-84.615355
  0
CIRCLE
  8
ボルト／ビス
  6
CONTINUOUS
 62
    64
 10
51.257007
 20
-84.659238
 40
0.216668
  0
CIRCLE
  8
ボルト／ビス
  6
CONTINUOUS
 10
42.76659
 20
-77.509213
 40
0.250185
  0
CIRCLE
  8
ボルト／ビス
  6
CONTINUOUS
 10
42.76659
 20
-77.509213
 40
0.301025
  0
LINE
  8
ボルト／ビス
  6
CONTINUOUS
 62
    64
 10
43.012897
 20
-77.553095
 11
42.927745
 21
-77.317845
  0
LINE
  8
ボルト／ビス
  6
CONTINUOUS
 62
    64
 10
42.681437
 20
-77.273963
 11
42.927745
 21
-77.317845
  0
LINE
  8
ボルト／ビス
  6
CONTINUOUS
 62
    64
 10
42.851743
 20
-77.744463
 11
42.605432
 21
-77.70058
  0
LINE
  8
ボルト／ビス
  6
CONTINUOUS
 62
    64
 10
42.520283
 20
-77.465333
 11
42.605432
 21
-77.70058
  0
LINE
  8
ボルト／ビス
  6
CONTINUOUS
 62
    64
 10
43.012897
 20
-77.553095
 11
42.851743
 21
-77.744463
  0
LINE
  8
ボルト／ビス
  6
CONTINUOUS
 62
    64
 10
42.681437
 20
-77.273963
 11
42.520283
 21
-77.465333
  0
CIRCLE
  8
ボルト／ビス
  6
CONTINUOUS
 62
    64
 10
42.76659
 20
-77.509213
 40
0.216668
  0
CIRCLE
  8
ボルト／ビス
  6
CONTINUOUS
 10
34.27617
 20
-70.359188
 40
0.250185
  0
CIRCLE
  8
ボルト／ビス
  6
CONTINUOUS
 10
34.27617
 20
-70.359188
 40
0.301025
  0
LINE
  8
ボルト／ビス
  6
CONTINUOUS
 62
    64
 10
34.191018
 20
-70.123938
 11
34.437327
 21
-70.167822
  0
LINE
  8
ボルト／ビス
  6
CONTINUOUS
 62
    64
 10
34.52248
 20
-70.40307
 11
34.437327
 21
-70.167822
  0
LINE
  8
ボルト／ビス
  6
CONTINUOUS
 62
    64
 10
34.029865
 20
-70.315305
 11
34.115015
 21
-70.550552
  0
LINE
  8
ボルト／ビス
  6
CONTINUOUS
 62
    64
 10
34.361325
 20
-70.594437
 11
34.115015
 21
-70.550552
  0
LINE
  8
ボルト／ビス
  6
CONTINUOUS
 62
    64
 10
34.191018
 20
-70.123938
 11
34.029865
 21
-70.315305
  0
LINE
  8
ボルト／ビス
  6
CONTINUOUS
 62
    64
 10
34.52248
 20
-70.40307
 11
34.361325
 21
-70.594437
  0
CIRCLE
  8
ボルト／ビス
  6
CONTINUOUS
 62
    64
 10
34.27617
 20
-70.359188
 40
0.216668
  0
ENDBLK
  0
BLOCK
  2
*GRP_0016
 70
    65
 10
0.0
 20
0.0
  0
LINE
  8
補助線
  6
BYBLOCK
 62
    64
 10
34.339915
 20
-84.605558
 11
34.21243
 21
-84.712918
  0
LINE
  8
補助線
  6
BYBLOCK
 62
    64
 10
34.222493
 20
-84.595493
 11
34.329853
 21
-84.72298
  0
LINE
  8
補助線
  6
BYBLOCK
 62
    64
 10
42.830333
 20
-77.455535
 11
42.702847
 21
-77.56289
  0
LINE
  8
補助線
  6
BYBLOCK
 62
    64
 10
42.71291
 20
-77.44547
 11
42.82027
 21
-77.572952
  0
LINE
  8
補助線
  6
BYBLOCK
 62
    64
 10
51.193268
 20
-70.412865
 11
51.32075
 21
-70.305508
  0
LINE
  8
補助線
  6
BYBLOCK
 62
    64
 10
51.203327
 20
-70.295442
 11
51.310687
 21
-70.42293
  0
LINE
  8
型材断面
  6
CONTINUOUS
 10
33.484418
 20
-84.236535
 11
33.42404
 21
-84.94106
  0
LINE
  8
型材断面
  6
CONTINUOUS
 10
33.42404
 20
-84.94106
 11
33.853472
 21
-85.450995
  0
LINE
  8
型材断面
  6
CONTINUOUS
 10
33.853472
 20
-85.450995
 11
34.557998
 21
-85.511373
  0
LINE
  8
型材断面
  6
CONTINUOUS
 10
50.975185
 20
-69.507055
 11
51.67971
 21
-69.567432
  0
LINE
  8
型材断面
  6
CONTINUOUS
 10
51.67971
 20
-69.567432
 11
52.109143
 21
-70.077368
  0
LINE
  8
型材断面
  6
CONTINUOUS
 10
52.109143
 20
-70.077368
 11
52.048765
 21
-70.781892
  0
LINE
  8
型材断面
  6
CONTINUOUS
 10
33.484418
 20
-84.236535
 11
50.975185
 21
-69.507055
  0
LINE
  8
型材断面
  6
CONTINUOUS
 10
34.557998
 20
-85.511373
 11
52.048765
 21
-70.781892
  0
CIRCLE
  8
ボルト／ビス
  6
CONTINUOUS
 10
34.276173
 20
-84.659238
 40
0.250185
  0
CIRCLE
  8
ボルト／ビス
  6
CONTINUOUS
 10
34.276173
 20
-84.659238
 40
0.301025
  0
LINE
  8
ボルト／ビス
  6
CONTINUOUS
 62
    64
 10
34.029865
 20
-84.70312
 11
34.115018
 21
-84.467872
  0
LINE
  8
ボルト／ビス
  6
CONTINUOUS
 62
    64
 10
34.361325
 20
-84.423988
 11
34.115018
 21
-84.467872
  0
LINE
  8
ボルト／ビス
  6
CONTINUOUS
 62
    64
 10
34.19102
 20
-84.894488
 11
34.437327
 21
-84.850602
  0
LINE
  8
ボルト／ビス
  6
CONTINUOUS
 62
    64
 10
34.52248
 20
-84.615355
 11
34.437327
 21
-84.850602
  0
LINE
  8
ボルト／ビス
  6
CONTINUOUS
 62
    64
 10
34.029865
 20
-84.70312
 11
34.19102
 21
-84.894488
  0
LINE
  8
ボルト／ビス
  6
CONTINUOUS
 62
    64
 10
34.361325
 20
-84.423988
 11
34.52248
 21
-84.615355
  0
CIRCLE
  8
ボルト／ビス
  6
CONTINUOUS
 62
    64
 10
34.276173
 20
-84.659238
 40
0.216668
  0
CIRCLE
  8
ボルト／ビス
  6
CONTINUOUS
 10
42.76659
 20
-77.509213
 40
0.250185
  0
CIRCLE
  8
ボルト／ビス
  6
CONTINUOUS
 10
42.76659
 20
-77.509213
 40
0.301025
  0
LINE
  8
ボルト／ビス
  6
CONTINUOUS
 62
    64
 10
42.520283
 20
-77.553095
 11
42.605435
 21
-77.317845
  0
LINE
  8
ボルト／ビス
  6
CONTINUOUS
 62
    64
 10
42.851743
 20
-77.273963
 11
42.605435
 21
-77.317845
  0
LINE
  8
ボルト／ビス
  6
CONTINUOUS
 62
    64
 10
42.681437
 20
-77.744463
 11
42.927748
 21
-77.70058
  0
LINE
  8
ボルト／ビス
  6
CONTINUOUS
 62
    64
 10
43.012897
 20
-77.465333
 11
42.927748
 21
-77.70058
  0
LINE
  8
ボルト／ビス
  6
CONTINUOUS
 62
    64
 10
42.520283
 20
-77.553095
 11
42.681437
 21
-77.744463
  0
LINE
  8
ボルト／ビス
  6
CONTINUOUS
 62
    64
 10
42.851743
 20
-77.273963
 11
43.012897
 21
-77.465333
  0
CIRCLE
  8
ボルト／ビス
  6
CONTINUOUS
 62
    64
 10
42.76659
 20
-77.509213
 40
0.216668
  0
CIRCLE
  8
ボルト／ビス
  6
CONTINUOUS
 10
51.25701
 20
-70.359188
 40
0.250185
  0
CIRCLE
  8
ボルト／ビス
  6
CONTINUOUS
 10
51.25701
 20
-70.359188
 40
0.301025
  0
LINE
  8
ボルト／ビス
  6
CONTINUOUS
 62
    64
 10
51.342163
 20
-70.123938
 11
51.095852
 21
-70.167822
  0
LINE
  8
ボルト／ビス
  6
CONTINUOUS
 62
    64
 10
51.0107
 20
-70.40307
 11
51.095852
 21
-70.167822
  0
LINE
  8
ボルト／ビス
  6
CONTINUOUS
 62
    64
 10
51.503315
 20
-70.315305
 11
51.418165
 21
-70.550552
  0
LINE
  8
ボルト／ビス
  6
CONTINUOUS
 62
    64
 10
51.171855
 20
-70.594437
 11
51.418165
 21
-70.550552
  0
LINE
  8
ボルト／ビス
  6
CONTINUOUS
 62
    64
 10
51.342163
 20
-70.123938
 11
51.503315
 21
-70.315305
  0
LINE
  8
ボルト／ビス
  6
CONTINUOUS
 62
    64
 10
51.0107
 20
-70.40307
 11
51.171855
 21
-70.594437
  0
CIRCLE
  8
ボルト／ビス
  6
CONTINUOUS
 62
    64
 10
51.25701
 20
-70.359188
 40
0.216668
  0
ENDBLK
  0
BLOCK
  2
*DIM_0017
 70
    65
 10
0.0
 20
0.0
  0
LINE
  8
寸法
  6
BYBLOCK
 62
     0
 10
160.790272
 20
48.065715
 11
160.790272
 21
58.954983
  0
LINE
  8
寸法
  6
BYBLOCK
 62
     0
 10
167.823775
 20
48.382382
 11
167.823775
 21
58.954983
  0
LINE
  8
寸法
  6
BYBLOCK
 62
     0
 10
160.790272
 20
58.954983
 11
167.823775
 21
58.954983
  0
POINT
  8
寸法
 62
     0
 10
160.790272
 20
58.954983
  0
POINT
  8
寸法
 62
     0
 10
167.823775
 20
58.954983
  0
TEXT
  7
TextStyle03
  8
寸法
  6
CONTINUOUS
 62
     0
 10
161.8125
 20
59.325
  1
211
 40
3.0
 72
     5
 11
166.6875
 21
59.325
  0
ENDBLK
  0
BLOCK
  2
*DIM_0018
 70
    65
 10
0.0
 20
0.0
  0
LINE
  8
寸法
  6
BYBLOCK
 62
     0
 10
159.167058
 20
45.382382
 11
105.276657
 21
45.382382
  0
LINE
  8
寸法
  6
BYBLOCK
 62
     0
 10
105.276657
 20
43.399048
 11
105.276657
 21
45.382382
  0
POINT
  8
寸法
 62
     0
 10
105.276657
 20
43.399048
  0
POINT
  8
寸法
 62
     0
 10
105.276657
 20
45.382382
  0
TEXT
  7
TextStyle03
  8
寸法
  6
CONTINUOUS
 62
     0
 10
104.825
 20
47.86875
  1
59.5
 40
3.0
 50
90.0
 72
     5
 11
104.825
 21
54.43125
  0
ENDBLK
  0
BLOCK
  2
*DIM_0019
 70
    65
 10
0.0
 20
0.0
  0
LINE
  8
寸法
  6
BYBLOCK
 62
     0
 10
159.167058
 20
11.415715
 11
105.276657
 21
11.415715
  0
LINE
  8
寸法
  6
BYBLOCK
 62
     0
 10
105.276657
 20
13.399048
 11
105.276657
 21
11.415715
  0
POINT
  8
寸法
 62
     0
 10
105.276657
 20
13.399048
  0
POINT
  8
寸法
 62
     0
 10
105.276657
 20
11.415715
  0
TEXT
  7
TextStyle03
  8
寸法
  6
CONTINUOUS
 62
     0
 10
104.825
 20
2.36875
  1
59.5
 40
3.0
 50
90.0
 72
     5
 11
104.825
 21
8.93125
  0
ENDBLK
  0
BLOCK
  2
*DIM_0020
 70
    65
 10
0.0
 20
0.0
  0
LINE
  8
寸法
  6
BYBLOCK
 62
     0
 10
75.923675
 20
-79.624597
 11
87.226657
 21
-79.624597
  0
LINE
  8
寸法
  6
BYBLOCK
 62
     0
 10
76.240343
 20
-86.6581
 11
87.226657
 21
-86.6581
  0
LINE
  8
寸法
  6
BYBLOCK
 62
     0
 10
87.226657
 20
-79.624597
 11
87.226657
 21
-86.6581
  0
POINT
  8
寸法
 62
     0
 10
87.226657
 20
-79.624597
  0
POINT
  8
寸法
 62
     0
 10
87.226657
 20
-86.6581
  0
TEXT
  7
TextStyle03
  8
寸法
  6
CONTINUOUS
 62
     0
 10
86.8
 20
-85.5875
  1
211
 40
3.0
 50
90.0
 72
     5
 11
86.8
 21
-80.7125
  0
ENDBLK
  0
BLOCK
  2
*DIM_0021
 70
    65
 10
0.0
 20
0.0
  0
LINE
  8
寸法
  6
BYBLOCK
 62
     0
 10
73.24034
 20
-78.001383
 11
73.24034
 21
-22.536362
  0
LINE
  8
寸法
  6
BYBLOCK
 62
     0
 10
71.257007
 20
-22.536362
 11
73.24034
 21
-22.536362
  0
POINT
  8
寸法
 62
     0
 10
71.257007
 20
-22.536362
  0
POINT
  8
寸法
 62
     0
 10
73.24034
 20
-22.536362
  0
TEXT
  7
TextStyle03
  8
寸法
  6
CONTINUOUS
 62
     0
 10
75.69375
 20
-22.15
  1
59.5
 40
3.0
 72
     5
 11
82.25625
 21
-22.15
  0
ENDBLK
  0
BLOCK
  2
*DIM_0022
 70
    65
 10
0.0
 20
0.0
  0
LINE
  8
寸法
  6
BYBLOCK
 62
     0
 10
-114.05966
 20
-78.001383
 11
-114.05966
 21
-22.536362
  0
LINE
  8
寸法
  6
BYBLOCK
 62
     0
 10
-112.076325
 20
-22.536362
 11
-114.05966
 21
-22.536362
  0
POINT
  8
寸法
 62
     0
 10
-112.076325
 20
-22.536362
  0
POINT
  8
寸法
 62
     0
 10
-114.05966
 20
-22.536362
  0
TEXT
  7
TextStyle03
  8
寸法
  6
CONTINUOUS
 62
     0
 10
-123.13125
 20
-22.15
  1
59.5
 40
3.0
 72
     5
 11
-116.56875
 21
-22.15
  0
ENDBLK
  0
BLOCK
  2
*DIM_0023
 70
    65
 10
0.0
 20
0.0
  0
LINE
  8
寸法
  6
BYBLOCK
 62
     0
 10
-115.076325
 20
38.399048
 11
-128.369163
 21
38.399048
  0
LINE
  8
寸法
  6
BYBLOCK
 62
     0
 10
-115.076325
 20
18.399048
 11
-128.369163
 21
18.399048
  0
LINE
  8
寸法
  6
BYBLOCK
 62
     0
 10
-128.369163
 20
38.399048
 11
-128.369163
 21
18.399048
  0
POINT
  8
寸法
 62
     0
 10
-128.369163
 20
38.399048
  0
POINT
  8
寸法
 62
     0
 10
-128.369163
 20
18.399048
  0
TEXT
  7
TextStyle03
  8
寸法
  6
CONTINUOUS
 62
     0
 10
-128.725
 20
25.9625
  1
600
 40
3.0
 50
90.0
 72
     5
 11
-128.725
 21
30.8375
  0
ENDBLK
  0
BLOCK
  2
*DIM_0024
 70
    65
 10
0.0
 20
0.0
  0
LINE
  8
寸法
  6
BYBLOCK
 62
     0
 10
-100.40966
 20
46.399048
 11
-100.40966
 21
75.50712
  0
LINE
  8
寸法
  6
BYBLOCK
 62
     0
 10
-73.742993
 20
46.399048
 11
-73.742993
 21
75.50712
  0
LINE
  8
寸法
  6
BYBLOCK
 62
     0
 10
-100.40966
 20
75.50712
 11
-73.742993
 21
75.50712
  0
POINT
  8
寸法
 62
     0
 10
-100.40966
 20
75.50712
  0
POINT
  8
寸法
 62
     0
 10
-73.742993
 20
75.50712
  0
TEXT
  7
TextStyle03
  8
寸法
  6
CONTINUOUS
 62
     0
 10
-89.5375
 20
75.875
  1
800
 40
3.0
 72
     5
 11
-84.6625
 21
75.875
  0
ENDBLK
  0
BLOCK
  2
*DIM_0025
 70
    65
 10
0.0
 20
0.0
  0
LINE
  8
寸法
  6
BYBLOCK
 62
     0
 10
-47.076328
 20
46.399048
 11
-47.076328
 21
75.50712
  0
LINE
  8
寸法
  6
BYBLOCK
 62
     0
 10
-73.742993
 20
75.50712
 11
-47.076328
 21
75.50712
  0
POINT
  8
寸法
 62
     0
 10
-47.076328
 20
75.50712
  0
TEXT
  7
TextStyle03
  8
寸法
  6
CONTINUOUS
 62
     0
 10
-62.8625
 20
75.875
  1
800
 40
3.0
 72
     5
 11
-57.9875
 21
75.875
  0
ENDBLK
  0
BLOCK
  2
*DIM_0026
 70
    65
 10
0.0
 20
0.0
  0
LINE
  8
寸法
  6
BYBLOCK
 62
     0
 10
-20.40966
 20
46.399048
 11
-20.40966
 21
75.50712
  0
LINE
  8
寸法
  6
BYBLOCK
 62
     0
 10
-47.076328
 20
75.50712
 11
-20.40966
 21
75.50712
  0
POINT
  8
寸法
 62
     0
 10
-20.40966
 20
75.50712
  0
TEXT
  7
TextStyle03
  8
寸法
  6
CONTINUOUS
 62
     0
 10
-36.1875
 20
75.875
  1
800
 40
3.0
 72
     5
 11
-31.3125
 21
75.875
  0
ENDBLK
  0
BLOCK
  2
*DIM_0027
 70
    65
 10
0.0
 20
0.0
  0
LINE
  8
寸法
  6
BYBLOCK
 62
     0
 10
6.257007
 20
46.399048
 11
6.257007
 21
75.50712
  0
LINE
  8
寸法
  6
BYBLOCK
 62
     0
 10
-20.40966
 20
75.50712
 11
6.257007
 21
75.50712
  0
POINT
  8
寸法
 62
     0
 10
6.257007
 20
75.50712
  0
TEXT
  7
TextStyle03
  8
寸法
  6
CONTINUOUS
 62
     0
 10
-9.5375
 20
75.875
  1
800
 40
3.0
 72
     5
 11
-4.6625
 21
75.875
  0
ENDBLK
  0
BLOCK
  2
*DIM_0028
 70
    65
 10
0.0
 20
0.0
  0
LINE
  8
寸法
  6
BYBLOCK
 62
     0
 10
32.923673
 20
46.399048
 11
32.923673
 21
75.50712
  0
LINE
  8
寸法
  6
BYBLOCK
 62
     0
 10
6.257007
 20
75.50712
 11
32.923673
 21
75.50712
  0
POINT
  8
寸法
 62
     0
 10
32.923673
 20
75.50712
  0
TEXT
  7
TextStyle03
  8
寸法
  6
CONTINUOUS
 62
     0
 10
17.1375
 20
75.875
  1
800
 40
3.0
 72
     5
 11
22.0125
 21
75.875
  0
ENDBLK
  0
BLOCK
  2
*DIM_0029
 70
    65
 10
0.0
 20
0.0
  0
LINE
  8
寸法
  6
BYBLOCK
 62
     0
 10
59.59034
 20
46.399048
 11
59.59034
 21
75.50712
  0
LINE
  8
寸法
  6
BYBLOCK
 62
     0
 10
32.923673
 20
75.50712
 11
59.59034
 21
75.50712
  0
POINT
  8
寸法
 62
     0
 10
59.59034
 20
75.50712
  0
TEXT
  7
TextStyle03
  8
寸法
  6
CONTINUOUS
 62
     0
 10
43.8125
 20
75.875
  1
800
 40
3.0
 72
     5
 11
48.6875
 21
75.875
  0
ENDBLK
  0
BLOCK
  2
*GRP_0031
 70
    65
 10
0.0
 20
0.0
  0
LINE
  8
ボルト／ビス
  6
CONTINUOUS
 10
160.790272
 20
12.73238
 11
160.323608
 21
12.73238
  0
LINE
  8
ボルト／ビス
  6
CONTINUOUS
 10
160.790272
 20
12.365715
 11
160.723608
 21
12.365715
  0
LINE
  8
ボルト／ビス
  6
CONTINUOUS
 10
160.723608
 20
12.365715
 11
160.723608
 21
13.099048
  0
LINE
  8
ボルト／ビス
  6
CONTINUOUS
 10
160.723608
 20
13.099048
 11
160.790272
 21
13.099048
  0
LINE
  8
ボルト／ビス
  6
CONTINUOUS
 10
160.790272
 20
12.365715
 11
160.790272
 21
13.099048
  0
LINE
  8
ボルト／ビス
  6
CONTINUOUS
 10
160.690272
 20
12.43238
 11
160.723608
 21
12.43238
  0
LINE
  8
ボルト／ビス
  6
CONTINUOUS
 10
160.690272
 20
12.43238
 11
160.690272
 21
13.03238
  0
LINE
  8
ボルト／ビス
  6
CONTINUOUS
 10
160.690272
 20
13.03238
 11
160.723608
 21
13.03238
  0
LINE
  8
ボルト／ビス
  6
CONTINUOUS
 62
    64
 10
160.490273
 20
12.572005
 11
160.501947
 21
12.53993
  0
ARC
  8
ボルト／ビス
  6
CONTINUOUS
 62
    64
 10
160.595253
 20
12.588044
 40
0.104978
 50
152.721967
 51
180.0
  0
ARC
  8
ボルト／ビス
  6
CONTINUOUS
 62
    64
 10
160.892677
 20
12.732382
 40
0.402402
 50
166.165002
 51
193.834985
  0
LINE
  8
ボルト／ビス
  6
CONTINUOUS
 62
    64
 10
160.490273
 20
12.892755
 11
160.501947
 21
12.92483
  0
ARC
  8
ボルト／ビス
  6
CONTINUOUS
 62
    64
 10
160.595253
 20
12.876719
 40
0.104978
 50
180.0
 51
207.278033
  0
LINE
  8
ボルト／ビス
  6
CONTINUOUS
 62
    64
 10
160.490273
 20
12.572005
 11
160.490273
 21
12.892755
  0
LINE
  8
ボルト／ビス
  6
CONTINUOUS
 62
    64
 10
160.501947
 20
12.92483
 11
160.623608
 21
12.92483
  0
LINE
  8
ボルト／ビス
  6
CONTINUOUS
 62
    64
 10
160.501947
 20
12.828605
 11
160.623608
 21
12.828605
  0
LINE
  8
ボルト／ビス
  6
CONTINUOUS
 62
    64
 10
160.501947
 20
12.53993
 11
160.623608
 21
12.53993
  0
LINE
  8
ボルト／ビス
  6
CONTINUOUS
 62
    64
 10
160.501947
 20
12.636155
 11
160.623608
 21
12.636155
  0
LINE
  8
ボルト／ビス
  6
CONTINUOUS
 10
160.623608
 20
12.53993
 11
160.623608
 21
12.92483
  0
LINE
  8
ボルト／ビス
  6
CONTINUOUS
 10
160.623608
 20
12.53238
 11
160.690272
 21
12.53238
  0
LINE
  8
ボルト／ビス
  6
CONTINUOUS
 10
160.623608
 20
12.53238
 11
160.623608
 21
12.93238
  0
LINE
  8
ボルト／ビス
  6
CONTINUOUS
 10
160.623608
 20
12.93238
 11
160.690272
 21
12.93238
  0
ENDBLK
  0
BLOCK
  2
*GRP_0032
 70
    65
 10
0.0
 20
0.0
  0
LINE
  8
ボルト／ビス
  6
CONTINUOUS
 10
160.790272
 20
44.065715
 11
160.323608
 21
44.065715
  0
LINE
  8
ボルト／ビス
  6
CONTINUOUS
 10
160.790272
 20
44.43238
 11
160.723608
 21
44.43238
  0
LINE
  8
ボルト／ビス
  6
CONTINUOUS
 10
160.723608
 20
44.43238
 11
160.723608
 21
43.699048
  0
LINE
  8
ボルト／ビス
  6
CONTINUOUS
 10
160.723608
 20
43.699048
 11
160.790272
 21
43.699048
  0
LINE
  8
ボルト／ビス
  6
CONTINUOUS
 10
160.790272
 20
44.43238
 11
160.790272
 21
43.699048
  0
LINE
  8
ボルト／ビス
  6
CONTINUOUS
 10
160.690272
 20
44.365715
 11
160.723608
 21
44.365715
  0
LINE
  8
ボルト／ビス
  6
CONTINUOUS
 10
160.690272
 20
44.365715
 11
160.690272
 21
43.765715
  0
LINE
  8
ボルト／ビス
  6
CONTINUOUS
 10
160.690272
 20
43.765715
 11
160.723608
 21
43.765715
  0
LINE
  8
ボルト／ビス
  6
CONTINUOUS
 62
    64
 10
160.490273
 20
44.22609
 11
160.501947
 21
44.258165
  0
ARC
  8
ボルト／ビス
  6
CONTINUOUS
 62
    64
 10
160.595253
 20
44.210051
 40
0.104978
 50
180.0
 51
207.278033
  0
ARC
  8
ボルト／ビス
  6
CONTINUOUS
 62
    64
 10
160.892677
 20
44.065713
 40
0.402402
 50
166.165015
 51
193.834998
  0
LINE
  8
ボルト／ビス
  6
CONTINUOUS
 62
    64
 10
160.490273
 20
43.90534
 11
160.501947
 21
43.873265
  0
ARC
  8
ボルト／ビス
  6
CONTINUOUS
 62
    64
 10
160.595253
 20
43.921376
 40
0.104978
 50
152.721967
 51
180.0
  0
LINE
  8
ボルト／ビス
  6
CONTINUOUS
 62
    64
 10
160.490273
 20
44.22609
 11
160.490273
 21
43.90534
  0
LINE
  8
ボルト／ビス
  6
CONTINUOUS
 62
    64
 10
160.501947
 20
43.873265
 11
160.623608
 21
43.873265
  0
LINE
  8
ボルト／ビス
  6
CONTINUOUS
 62
    64
 10
160.501947
 20
43.96949
 11
160.623608
 21
43.96949
  0
LINE
  8
ボルト／ビス
  6
CONTINUOUS
 62
    64
 10
160.501947
 20
44.258165
 11
160.623608
 21
44.258165
  0
LINE
  8
ボルト／ビス
  6
CONTINUOUS
 62
    64
 10
160.501947
 20
44.16194
 11
160.623608
 21
44.16194
  0
LINE
  8
ボルト／ビス
  6
CONTINUOUS
 10
160.623608
 20
44.258165
 11
160.623608
 21
43.873265
  0
LINE
  8
ボルト／ビス
  6
CONTINUOUS
 10
160.623608
 20
44.265715
 11
160.690272
 21
44.265715
  0
LINE
  8
ボルト／ビス
  6
CONTINUOUS
 10
160.623608
 20
44.265715
 11
160.623608
 21
43.865715
  0
LINE
  8
ボルト／ビス
  6
CONTINUOUS
 10
160.623608
 20
43.865715
 11
160.690272
 21
43.865715
  0
ENDBLK
  0
BLOCK
  2
*GRP_0033
 70
    65
 10
0.0
 20
0.0
  0
LINE
  8
ボルト／ビス
  6
CONTINUOUS
 10
71.92367
 20
-79.624593
 11
71.92367
 21
-79.157928
  0
LINE
  8
ボルト／ビス
  6
CONTINUOUS
 10
71.557005
 20
-79.624593
 11
71.557005
 21
-79.557928
  0
LINE
  8
ボルト／ビス
  6
CONTINUOUS
 10
71.557005
 20
-79.557928
 11
72.290337
 21
-79.557928
  0
LINE
  8
ボルト／ビス
  6
CONTINUOUS
 10
72.290337
 20
-79.557928
 11
72.290337
 21
-79.624593
  0
LINE
  8
ボルト／ビス
  6
CONTINUOUS
 10
71.557005
 20
-79.624593
 11
72.290337
 21
-79.624593
  0
LINE
  8
ボルト／ビス
  6
CONTINUOUS
 10
71.62367
 20
-79.524593
 11
71.62367
 21
-79.557928
  0
LINE
  8
ボルト／ビス
  6
CONTINUOUS
 10
71.62367
 20
-79.524593
 11
72.22367
 21
-79.524593
  0
LINE
  8
ボルト／ビス
  6
CONTINUOUS
 10
72.22367
 20
-79.524593
 11
72.22367
 21
-79.557928
  0
LINE
  8
ボルト／ビス
  6
CONTINUOUS
 62
    64
 10
71.763295
 20
-79.324593
 11
71.73122
 21
-79.336268
  0
ARC
  8
ボルト／ビス
  6
CONTINUOUS
 62
    64
 10
71.779334
 20
-79.429572
 40
0.104978
 50
62.721967
 51
90.0
  0
ARC
  8
ボルト／ビス
  6
CONTINUOUS
 62
    64
 10
71.923671
 20
-79.726996
 40
0.402402
 50
76.165002
 51
103.834985
  0
LINE
  8
ボルト／ビス
  6
CONTINUOUS
 62
    64
 10
72.084045
 20
-79.324593
 11
72.11612
 21
-79.336268
  0
ARC
  8
ボルト／ビス
  6
CONTINUOUS
 62
    64
 10
72.068009
 20
-79.429572
 40
0.104978
 50
90.0
 51
117.278033
  0
LINE
  8
ボルト／ビス
  6
CONTINUOUS
 62
    64
 10
71.763295
 20
-79.324593
 11
72.084045
 21
-79.324593
  0
LINE
  8
ボルト／ビス
  6
CONTINUOUS
 62
    64
 10
72.11612
 20
-79.336268
 11
72.11612
 21
-79.457928
  0
LINE
  8
ボルト／ビス
  6
CONTINUOUS
 62
    64
 10
72.019895
 20
-79.336268
 11
72.019895
 21
-79.457928
  0
LINE
  8
ボルト／ビス
  6
CONTINUOUS
 62
    64
 10
71.73122
 20
-79.336268
 11
71.73122
 21
-79.457928
  0
LINE
  8
ボルト／ビス
  6
CONTINUOUS
 62
    64
 10
71.827445
 20
-79.336268
 11
71.827445
 21
-79.457928
  0
LINE
  8
ボルト／ビス
  6
CONTINUOUS
 10
71.73122
 20
-79.457928
 11
72.11612
 21
-79.457928
  0
LINE
  8
ボルト／ビス
  6
CONTINUOUS
 10
71.72367
 20
-79.457928
 11
71.72367
 21
-79.524593
  0
LINE
  8
ボルト／ビス
  6
CONTINUOUS
 10
71.72367
 20
-79.457928
 11
72.12367
 21
-79.457928
  0
LINE
  8
ボルト／ビス
  6
CONTINUOUS
 10
72.12367
 20
-79.457928
 11
72.12367
 21
-79.524593
  0
ENDBLK
  0
BLOCK
  2
*GRP_0034
 70
    65
 10
0.0
 20
0.0
  0
LINE
  8
ボルト／ビス
  6
DOT
 10
71.92367
 20
-67.95793
 11
71.92367
 21
-67.491265
  0
LINE
  8
ボルト／ビス
  6
DOT
 10
71.557005
 20
-67.95793
 11
71.557005
 21
-67.891265
  0
LINE
  8
ボルト／ビス
  6
DOT
 10
71.557005
 20
-67.891265
 11
72.290337
 21
-67.891265
  0
LINE
  8
ボルト／ビス
  6
DOT
 10
72.290337
 20
-67.891265
 11
72.290337
 21
-67.95793
  0
LINE
  8
ボルト／ビス
  6
DOT
 10
71.557005
 20
-67.95793
 11
72.290337
 21
-67.95793
  0
LINE
  8
ボルト／ビス
  6
DOT
 10
71.62367
 20
-67.85793
 11
71.62367
 21
-67.891265
  0
LINE
  8
ボルト／ビス
  6
DOT
 10
71.62367
 20
-67.85793
 11
72.22367
 21
-67.85793
  0
LINE
  8
ボルト／ビス
  6
DOT
 10
72.22367
 20
-67.85793
 11
72.22367
 21
-67.891265
  0
LINE
  8
ボルト／ビス
  6
DOT
 62
    64
 10
71.763295
 20
-67.65793
 11
71.73122
 21
-67.669605
  0
ARC
  8
ボルト／ビス
  6
DOT
 62
    64
 10
71.779334
 20
-67.76291
 40
0.104978
 50
62.721967
 51
90.0
  0
ARC
  8
ボルト／ビス
  6
DOT
 62
    64
 10
71.923671
 20
-68.060334
 40
0.402402
 50
76.165002
 51
103.834985
  0
LINE
  8
ボルト／ビス
  6
DOT
 62
    64
 10
72.084045
 20
-67.65793
 11
72.11612
 21
-67.669605
  0
ARC
  8
ボルト／ビス
  6
DOT
 62
    64
 10
72.068009
 20
-67.76291
 40
0.104978
 50
90.0
 51
117.278033
  0
LINE
  8
ボルト／ビス
  6
DOT
 62
    64
 10
71.763295
 20
-67.65793
 11
72.084045
 21
-67.65793
  0
LINE
  8
ボルト／ビス
  6
DOT
 62
    64
 10
72.11612
 20
-67.669605
 11
72.11612
 21
-67.791265
  0
LINE
  8
ボルト／ビス
  6
DOT
 62
    64
 10
72.019895
 20
-67.669605
 11
72.019895
 21
-67.791265
  0
LINE
  8
ボルト／ビス
  6
DOT
 62
    64
 10
71.73122
 20
-67.669605
 11
71.73122
 21
-67.791265
  0
LINE
  8
ボルト／ビス
  6
DOT
 62
    64
 10
71.827445
 20
-67.669605
 11
71.827445
 21
-67.791265
  0
LINE
  8
ボルト／ビス
  6
DOT
 10
71.73122
 20
-67.791265
 11
72.11612
 21
-67.791265
  0
LINE
  8
ボルト／ビス
  6
DOT
 10
71.72367
 20
-67.791265
 11
71.72367
 21
-67.85793
  0
LINE
  8
ボルト／ビス
  6
DOT
 10
71.72367
 20
-67.791265
 11
72.12367
 21
-67.791265
  0
LINE
  8
ボルト／ビス
  6
DOT
 10
72.12367
 20
-67.791265
 11
72.12367
 21
-67.85793
  0
ENDBLK
  0
BLOCK
  2
*GRP_0035
 70
    65
 10
0.0
 20
0.0
  0
LINE
  8
ボルト／ビス
  6
CONTINUOUS
 10
-112.74299
 20
-79.624593
 11
-112.74299
 21
-79.157928
  0
LINE
  8
ボルト／ビス
  6
CONTINUOUS
 10
-112.376325
 20
-79.624593
 11
-112.376325
 21
-79.557928
  0
LINE
  8
ボルト／ビス
  6
CONTINUOUS
 10
-112.376325
 20
-79.557928
 11
-113.109657
 21
-79.557928
  0
LINE
  8
ボルト／ビス
  6
CONTINUOUS
 10
-113.109657
 20
-79.557928
 11
-113.109657
 21
-79.624593
  0
LINE
  8
ボルト／ビス
  6
CONTINUOUS
 10
-112.376325
 20
-79.624593
 11
-113.109657
 21
-79.624593
  0
LINE
  8
ボルト／ビス
  6
CONTINUOUS
 10
-112.44299
 20
-79.524593
 11
-112.44299
 21
-79.557928
  0
LINE
  8
ボルト／ビス
  6
CONTINUOUS
 10
-112.44299
 20
-79.524593
 11
-113.04299
 21
-79.524593
  0
LINE
  8
ボルト／ビス
  6
CONTINUOUS
 10
-113.04299
 20
-79.524593
 11
-113.04299
 21
-79.557928
  0
LINE
  8
ボルト／ビス
  6
CONTINUOUS
 62
    64
 10
-112.582615
 20
-79.324593
 11
-112.55054
 21
-79.336268
  0
ARC
  8
ボルト／ビス
  6
CONTINUOUS
 62
    64
 10
-112.598654
 20
-79.429572
 40
0.104978
 50
90.0
 51
117.278033
  0
ARC
  8
ボルト／ビス
  6
CONTINUOUS
 62
    64
 10
-112.742991
 20
-79.726996
 40
0.402402
 50
76.165015
 51
103.834998
  0
LINE
  8
ボルト／ビス
  6
CONTINUOUS
 62
    64
 10
-112.903365
 20
-79.324593
 11
-112.93544
 21
-79.336268
  0
ARC
  8
ボルト／ビス
  6
CONTINUOUS
 62
    64
 10
-112.887329
 20
-79.429572
 40
0.104978
 50
62.721967
 51
90.0
  0
LINE
  8
ボルト／ビス
  6
CONTINUOUS
 62
    64
 10
-112.582615
 20
-79.324593
 11
-112.903365
 21
-79.324593
  0
LINE
  8
ボルト／ビス
  6
CONTINUOUS
 62
    64
 10
-112.93544
 20
-79.336268
 11
-112.93544
 21
-79.457928
  0
LINE
  8
ボルト／ビス
  6
CONTINUOUS
 62
    64
 10
-112.839215
 20
-79.336268
 11
-112.839215
 21
-79.457928
  0
LINE
  8
ボルト／ビス
  6
CONTINUOUS
 62
    64
 10
-112.55054
 20
-79.336268
 11
-112.55054
 21
-79.457928
  0
LINE
  8
ボルト／ビス
  6
CONTINUOUS
 62
    64
 10
-112.646765
 20
-79.336268
 11
-112.646765
 21
-79.457928
  0
LINE
  8
ボルト／ビス
  6
CONTINUOUS
 10
-112.55054
 20
-79.457928
 11
-112.93544
 21
-79.457928
  0
LINE
  8
ボルト／ビス
  6
CONTINUOUS
 10
-112.54299
 20
-79.457928
 11
-112.54299
 21
-79.524593
  0
LINE
  8
ボルト／ビス
  6
CONTINUOUS
 10
-112.54299
 20
-79.457928
 11
-112.94299
 21
-79.457928
  0
LINE
  8
ボルト／ビス
  6
CONTINUOUS
 10
-112.94299
 20
-79.457928
 11
-112.94299
 21
-79.524593
  0
ENDBLK
  0
BLOCK
  2
*GRP_0036
 70
    65
 10
0.0
 20
0.0
  0
LINE
  8
ボルト／ビス
  6
DOT
 10
-112.74299
 20
-67.95793
 11
-112.74299
 21
-67.491265
  0
LINE
  8
ボルト／ビス
  6
DOT
 10
-112.376325
 20
-67.95793
 11
-112.376325
 21
-67.891265
  0
LINE
  8
ボルト／ビス
  6
DOT
 10
-112.376325
 20
-67.891265
 11
-113.109657
 21
-67.891265
  0
LINE
  8
ボルト／ビス
  6
DOT
 10
-113.109657
 20
-67.891265
 11
-113.109657
 21
-67.95793
  0
LINE
  8
ボルト／ビス
  6
DOT
 10
-112.376325
 20
-67.95793
 11
-113.109657
 21
-67.95793
  0
LINE
  8
ボルト／ビス
  6
DOT
 10
-112.44299
 20
-67.85793
 11
-112.44299
 21
-67.891265
  0
LINE
  8
ボルト／ビス
  6
DOT
 10
-112.44299
 20
-67.85793
 11
-113.04299
 21
-67.85793
  0
LINE
  8
ボルト／ビス
  6
DOT
 10
-113.04299
 20
-67.85793
 11
-113.04299
 21
-67.891265
  0
LINE
  8
ボルト／ビス
  6
DOT
 62
    64
 10
-112.582615
 20
-67.65793
 11
-112.55054
 21
-67.669605
  0
ARC
  8
ボルト／ビス
  6
DOT
 62
    64
 10
-112.598654
 20
-67.76291
 40
0.104978
 50
90.0
 51
117.278033
  0
ARC
  8
ボルト／ビス
  6
DOT
 62
    64
 10
-112.742991
 20
-68.060334
 40
0.402402
 50
76.165015
 51
103.834998
  0
LINE
  8
ボルト／ビス
  6
DOT
 62
    64
 10
-112.903365
 20
-67.65793
 11
-112.93544
 21
-67.669605
  0
ARC
  8
ボルト／ビス
  6
DOT
 62
    64
 10
-112.887329
 20
-67.76291
 40
0.104978
 50
62.721967
 51
90.0
  0
LINE
  8
ボルト／ビス
  6
DOT
 62
    64
 10
-112.582615
 20
-67.65793
 11
-112.903365
 21
-67.65793
  0
LINE
  8
ボルト／ビス
  6
DOT
 62
    64
 10
-112.93544
 20
-67.669605
 11
-112.93544
 21
-67.791265
  0
LINE
  8
ボルト／ビス
  6
DOT
 62
    64
 10
-112.839215
 20
-67.669605
 11
-112.839215
 21
-67.791265
  0
LINE
  8
ボルト／ビス
  6
DOT
 62
    64
 10
-112.55054
 20
-67.669605
 11
-112.55054
 21
-67.791265
  0
LINE
  8
ボルト／ビス
  6
DOT
 62
    64
 10
-112.646765
 20
-67.669605
 11
-112.646765
 21
-67.791265
  0
LINE
  8
ボルト／ビス
  6
DOT
 10
-112.55054
 20
-67.791265
 11
-112.93544
 21
-67.791265
  0
LINE
  8
ボルト／ビス
  6
DOT
 10
-112.54299
 20
-67.791265
 11
-112.54299
 21
-67.85793
  0
LINE
  8
ボルト／ビス
  6
DOT
 10
-112.54299
 20
-67.791265
 11
-112.94299
 21
-67.791265
  0
LINE
  8
ボルト／ビス
  6
DOT
 10
-112.94299
 20
-67.791265
 11
-112.94299
 21
-67.85793
  0
ENDBLK
  0
BLOCK
  2
*DIM_0037
 70
    65
 10
0.0
 20
0.0
  0
LINE
  8
寸法
  6
BYBLOCK
 62
     0
 10
59.257007
 20
-59.624597
 11
87.226657
 21
-59.624597
  0
LINE
  8
寸法
  6
BYBLOCK
 62
     0
 10
87.226657
 20
-71.291265
 11
87.226657
 21
-59.624597
  0
POINT
  8
寸法
 62
     0
 10
87.226657
 20
-71.291265
  0
POINT
  8
寸法
 62
     0
 10
87.226657
 20
-59.624597
  0
TEXT
  7
TextStyle03
  8
寸法
  6
CONTINUOUS
 62
     0
 10
86.825
 20
-58.0125
  1
上昇高さ350
 40
3.0
 50
90.0
 72
     5
 11
86.825
 21
-39.6375
  0
ENDBLK
  0
ENDSEC
  0
SECTION
  2
ENTITIES
  0
POLYLINE
  8
通り芯
  6
CONTINUOUS
 66
     1
 70
     1
  0
VERTEX
  8
通り芯
 10
-210.0
 20
-148.5
  0
VERTEX
  8
通り芯
 10
210.0
 20
-148.5
  0
VERTEX
  8
通り芯
 10
210.0
 20
148.5
  0
VERTEX
  8
通り芯
 10
-210.0
 20
148.5
  0
SEQEND
  0
INSERT
  2
*GRP_0001
  8
型材断面
  6
CONTINUOUS
 10
0.0
 20
0.0
  0
LINE
  8
型材断面
  6
DASHDOT
 10
71.257007
 20
-87.251428
 11
71.257007
 21
43.399048
  0
LINE
  8
型材断面
  6
DASHDOT
 10
-20.40966
 20
-87.251428
 11
-20.40966
 21
43.399048
  0
LINE
  8
型材断面
  6
DASHDOT
 10
-112.076325
 20
-87.251428
 11
-112.076325
 21
43.399048
  0
LINE
  8
型材断面
  6
DASHDOT
 10
168.93377
 20
43.399048
 11
-112.076325
 21
43.399048
  0
LINE
  8
型材断面
  6
DASHDOT
 10
168.93377
 20
28.399048
 11
-112.076325
 21
28.399048
  0
LINE
  8
型材断面
  6
DASHDOT
 10
168.93377
 20
13.399048
 11
-112.076325
 21
13.399048
  0
LINE
  8
型材断面
  6
DOT
 10
-74.279658
 20
13.399048
 11
-74.279658
 21
43.399048
  0
LINE
  8
型材断面
  6
DOT
 10
-76.779658
 20
13.399048
 11
-76.779658
 21
43.399048
  0
LINE
  8
型材断面
  6
DASHDOT
 10
-75.529658
 20
13.399048
 11
-75.529658
 21
43.399048
  0
LINE
  8
型材断面
  6
DASHDOT
 10
-38.782992
 20
13.399048
 11
-38.782992
 21
43.399048
  0
LINE
  8
型材断面
  6
DOT
 10
-37.532992
 20
13.399048
 11
-37.532992
 21
43.399048
  0
LINE
  8
型材断面
  6
DOT
 10
-40.032992
 20
13.399048
 11
-40.032992
 21
43.399048
  0
LINE
  8
型材断面
  6
DOT
 10
33.460338
 20
13.399048
 11
33.460338
 21
43.399048
  0
LINE
  8
型材断面
  6
DOT
 10
35.960338
 20
13.399048
 11
35.960338
 21
43.399048
  0
LINE
  8
型材断面
  6
DASHDOT
 10
34.710338
 20
13.399048
 11
34.710338
 21
43.399048
  0
LINE
  8
型材断面
  6
DASHDOT
 10
-2.036327
 20
13.399048
 11
-2.036327
 21
43.399048
  0
LINE
  8
型材断面
  6
DOT
 10
-3.286327
 20
13.399048
 11
-3.286327
 21
43.399048
  0
LINE
  8
型材断面
  6
DOT
 10
-0.786327
 20
13.399048
 11
-0.786327
 21
43.399048
  0
POLYLINE
  8
型材断面
  6
CONTINUOUS
 66
     1
 70
     1
  0
VERTEX
  8
型材断面
 10
-10.957247
 20
3.623125
  0
VERTEX
  8
型材断面
 10
-29.729177
 20
3.623125
  0
VERTEX
  8
型材断面
 10
-29.729177
 20
-1.113717
  0
VERTEX
  8
型材断面
 10
-10.957247
 20
-1.113717
  0
SEQEND
  0
POLYLINE
  8
型材断面
  6
CONTINUOUS
 66
     1
 70
     1
  0
VERTEX
  8
型材断面
 10
-10.957247
 20
53.17497
  0
VERTEX
  8
型材断面
 10
-29.729177
 20
53.17497
  0
VERTEX
  8
型材断面
 10
-29.729177
 20
57.911813
  0
VERTEX
  8
型材断面
 10
-10.957247
 20
57.911813
  0
SEQEND
  0
LINE
  8
型材断面
  6
CONTINUOUS
 10
-95.409657
 20
46.029177
 11
-96.905288
 21
48.619685
  0
LINE
  8
型材断面
  6
CONTINUOUS
 10
-95.409657
 20
46.029177
 11
-93.914027
 21
48.619685
  0
LINE
  8
型材断面
  6
CONTINUOUS
 10
-93.914027
 20
48.619685
 11
-96.905288
 21
48.619685
  0
LINE
  8
型材断面
  6
CONTINUOUS
 10
-152.928532
 20
81.37652
 11
-152.332478
 21
78.786012
  0
LINE
  8
型材断面
  6
CONTINUOUS
 10
-152.928532
 20
81.37652
 11
-153.52459
 21
78.786012
  0
LINE
  8
型材断面
  6
CONTINUOUS
 10
-153.52459
 20
78.786012
 11
-152.332478
 21
78.786012
  0
LINE
  8
型材断面
  6
CONTINUOUS
 10
-158.95112
 20
75.50712
 11
-112.709343
 21
75.50712
  0
LINE
  8
型材断面
  6
CONTINUOUS
 10
-152.928532
 20
87.906395
 11
-154.424162
 21
85.315887
  0
LINE
  8
型材断面
  6
CONTINUOUS
 10
-152.928532
 20
87.906395
 11
-151.432903
 21
85.315887
  0
LINE
  8
型材断面
  6
CONTINUOUS
 10
-151.432903
 20
85.315887
 11
-154.424162
 21
85.315887
  0
LINE
  8
型材断面
  6
CONTINUOUS
 10
-158.95112
 20
84.377292
 11
-112.709343
 21
84.377292
  0
LINE
  8
型材断面
  6
CONTINUOUS
 10
-158.95112
 20
69.719088
 11
-112.709343
 21
69.719088
  0
LINE
  8
型材断面
  6
CONTINUOUS
 10
-114.706455
 20
28.399048
 11
-117.296962
 21
29.894678
  0
LINE
  8
型材断面
  6
CONTINUOUS
 10
-114.706455
 20
28.399048
 11
-117.296962
 21
26.903418
  0
LINE
  8
型材断面
  6
CONTINUOUS
 10
-117.296962
 20
26.903418
 11
-117.296962
 21
29.894678
  0
LINE
  8
型材断面
  6
CONTINUOUS
 10
-95.409657
 20
10.768917
 11
-96.905288
 21
8.17841
  0
LINE
  8
型材断面
  6
CONTINUOUS
 10
-95.409657
 20
10.768917
 11
-93.914027
 21
8.17841
  0
LINE
  8
型材断面
  6
CONTINUOUS
 10
-93.914027
 20
8.17841
 11
-96.905288
 21
8.17841
  0
LINE
  8
型材断面
  6
CONTINUOUS
 10
54.590337
 20
46.029177
 11
56.085967
 21
48.619685
  0
LINE
  8
型材断面
  6
CONTINUOUS
 10
54.590337
 20
46.029177
 11
53.094708
 21
48.619685
  0
LINE
  8
型材断面
  6
CONTINUOUS
 10
53.094708
 20
48.619685
 11
56.085967
 21
48.619685
  0
LINE
  8
型材断面
  6
CONTINUOUS
 10
73.887135
 20
28.399048
 11
76.477643
 21
29.894678
  0
LINE
  8
型材断面
  6
CONTINUOUS
 10
73.887135
 20
28.399048
 11
76.477643
 21
26.903418
  0
LINE
  8
型材断面
  6
CONTINUOUS
 10
76.477643
 20
26.903418
 11
76.477643
 21
29.894678
  0
LINE
  8
型材断面
  6
CONTINUOUS
 10
54.590337
 20
10.768917
 11
56.085967
 21
8.17841
  0
LINE
  8
型材断面
  6
CONTINUOUS
 10
54.590337
 20
10.768917
 11
53.094708
 21
8.17841
  0
LINE
  8
型材断面
  6
CONTINUOUS
 10
53.094708
 20
8.17841
 11
56.085967
 21
8.17841
  0
LINE
  8
型材断面
  6
CONTINUOUS
 10
-20.40966
 20
46.029175
 11
-21.90529
 21
48.619683
  0
LINE
  8
型材断面
  6
CONTINUOUS
 10
-20.40966
 20
46.029175
 11
-18.91403
 21
48.619683
  0
LINE
  8
型材断面
  6
CONTINUOUS
 10
-18.91403
 20
48.619683
 11
-21.90529
 21
48.619683
  0
LINE
  8
型材断面
  6
CONTINUOUS
 10
-20.40966
 20
10.768915
 11
-21.90529
 21
8.178407
  0
LINE
  8
型材断面
  6
CONTINUOUS
 10
-20.40966
 20
10.768915
 11
-18.91403
 21
8.178407
  0
LINE
  8
型材断面
  6
CONTINUOUS
 10
-18.91403
 20
8.178407
 11
-21.90529
 21
8.178407
  0
LINE
  8
型材断面
  6
CONTINUOUS
 10
73.887138
 20
39.69905
 11
76.477648
 21
39.102997
  0
LINE
  8
型材断面
  6
CONTINUOUS
 10
73.887138
 20
39.69905
 11
76.477645
 21
40.29511
  0
LINE
  8
型材断面
  6
CONTINUOUS
 10
76.477645
 20
40.29511
 11
76.477648
 21
39.102997
  0
LINE
  8
型材断面
  6
CONTINUOUS
 10
73.887138
 20
17.099045
 11
76.477648
 21
17.695097
  0
LINE
  8
型材断面
  6
CONTINUOUS
 10
73.887138
 20
17.099045
 11
76.477645
 21
16.502985
  0
LINE
  8
型材断面
  6
CONTINUOUS
 10
76.477645
 20
16.502985
 11
76.477648
 21
17.695097
  0
LINE
  8
型材断面
  6
CONTINUOUS
 10
-114.706458
 20
39.69905
 11
-117.296968
 21
39.102997
  0
LINE
  8
型材断面
  6
CONTINUOUS
 10
-114.706458
 20
39.69905
 11
-117.296965
 21
40.29511
  0
LINE
  8
型材断面
  6
CONTINUOUS
 10
-117.296965
 20
40.29511
 11
-117.296968
 21
39.102997
  0
LINE
  8
型材断面
  6
CONTINUOUS
 10
-114.706458
 20
17.099045
 11
-117.296968
 21
17.695097
  0
LINE
  8
型材断面
  6
CONTINUOUS
 10
-114.706458
 20
17.099045
 11
-117.296965
 21
16.502985
  0
LINE
  8
型材断面
  6
CONTINUOUS
 10
-117.296965
 20
16.502985
 11
-117.296968
 21
17.695097
  0
INSERT
  2
*GRP_0013
  8
型材断面
  6
CONTINUOUS
 10
0.0
 20
0.0
  0
INSERT
  2
*GRP_0014
  8
型材断面
  6
CONTINUOUS
 10
0.0
 20
0.0
  0
INSERT
  2
*GRP_0015
  8
型材断面
  6
CONTINUOUS
 10
0.0
 20
0.0
  0
INSERT
  2
*GRP_0016
  8
型材断面
  6
CONTINUOUS
 10
0.0
 20
0.0
  0
LINE
  8
型材断面
  6
CONTINUOUS
 62
    47
 10
168.323775
 20
11.915715
 11
167.823775
 21
11.915715
  0
LINE
  8
型材断面
  6
CONTINUOUS
 62
    47
 10
167.823775
 20
11.415715
 11
164.507107
 21
11.415715
  0
LINE
  8
型材断面
  6
CONTINUOUS
 62
    47
 10
162.167058
 20
11.415715
 11
164.34039
 21
11.415715
  0
LINE
  8
型材断面
  6
CONTINUOUS
 62
    47
 10
162.167058
 20
12.299048
 11
161.790272
 21
12.299048
  0
LINE
  8
型材断面
  6
CONTINUOUS
 62
    47
 10
162.167058
 20
11.415715
 11
162.167058
 21
28.399048
  0
LINE
  8
型材断面
  6
CONTINUOUS
 62
    47
 10
164.507107
 20
11.415715
 11
164.507075
 21
28.399048
  0
LINE
  8
型材断面
  6
CONTINUOUS
 62
    47
 10
167.823775
 20
11.415715
 11
167.823775
 21
28.399048
  0
LINE
  8
型材断面
  6
CONTINUOUS
 62
    47
 10
168.323775
 20
11.915715
 11
168.323775
 21
28.399048
  0
LINE
  8
型材断面
  6
CONTINUOUS
 62
    47
 10
164.34039
 20
11.415715
 11
164.34039
 21
28.399048
  0
LINE
  8
型材断面
  6
CONTINUOUS
 62
    47
 10
168.323775
 20
44.882382
 11
167.823775
 21
44.882382
  0
LINE
  8
型材断面
  6
CONTINUOUS
 62
    47
 10
167.823775
 20
45.382382
 11
164.507107
 21
45.382382
  0
LINE
  8
型材断面
  6
CONTINUOUS
 62
    47
 10
162.167058
 20
45.382382
 11
164.34039
 21
45.382382
  0
LINE
  8
型材断面
  6
CONTINUOUS
 62
    47
 10
162.167058
 20
44.499048
 11
161.790272
 21
44.499048
  0
LINE
  8
型材断面
  6
CONTINUOUS
 62
    47
 10
162.167058
 20
45.382382
 11
162.167058
 21
28.399048
  0
LINE
  8
型材断面
  6
CONTINUOUS
 62
    47
 10
164.507107
 20
45.382382
 11
164.507075
 21
28.399048
  0
LINE
  8
型材断面
  6
CONTINUOUS
 62
    47
 10
167.823775
 20
45.382382
 11
167.823775
 21
28.399048
  0
LINE
  8
型材断面
  6
CONTINUOUS
 62
    47
 10
168.323775
 20
44.882382
 11
168.323775
 21
28.399048
  0
LINE
  8
型材断面
  6
CONTINUOUS
 62
    47
 10
164.34039
 20
45.382382
 11
164.34039
 21
28.399048
  0
LINE
  8
型材断面
  6
CONTINUOUS
 62
    47
 10
-113.55966
 20
-87.1581
 11
-113.55966
 21
-86.6581
  0
LINE
  8
型材断面
  6
CONTINUOUS
 62
    47
 10
-114.05966
 20
-86.6581
 11
-114.05966
 21
-83.341432
  0
LINE
  8
型材断面
  6
CONTINUOUS
 62
    47
 10
-114.05966
 20
-81.001383
 11
-114.05966
 21
-83.174715
  0
LINE
  8
型材断面
  6
CONTINUOUS
 62
    47
 10
-113.176328
 20
-81.001383
 11
-113.176328
 21
-80.624597
  0
LINE
  8
型材断面
  6
CONTINUOUS
 62
    47
 10
-113.55966
 20
-87.1581
 11
-20.40966
 21
-87.1581
  0
LINE
  8
型材断面
  6
CONTINUOUS
 62
    47
 10
-114.05966
 20
-86.6581
 11
-20.40966
 21
-86.6581
  0
LINE
  8
型材断面
  6
CONTINUOUS
 62
    47
 10
-114.05966
 20
-83.341432
 11
-20.40966
 21
-83.341258
  0
LINE
  8
型材断面
  6
CONTINUOUS
 62
    47
 10
-114.05966
 20
-83.174715
 11
-20.40966
 21
-83.174715
  0
LINE
  8
型材断面
  6
CONTINUOUS
 62
    47
 10
-114.05966
 20
-81.001383
 11
-20.40966
 21
-81.001383
  0
LINE
  8
型材断面
  6
CONTINUOUS
 62
    47
 10
72.74034
 20
-87.1581
 11
72.74034
 21
-86.6581
  0
LINE
  8
型材断面
  6
CONTINUOUS
 62
    47
 10
73.24034
 20
-86.6581
 11
73.24034
 21
-83.341432
  0
LINE
  8
型材断面
  6
CONTINUOUS
 62
    47
 10
73.24034
 20
-81.001383
 11
73.24034
 21
-83.174715
  0
LINE
  8
型材断面
  6
CONTINUOUS
 62
    47
 10
72.357007
 20
-81.001383
 11
72.357007
 21
-80.624597
  0
LINE
  8
型材断面
  6
CONTINUOUS
 62
    47
 10
72.74034
 20
-87.1581
 11
-20.40966
 21
-87.1581
  0
LINE
  8
型材断面
  6
CONTINUOUS
 62
    47
 10
73.24034
 20
-86.6581
 11
-20.40966
 21
-86.6581
  0
LINE
  8
型材断面
  6
CONTINUOUS
 62
    47
 10
73.24034
 20
-83.341432
 11
-20.40966
 21
-83.341258
  0
LINE
  8
型材断面
  6
CONTINUOUS
 62
    47
 10
73.24034
 20
-83.174715
 11
-20.40966
 21
-83.174715
  0
LINE
  8
型材断面
  6
CONTINUOUS
 62
    47
 10
73.24034
 20
-81.001383
 11
-20.40966
 21
-81.001383
  0
LINE
  8
型材断面
  6
CONTINUOUS
 10
-158.95112
 20
63.931055
 11
-112.709343
 21
63.931055
  0
TEXT
  7
TextStyle03
  8
文字
  6
CONTINUOUS
 10
147.775
 20
-86.1
  1
網入り6.8t
 40
3.0
 72
     5
 11
164.4625
 21
-86.1
  0
TEXT
  7
TextStyle03
  8
文字
  6
CONTINUOUS
 10
-28.65
 20
-0.075
  1
可動装置側
 40
3.0
 72
     5
 11
-12.15
 21
-0.075
  0
TEXT
  7
TextStyle03
  8
文字
  6
CONTINUOUS
 10
-28.65
 20
53.875
  1
可動装置側
 40
3.0
 72
     5
 11
-12.15
 21
53.875
  0
TEXT
  7
TextStyle03
  8
文字
  6
CONTINUOUS
 10
154.45
 20
-90.775
  1
×５枚
 40
3.0
 72
     5
 11
164.2
 21
-90.775
  0
TEXT
  7
TextStyle03
  8
文字
  6
CONTINUOUS
 10
-150.125
 20
80.0
  1
はケーシング位置を示す
 40
3.0
 72
     5
 11
-113.375
 21
80.0
  0
TEXT
  7
TextStyle03
  8
文字
  6
CONTINUOUS
 10
-150.125
 20
76.625
  1
４ヶ所中1ヶ所に設定
 40
3.0
 72
     5
 11
-118.4375
 21
76.625
  0
TEXT
  7
TextStyle03
  8
文字
  6
CONTINUOUS
 10
-150.125
 20
85.525
  1
は排水穴位置を示す
 40
3.0
 72
     5
 11
-120.125
 21
85.525
  0
TEXT
  7
TextStyle03
  8
文字
  6
CONTINUOUS
 10
-133.05
 20
6.875
  1
アンカーピッチ
 40
3.0
 50
90.0
 72
     5
 11
-133.05
 21
30.125
  0
TEXT
  7
TextStyle03
  8
文字
  6
CONTINUOUS
 10
-98.025
 20
79.8
  1
アンカーピッチ
 40
3.0
 72
     5
 11
-74.775
 21
79.8
  0
TEXT
  7
TextStyle03
  8
文字
  6
CONTINUOUS
 10
-153.85
 20
70.65
  1
アンカー数量　１８ヶ所
 40
3.0
 72
     5
 11
-117.1
 21
70.65
  0
TEXT
  7
TextStyle03
  8
文字
  6
CONTINUOUS
 10
-153.9
 20
64.875
  1
アームユニット数　４～６ヶ所
 40
3.0
 72
     5
 11
-107.025
 21
64.875
  0
TEXT
  7
TextStyle03
  8
文字
  6
CONTINUOUS
 10
-158.825
 20
59.925
  1
※重量に依るのでご相談ください
 40
3.0
 72
     5
 11
-108.575
 21
59.925
  0
TEXT
  7
TextStyle03
  8
文字
  6
CONTINUOUS
 10
78.1
 20
125.25
  1
シリーズ：ＴＤ２Ｌ
 40
5.0
 72
     5
 11
128.1
 21
125.25
  0
TEXT
  7
TextStyle03
  8
文字
  6
CONTINUOUS
 10
78.1
 20
119.625
  1
　　　　　（上下可動）900×5500タイプ
 40
5.0
 72
     5
 11
181.5375
 21
119.625
  0
TEXT
  7
TextStyle03
  8
文字
  6
CONTINUOUS
 10
78.1
 20
114.0
  1
図面名　：外観姿図
 40
5.0
 72
     5
 11
128.1
 21
114.0
  0
TEXT
  7
TextStyle03
  8
文字
  6
CONTINUOUS
 10
78.1
 20
108.375
  1
　　　　　　
 40
5.0
 72
     5
 11
111.225
 21
108.375
  0
TEXT
  7
TextStyle03
  8
文字
  6
CONTINUOUS
 10
77.125
 20
103.95
  1
ＮＳコード：ＮＳＤＺＬ
 40
5.0
 72
     5
 11
138.375
 21
103.95
  0
INSERT
  2
*DIM_0002
  8
寸法
  6
CONTINUOUS
 10
0.0
 20
0.0
  0
INSERT
  2
*DIM_0003
  8
寸法
  6
CONTINUOUS
 10
0.0
 20
0.0
  0
INSERT
  2
*DIM_0004
  8
寸法
  6
CONTINUOUS
 10
0.0
 20
0.0
  0
INSERT
  2
*DIM_0005
  8
寸法
  6
CONTINUOUS
 10
0.0
 20
0.0
  0
INSERT
  2
*DIM_0006
  8
寸法
  6
CONTINUOUS
 10
0.0
 20
0.0
  0
INSERT
  2
*DIM_0007
  8
寸法
  6
CONTINUOUS
 10
0.0
 20
0.0
  0
INSERT
  2
*DIM_0008
  8
寸法
  6
CONTINUOUS
 10
0.0
 20
0.0
  0
INSERT
  2
*DIM_0009
  8
寸法
  6
CONTINUOUS
 10
0.0
 20
0.0
  0
INSERT
  2
*DIM_0010
  8
寸法
  6
CONTINUOUS
 10
0.0
 20
0.0
  0
INSERT
  2
*DIM_0011
  8
寸法
  6
CONTINUOUS
 10
0.0
 20
0.0
  0
INSERT
  2
*DIM_0017
  8
寸法
  6
CONTINUOUS
 10
0.0
 20
0.0
  0
INSERT
  2
*DIM_0018
  8
寸法
  6
CONTINUOUS
 10
0.0
 20
0.0
  0
INSERT
  2
*DIM_0019
  8
寸法
  6
CONTINUOUS
 10
0.0
 20
0.0
  0
INSERT
  2
*DIM_0020
  8
寸法
  6
CONTINUOUS
 10
0.0
 20
0.0
  0
INSERT
  2
*DIM_0021
  8
寸法
  6
CONTINUOUS
 10
0.0
 20
0.0
  0
INSERT
  2
*DIM_0022
  8
寸法
  6
CONTINUOUS
 10
0.0
 20
0.0
  0
INSERT
  2
*DIM_0023
  8
寸法
  6
CONTINUOUS
 10
0.0
 20
0.0
  0
INSERT
  2
*DIM_0024
  8
寸法
  6
CONTINUOUS
 10
0.0
 20
0.0
  0
INSERT
  2
*DIM_0025
  8
寸法
  6
CONTINUOUS
 10
0.0
 20
0.0
  0
INSERT
  2
*DIM_0026
  8
寸法
  6
CONTINUOUS
 10
0.0
 20
0.0
  0
INSERT
  2
*DIM_0027
  8
寸法
  6
CONTINUOUS
 10
0.0
 20
0.0
  0
INSERT
  2
*DIM_0028
  8
寸法
  6
CONTINUOUS
 10
0.0
 20
0.0
  0
INSERT
  2
*DIM_0029
  8
寸法
  6
CONTINUOUS
 10
0.0
 20
0.0
  0
INSERT
  2
*DIM_0037
  8
寸法
  6
CONTINUOUS
 10
0.0
 20
0.0
  0
LINE
  8
別途部材
  6
CONTINUOUS
 10
73.323675
 20
11.33238
 11
72.923675
 21
11.73238
  0
LINE
  8
別途部材
  6
CONTINUOUS
 10
71.257007
 20
13.399048
 11
63.197753
 21
21.458305
  0
LINE
  8
別途部材
  6
CONTINUOUS
 62
    96
 10
160.790272
 20
11.73238
 11
161.790272
 21
11.33238
  0
LINE
  8
別途部材
  6
CONTINUOUS
 10
72.923675
 20
11.73238
 11
72.923675
 21
28.399048
  0
LINE
  8
別途部材
  6
CONTINUOUS
 10
73.323675
 20
11.33238
 11
73.323675
 21
28.399048
  0
LINE
  8
別途部材
  6
CONTINUOUS
 10
73.323675
 20
45.465715
 11
72.923675
 21
45.065715
  0
LINE
  8
別途部材
  6
CONTINUOUS
 10
71.257007
 20
43.399048
 11
63.197753
 21
35.33979
  0
LINE
  8
別途部材
  6
CONTINUOUS
 10
72.923675
 20
45.065715
 11
72.923675
 21
28.399048
  0
LINE
  8
別途部材
  6
CONTINUOUS
 10
73.323675
 20
45.465715
 11
73.323675
 21
28.399048
  0
LINE
  8
別途部材
  6
CONTINUOUS
 62
    96
 10
160.790272
 20
11.73238
 11
160.790272
 21
28.399048
  0
LINE
  8
別途部材
  6
CONTINUOUS
 10
161.790272
 20
11.33238
 11
161.790272
 21
28.399048
  0
LINE
  8
別途部材
  6
CONTINUOUS
 62
    96
 10
160.790272
 20
45.065715
 11
161.790272
 21
45.465715
  0
LINE
  8
別途部材
  6
CONTINUOUS
 62
    96
 10
160.790272
 20
45.065715
 11
160.790272
 21
28.399048
  0
LINE
  8
別途部材
  6
CONTINUOUS
 10
161.790272
 20
45.465715
 11
161.790272
 21
28.399048
  0
ARC
  8
別途部材
  6
CONTINUOUS
 10
170.123608
 20
28.399048
 40
17.666667
 50
121.890796
 51
238.109204
  0
LINE
  8
別途部材
  6
CONTINUOUS
 10
72.923675
 20
45.065715
 11
-20.40966
 21
45.065715
  0
LINE
  8
別途部材
  6
CONTINUOUS
 10
73.323675
 20
45.465715
 11
-20.40966
 21
45.465715
  0
LINE
  8
別途部材
  6
CONTINUOUS
 10
72.923675
 20
11.73238
 11
-20.40966
 21
11.73238
  0
LINE
  8
別途部材
  6
CONTINUOUS
 10
73.323675
 20
11.33238
 11
-20.40966
 21
11.33238
  0
LINE
  8
別途部材
  6
CONTINUOUS
 10
-114.142995
 20
11.33238
 11
-113.742995
 21
11.73238
  0
LINE
  8
別途部材
  6
CONTINUOUS
 10
-112.076328
 20
13.399048
 11
-104.017073
 21
21.458305
  0
LINE
  8
別途部材
  6
CONTINUOUS
 10
-113.742995
 20
11.73238
 11
-113.742995
 21
28.399048
  0
LINE
  8
別途部材
  6
CONTINUOUS
 10
-114.142995
 20
11.33238
 11
-114.142995
 21
28.399048
  0
LINE
  8
別途部材
  6
CONTINUOUS
 10
-114.142995
 20
45.465715
 11
-113.742995
 21
45.065715
  0
LINE
  8
別途部材
  6
CONTINUOUS
 10
-112.076328
 20
43.399048
 11
-104.017073
 21
35.33979
  0
LINE
  8
別途部材
  6
CONTINUOUS
 10
-113.742995
 20
45.065715
 11
-113.742995
 21
28.399048
  0
LINE
  8
別途部材
  6
CONTINUOUS
 10
-114.142995
 20
45.465715
 11
-114.142995
 21
28.399048
  0
LINE
  8
別途部材
  6
CONTINUOUS
 10
-113.742995
 20
45.065715
 11
-20.40966
 21
45.065715
  0
LINE
  8
別途部材
  6
CONTINUOUS
 10
-114.142995
 20
45.465715
 11
-20.40966
 21
45.465715
  0
LINE
  8
別途部材
  6
CONTINUOUS
 10
-113.742995
 20
11.73238
 11
-20.40966
 21
11.73238
  0
LINE
  8
別途部材
  6
CONTINUOUS
 10
-114.142995
 20
11.33238
 11
-20.40966
 21
11.33238
  0
LINE
  8
別途部材
  6
DOT
 62
    96
 10
72.923675
 20
-67.95793
 11
73.323675
 21
-68.95793
  0
ARC
  8
別途部材
  6
DOT
 10
56.257007
 20
-77.291265
 40
17.666667
 50
31.890796
 51
90.0
  0
LINE
  8
別途部材
  6
DOT
 10
56.257007
 20
-59.624597
 11
-20.40966
 21
-59.624597
  0
LINE
  8
別途部材
  6
DOT
 10
73.323675
 20
-68.95793
 11
-20.40966
 21
-68.95793
  0
LINE
  8
別途部材
  6
DOT
 62
    96
 10
72.923675
 20
-67.95793
 11
-20.40966
 21
-67.95793
  0
LINE
  8
別途部材
  6
DOT
 62
    96
 10
-113.742995
 20
-67.95793
 11
-114.142995
 21
-68.95793
  0
ARC
  8
別途部材
  6
DOT
 10
-97.076327
 20
-77.291265
 40
17.666667
 50
90.0
 51
148.109204
  0
LINE
  8
別途部材
  6
DOT
 10
-97.076328
 20
-59.624597
 11
-20.40966
 21
-59.624597
  0
LINE
  8
別途部材
  6
DOT
 10
-114.142995
 20
-68.95793
 11
-20.40966
 21
-68.95793
  0
LINE
  8
別途部材
  6
DOT
 62
    96
 10
-113.742995
 20
-67.95793
 11
-20.40966
 21
-67.95793
  0
INSERT
  2
*GRP_0012
  8
別途部材
  6
CONTINUOUS
 10
0.0
 20
0.0
  0
INSERT
  2
*GRP_0031
  8
別途部材
  6
DOT
 10
0.0
 20
0.0
  0
INSERT
  2
*GRP_0032
  8
別途部材
  6
DOT
 10
0.0
 20
0.0
  0
INSERT
  2
*GRP_0033
  8
別途部材
  6
DOT
 10
0.0
 20
0.0
  0
INSERT
  2
*GRP_0034
  8
別途部材
  6
DOT
 10
0.0
 20
0.0
  0
INSERT
  2
*GRP_0035
  8
別途部材
  6
DOT
 10
0.0
 20
0.0
  0
INSERT
  2
*GRP_0036
  8
別途部材
  6
DOT
 10
0.0
 20
0.0
  0
LINE
  8
曲げ物
  6
CONTINUOUS
 10
166.343563
 20
-92.533713
 11
166.343563
 21
-63.20038
  0
LINE
  8
曲げ物
  6
CONTINUOUS
 10
130.663563
 20
-92.533713
 11
130.663563
 21
-63.20038
  0
LINE
  8
曲げ物
  6
CONTINUOUS
 10
166.343563
 20
-63.20038
 11
130.663563
 21
-63.20038
  0
LINE
  8
曲げ物
  6
CONTINUOUS
 10
166.343563
 20
-92.533713
 11
130.663563
 21
-92.533713
  0
ENDSEC
  0
EOF
