  0
SECTION
  2
HEADER
  9
$EXTMIN
 10
-210.0
 20
-148.5
  9
$EXTMAX
 10
210.0
 20
148.5
  9
$PDMODE
 70
    32
  9
$PDSIZE
 40
1.5
  9
$LTSCALE
 40
10.0
  0
ENDSEC
  0
SECTION
  2
TABLES
  0
TABLE
  2
LTYPE
 70
    15
  0
LTYPE
  2
CONTINUOUS
 70
    64
  3
実線
 72
    65
 73
     0
 40
0.0
  0
LTYPE
  2
DASHED
 70
    64
  3
破線A
 72
    65
 73
     2
 40
0.6
 49
0.4
 49
-0.2
  0
LTYPE
  2
DASHEDX2
 70
    64
  3
破線B
 72
    65
 73
     2
 40
1.3
 49
0.9
 49
-0.4
  0
LTYPE
  2
DASHDOT
 70
    64
  3
１点鎖線A
 72
    65
 73
     4
 40
0.5375
 49
0.375
 49
-0.05
 49
0.0625
 49
-0.05
  0
LTYPE
  2
DASHDOTX2
 70
    64
  3
１点鎖線B
 72
    65
 73
     4
 40
1.075
 49
0.75
 49
-0.1
 49
0.125
 49
-0.1
  0
LTYPE
  2
DIVIDE2
 70
    64
  3
２点鎖線A
 72
    65
 73
     6
 40
0.5125
 49
0.3
 49
-0.0375
 49
0.05
 49
-0.0375
 49
0.05
 49
-0.0375
  0
LTYPE
  2
DIVIDE
 70
    64
  3
２点鎖線B
 72
    65
 73
     6
 40
1.05
 49
0.55
 49
-0.1
 49
0.1
 49
-0.1
 49
0.1
 49
-0.1
  0
LTYPE
  2
DOT
 70
    64
  3
点線A
 72
    65
 73
     2
 40
0.1125
 49
0.0625
 49
-0.05
  0
LTYPE
  2
DOTX2
 70
    64
  3
点線B
 72
    65
 73
     2
 40
0.275
 49
0.15
 49
-0.125
  0
LTYPE
  2
CONTINUOUS
 70
    64
  3
実線
 72
    65
 73
     0
 40
0.0
  0
LTYPE
  2
CONTINUOUS
 70
    64
  3
実線
 72
    65
 73
     0
 40
0.0
  0
LTYPE
  2
CONTINUOUS
 70
    64
  3
実線
 72
    65
 73
     0
 40
0.0
  0
LTYPE
  2
CONTINUOUS
 70
    64
  3
実線
 72
    65
 73
     0
 40
0.0
  0
LTYPE
  2
CONTINUOUS
 70
    64
  3
実線
 72
    65
 73
     0
 40
0.0
  0
LTYPE
  2
CONTINUOUS
 70
    64
  3
実線
 72
    65
 73
     0
 40
0.0
  0
ENDTAB
  0
TABLE
  2
LAYER
 70
    34
  0
LAYER
  2
通り芯
 70
     0
 62
    15
  6
CONTINUOUS
  0
LAYER
  2
補助線
 70
     0
 62
    16
  6
DOT
  0
LAYER
  2
躯体
 70
     0
 62
    31
  6
CONTINUOUS
  0
LAYER
  2
型材
 70
     0
 62
    32
  6
CONTINUOUS
  0
LAYER
  2
型材断面
 70
     0
 62
    47
  6
CONTINUOUS
  0
LAYER
  2
ガラス
 70
     0
 62
    48
  6
CONTINUOUS
  0
LAYER
  2
ゴム等
 70
     0
 62
    63
  6
CONTINUOUS
  0
LAYER
  2
ボルト／ビス
 70
     0
 62
    64
  6
CONTINUOUS
  0
LAYER
  2
文字
 70
     0
 62
    79
  6
CONTINUOUS
  0
LAYER
  2
寸法
 70
     0
 62
    80
  6
CONTINUOUS
  0
LAYER
  2
ﾊｯﾁﾝｸﾞ
 70
     0
 62
    95
  6
CONTINUOUS
  0
LAYER
  2
別途部材
 70
     0
 62
    96
  6
CONTINUOUS
  0
LAYER
  2
曲げ物
 70
     0
 62
   111
  6
CONTINUOUS
  0
LAYER
  2
鉄骨等
 70
     0
 62
   112
  6
CONTINUOUS
  0
LAYER
  2
St
 70
     0
 62
   127
  6
CONTINUOUS
  0
LAYER
  2
その他部品等
 70
     0
 62
   128
  6
CONTINUOUS
  0
LAYER
  2
ｶﾞｽｹｯﾄ
 70
     0
 62
   143
  6
CONTINUOUS
  0
LAYER
  2
ｽｹｯﾁ
 70
     0
 62
    14
  6
CONTINUOUS
  0
LAYER
  2
0
 70
     0
 62
    17
  6
CONTINUOUS
  0
LAYER
  2
1
 70
     0
 62
    30
  6
CONTINUOUS
  0
LAYER
  2
4
 70
     0
 62
    33
  6
CONTINUOUS
  0
LAYER
  2
ﾚｲﾔ3
 70
     0
 62
    46
  6
CONTINUOUS
  0
LAYER
  2
外形線
 70
     0
 62
    49
  6
CONTINUOUS
  0
LAYER
  2
部品
 70
     0
 62
    14
  6
CONTINUOUS
  0
LAYER
  2
サッシ芯
 70
     0
 62
    17
  6
DASHDOTX2
  0
LAYER
  2
寸法線
 70
     0
 62
    62
  6
CONTINUOUS
  0
LAYER
  2
姿図外形線
 70
     0
 62
    65
  6
CONTINUOUS
  0
LAYER
  2
姿補助線
 70
     0
 62
    30
  6
CONTINUOUS
  0
LAYER
  2
透視線
 70
     0
 62
    78
  6
DOT
  0
LAYER
  2
用紙
 70
     0
 62
    81
  6
CONTINUOUS
  0
LAYER
  2
実線図枠
 70
     0
 62
    94
  6
CONTINUOUS
  0
LAYER
  2
補助図枠
 70
     0
 62
    97
  6
CONTINUOUS
  0
LAYER
  2
建具記号
 70
     0
 62
   110
  6
CONTINUOUS
  0
LAYER
  2
補助文字
 70
     0
 62
   113
  6
CONTINUOUS
  0
ENDTAB
  0
TABLE
  2
STYLE
 70
    10
  0
STYLE
  2
STANDARD
 70
     0
 40
1.0
 41
1.0
 42
1.0
 50
0.0
 71
     0
  3
TXT
  4
BIGFONT
  0
STYLE
  2
TATE
 70
     4
 40
1.0
 41
1.0
 42
1.0
 50
0.0
 71
     0
  3
TXT
  4
BIGFONT
  0
STYLE
  2
TextStyle03
 70
     0
 40
1.0
 41
1.0
 42
1.0
 50
0.0
 71
     0
  3
MONOTXT
  4
BIGFONT
  0
STYLE
  2
TextStyle04
 70
     0
 40
1.0
 41
1.0
 42
1.0
 50
0.0
 71
     0
  3
MONOTXT
  4
BIGFONT
  0
STYLE
  2
TextStyle05
 70
     0
 40
1.0
 41
1.0
 42
1.0
 50
0.0
 71
     0
  3
MONOTXT
  4
BIGFONT
  0
STYLE
  2
TextStyle06
 70
     0
 40
1.0
 41
1.0
 42
1.0
 50
0.0
 71
     0
  3
MONOTXT
  4
BIGFONT
  0
STYLE
  2
TextStyle07
 70
     0
 40
1.0
 41
1.0
 42
1.0
 50
0.0
 71
     0
  3
MONOTXT
  4
BIGFONT
  0
STYLE
  2
TextStyle08
 70
     0
 40
1.0
 41
1.0
 42
1.0
 50
0.0
 71
     0
  3
MONOTXT
  4
BIGFONT
  0
STYLE
  2
TextStyle09
 70
     0
 40
1.0
 41
1.0
 42
1.0
 50
0.0
 71
     0
  3
MONOTXT
  4
BIGFONT
  0
STYLE
  2
TextStyle10
 70
     0
 40
1.0
 41
1.0
 42
1.0
 50
0.0
 71
     0
  3
MONOTXT
  4
BIGFONT
  0
ENDTAB
  0
ENDSEC
  0
SECTION
  2
BLOCKS
  0
BLOCK
  2
*GRP_0001
 70
    65
 10
0.0
 20
0.0
  0
LINE
  8
型材断面
  6
CONTINUOUS
 10
195.0
 20
133.5
 11
195.0
 21
-133.5
  0
LINE
  8
型材断面
  6
CONTINUOUS
 10
195.0
 20
-133.5
 11
-185.0
 21
-133.5
  0
LINE
  8
型材断面
  6
CONTINUOUS
 10
-185.0
 20
-133.5
 11
-185.0
 21
133.5
  0
LINE
  8
型材断面
  6
CONTINUOUS
 10
195.0
 20
133.5
 11
-185.0
 21
133.5
  0
LINE
  8
型材断面
  6
CONTINUOUS
 10
145.0
 20
-133.5
 11
145.0
 21
-118.5
  0
LINE
  8
型材断面
  6
CONTINUOUS
 10
195.0
 20
-118.5
 11
145.0
 21
-118.5
  0
ENDBLK
  0
BLOCK
  2
*DIM_0002
 70
    65
 10
0.0
 20
0.0
  0
LINE
  8
寸法
  6
BYBLOCK
 62
     0
 10
26.016375
 20
-61.87628
 11
55.986025
 21
-61.87628
  0
LINE
  8
寸法
  6
BYBLOCK
 62
     0
 10
55.986025
 20
-70.209613
 11
55.986025
 21
-61.87628
  0
POINT
  8
寸法
 62
     0
 10
55.986025
 20
-70.209613
  0
POINT
  8
寸法
 62
     0
 10
55.986025
 20
-61.87628
  0
TEXT
  7
TextStyle03
  8
寸法
  6
CONTINUOUS
 62
     0
 10
55.65
 20
-68.5125
  1
250
 40
3.0
 50
90.0
 72
     5
 11
55.65
 21
-63.6375
  0
ENDBLK
  0
BLOCK
  2
*DIM_0003
 70
    65
 10
0.0
 20
0.0
  0
LINE
  8
寸法
  6
BYBLOCK
 62
     0
 10
121.216308
 20
38.814033
 11
121.216308
 21
68.369967
  0
LINE
  8
寸法
  6
BYBLOCK
 62
     0
 10
129.54964
 20
68.369967
 11
121.216308
 21
68.369967
  0
POINT
  8
寸法
 62
     0
 10
129.54964
 20
68.369967
  0
POINT
  8
寸法
 62
     0
 10
121.216308
 20
68.369967
  0
TEXT
  7
TextStyle03
  8
寸法
  6
CONTINUOUS
 62
     0
 10
122.9625
 20
68.725
  1
250
 40
3.0
 72
     5
 11
127.8375
 21
68.725
  0
ENDBLK
  0
BLOCK
  2
*DIM_0004
 70
    65
 10
0.0
 20
0.0
  0
LINE
  8
寸法
  6
BYBLOCK
 62
     0
 10
74.036025
 20
22.814033
 11
74.036025
 21
52.814033
  0
POINT
  8
寸法
 62
     0
 10
74.036025
 20
22.814033
  0
POINT
  8
寸法
 62
     0
 10
74.036025
 20
52.814033
  0
TEXT
  7
TextStyle03
  8
寸法
  6
CONTINUOUS
 62
     0
 10
73.7
 20
26.9
  1
呼称寸法　900
 40
3.0
 50
90.0
 72
     5
 11
73.7
 21
48.65
  0
ENDBLK
  0
BLOCK
  2
*DIM_0005
 70
    65
 10
0.0
 20
0.0
  0
LINE
  8
寸法
  6
BYBLOCK
 62
     0
 10
136.10293
 20
-53.785395
 11
144.16122
 21
-53.785395
  0
LINE
  8
寸法
  6
BYBLOCK
 62
     0
 10
136.10293
 20
-83.118728
 11
144.16122
 21
-83.118728
  0
LINE
  8
寸法
  6
BYBLOCK
 62
     0
 10
144.16122
 20
-53.785395
 11
144.16122
 21
-83.118728
  0
POINT
  8
寸法
 62
     0
 10
144.16122
 20
-53.785395
  0
POINT
  8
寸法
 62
     0
 10
144.16122
 20
-83.118728
  0
TEXT
  7
TextStyle03
  8
寸法
  6
CONTINUOUS
 62
     0
 10
143.825
 20
-70.9125
  1
880
 40
3.0
 50
90.0
 72
     5
 11
143.825
 21
-66.0375
  0
ENDBLK
  0
BLOCK
  2
*DIM_0006
 70
    65
 10
0.0
 20
0.0
  0
LINE
  8
寸法
  6
BYBLOCK
 62
     0
 10
-76.650292
 20
-13.511205
 11
-76.650292
 21
-13.121378
  0
LINE
  8
寸法
  6
BYBLOCK
 62
     0
 10
40.016375
 20
-13.121378
 11
-76.650292
 21
-13.121378
  0
POINT
  8
寸法
 62
     0
 10
40.016375
 20
-13.121378
  0
POINT
  8
寸法
 62
     0
 10
-76.650292
 20
-13.121378
  0
TEXT
  7
TextStyle03
  8
寸法
  6
CONTINUOUS
 62
     0
 10
-30.01875
 20
-12.75
  1
呼称寸法　3500
 40
3.0
 72
     5
 11
-6.58125
 21
-12.75
  0
ENDBLK
  0
BLOCK
  2
*DIM_0007
 70
    65
 10
0.0
 20
0.0
  0
LINE
  8
寸法
  6
BYBLOCK
 62
     0
 10
97.149597
 20
-52.785395
 11
97.149597
 21
-45.096325
  0
LINE
  8
寸法
  6
BYBLOCK
 62
     0
 10
135.10293
 20
-52.785395
 11
135.10293
 21
-45.096325
  0
LINE
  8
寸法
  6
BYBLOCK
 62
     0
 10
97.149597
 20
-45.096325
 11
135.10293
 21
-45.096325
  0
POINT
  8
寸法
 62
     0
 10
97.149597
 20
-45.096325
  0
POINT
  8
寸法
 62
     0
 10
135.10293
 20
-45.096325
  0
TEXT
  7
TextStyle03
  8
寸法
  6
CONTINUOUS
 62
     0
 10
111.18125
 20
-44.725
  1
1138.6
 40
3.0
 72
     5
 11
121.11875
 21
-44.725
  0
ENDBLK
  0
BLOCK
  2
*DIM_0008
 70
    65
 10
0.0
 20
0.0
  0
LINE
  8
寸法
  6
BYBLOCK
 62
     0
 10
-59.983625
 20
19.183902
 11
-59.983625
 21
14.000657
  0
LINE
  8
寸法
  6
BYBLOCK
 62
     0
 10
23.34971
 20
19.183902
 11
23.34971
 21
14.000657
  0
LINE
  8
寸法
  6
BYBLOCK
 62
     0
 10
-59.983625
 20
14.000657
 11
23.34971
 21
14.000657
  0
POINT
  8
寸法
 62
     0
 10
-59.983625
 20
14.000657
  0
POINT
  8
寸法
 62
     0
 10
23.34971
 20
14.000657
  0
TEXT
  7
TextStyle03
  8
寸法
  6
CONTINUOUS
 62
     0
 10
-21.60625
 20
14.375
  1
2500
 40
3.0
 72
     5
 11
-15.04375
 21
14.375
  0
ENDBLK
  0
BLOCK
  2
*DIM_0009
 70
    65
 10
0.0
 20
0.0
  0
LINE
  8
寸法
  6
BYBLOCK
 62
     0
 10
41.016375
 20
52.814035
 11
50.740658
 21
52.814035
  0
LINE
  8
寸法
  6
BYBLOCK
 62
     0
 10
43.646505
 20
49.114035
 11
50.740658
 21
49.114035
  0
LINE
  8
寸法
  6
BYBLOCK
 62
     0
 10
50.740658
 20
52.814035
 11
50.740658
 21
49.114035
  0
POINT
  8
寸法
 62
     0
 10
50.740658
 20
52.814035
  0
POINT
  8
寸法
 62
     0
 10
50.740658
 20
49.114035
  0
TEXT
  7
TextStyle03
  8
寸法
  6
CONTINUOUS
 62
     0
 10
50.4
 20
53.8125
  1
111
 40
3.0
 50
90.0
 72
     5
 11
50.4
 21
58.6875
  0
ENDBLK
  0
BLOCK
  2
*DIM_0010
 70
    65
 10
0.0
 20
0.0
  0
LINE
  8
寸法
  6
BYBLOCK
 62
     0
 10
41.016375
 20
22.81403
 11
50.740658
 21
22.814027
  0
LINE
  8
寸法
  6
BYBLOCK
 62
     0
 10
43.646505
 20
26.51403
 11
50.740658
 21
26.514027
  0
LINE
  8
寸法
  6
BYBLOCK
 62
     0
 10
50.740658
 20
22.814027
 11
50.740658
 21
26.514027
  0
POINT
  8
寸法
 62
     0
 10
50.740658
 20
22.814027
  0
POINT
  8
寸法
 62
     0
 10
50.740658
 20
26.514027
  0
TEXT
  7
TextStyle03
  8
寸法
  6
CONTINUOUS
 62
     0
 10
50.4
 20
16.9375
  1
111
 40
3.0
 50
90.0
 72
     5
 11
50.4
 21
21.8125
  0
ENDBLK
  0
BLOCK
  2
*GRP_0011
 70
    65
 10
0.0
 20
0.0
  0
LINE
  8
別途部材
  6
CONTINUOUS
 62
    96
 10
-78.316957
 20
-70.209613
 11
-78.716957
 21
-71.209613
  0
ARC
  8
別途部材
  6
CONTINUOUS
 10
-61.650294
 20
-79.542948
 40
17.666667
 50
90.0
 51
148.109204
  0
LINE
  8
別途部材
  6
CONTINUOUS
 62
    96
 10
-78.316957
 20
-70.209613
 11
-18.316957
 21
-70.209613
  0
LINE
  8
別途部材
  6
CONTINUOUS
 10
-78.716957
 20
-71.209613
 11
-18.316957
 21
-71.209613
  0
LINE
  8
別途部材
  6
CONTINUOUS
 10
-18.816957
 20
-60.87628
 11
-19.816957
 21
-61.87628
  0
LINE
  8
別途部材
  6
CONTINUOUS
 10
-20.816957
 20
-61.87628
 11
-21.816957
 21
-60.87628
  0
LINE
  8
別途部材
  6
CONTINUOUS
 10
-22.816957
 20
-60.87628
 11
-23.816957
 21
-61.87628
  0
LINE
  8
別途部材
  6
CONTINUOUS
 10
-21.816957
 20
-60.87628
 11
-22.816957
 21
-60.87628
  0
LINE
  8
別途部材
  6
CONTINUOUS
 10
-18.816957
 20
-60.87628
 11
-18.316957
 21
-60.87628
  0
LINE
  8
別途部材
  6
CONTINUOUS
 10
-24.816957
 20
-61.87628
 11
-25.816957
 21
-60.87628
  0
LINE
  8
別途部材
  6
CONTINUOUS
 10
-26.816957
 20
-60.87628
 11
-27.816957
 21
-61.87628
  0
LINE
  8
別途部材
  6
CONTINUOUS
 10
-25.816957
 20
-60.87628
 11
-26.816957
 21
-60.87628
  0
LINE
  8
別途部材
  6
CONTINUOUS
 10
-28.816957
 20
-61.87628
 11
-29.816957
 21
-60.87628
  0
LINE
  8
別途部材
  6
CONTINUOUS
 10
-30.816957
 20
-60.87628
 11
-31.816957
 21
-61.87628
  0
LINE
  8
別途部材
  6
CONTINUOUS
 10
-29.816957
 20
-60.87628
 11
-30.816957
 21
-60.87628
  0
LINE
  8
別途部材
  6
CONTINUOUS
 10
-32.816957
 20
-61.87628
 11
-33.816957
 21
-60.87628
  0
LINE
  8
別途部材
  6
CONTINUOUS
 10
-34.816957
 20
-60.87628
 11
-35.816957
 21
-61.87628
  0
LINE
  8
別途部材
  6
CONTINUOUS
 10
-33.816957
 20
-60.87628
 11
-34.816957
 21
-60.87628
  0
LINE
  8
別途部材
  6
CONTINUOUS
 10
-36.816957
 20
-61.87628
 11
-37.816957
 21
-60.87628
  0
LINE
  8
別途部材
  6
CONTINUOUS
 10
-38.816957
 20
-60.87628
 11
-39.816957
 21
-61.87628
  0
LINE
  8
別途部材
  6
CONTINUOUS
 10
-37.816957
 20
-60.87628
 11
-38.816957
 21
-60.87628
  0
LINE
  8
別途部材
  6
CONTINUOUS
 10
-40.816957
 20
-61.87628
 11
-41.816957
 21
-60.87628
  0
LINE
  8
別途部材
  6
CONTINUOUS
 10
-42.816957
 20
-60.87628
 11
-43.816957
 21
-61.87628
  0
LINE
  8
別途部材
  6
CONTINUOUS
 10
-41.816957
 20
-60.87628
 11
-42.816957
 21
-60.87628
  0
LINE
  8
別途部材
  6
CONTINUOUS
 10
-44.816957
 20
-61.87628
 11
-45.816957
 21
-60.87628
  0
LINE
  8
別途部材
  6
CONTINUOUS
 10
-46.816957
 20
-60.87628
 11
-47.816957
 21
-61.87628
  0
LINE
  8
別途部材
  6
CONTINUOUS
 10
-45.816957
 20
-60.87628
 11
-46.816957
 21
-60.87628
  0
LINE
  8
別途部材
  6
CONTINUOUS
 10
-48.816957
 20
-61.87628
 11
-49.816957
 21
-60.87628
  0
LINE
  8
別途部材
  6
CONTINUOUS
 10
-50.816957
 20
-60.87628
 11
-51.816957
 21
-61.87628
  0
LINE
  8
別途部材
  6
CONTINUOUS
 10
-49.816957
 20
-60.87628
 11
-50.816957
 21
-60.87628
  0
LINE
  8
別途部材
  6
CONTINUOUS
 10
-52.816957
 20
-61.87628
 11
-53.816957
 21
-60.87628
  0
LINE
  8
別途部材
  6
CONTINUOUS
 10
-54.816957
 20
-60.87628
 11
-55.816957
 21
-61.87628
  0
LINE
  8
別途部材
  6
CONTINUOUS
 10
-53.816957
 20
-60.87628
 11
-54.816957
 21
-60.87628
  0
LINE
  8
別途部材
  6
CONTINUOUS
 10
-56.816957
 20
-61.87628
 11
-57.816957
 21
-60.87628
  0
LINE
  8
別途部材
  6
CONTINUOUS
 10
-58.816957
 20
-60.87628
 11
-59.816957
 21
-61.87628
  0
LINE
  8
別途部材
  6
CONTINUOUS
 10
-57.816957
 20
-60.87628
 11
-58.816957
 21
-60.87628
  0
LINE
  8
別途部材
  6
CONTINUOUS
 10
-55.816957
 20
-61.87628
 11
-56.816957
 21
-61.87628
  0
LINE
  8
別途部材
  6
CONTINUOUS
 10
-51.816957
 20
-61.87628
 11
-52.816957
 21
-61.87628
  0
LINE
  8
別途部材
  6
CONTINUOUS
 10
-47.816957
 20
-61.87628
 11
-48.816957
 21
-61.87628
  0
LINE
  8
別途部材
  6
CONTINUOUS
 10
-43.816957
 20
-61.87628
 11
-44.816957
 21
-61.87628
  0
LINE
  8
別途部材
  6
CONTINUOUS
 10
-39.816957
 20
-61.87628
 11
-40.816957
 21
-61.87628
  0
LINE
  8
別途部材
  6
CONTINUOUS
 10
-35.816957
 20
-61.87628
 11
-36.816957
 21
-61.87628
  0
LINE
  8
別途部材
  6
CONTINUOUS
 10
-31.816957
 20
-61.87628
 11
-32.816957
 21
-61.87628
  0
LINE
  8
別途部材
  6
CONTINUOUS
 10
-27.816957
 20
-61.87628
 11
-28.816957
 21
-61.87628
  0
LINE
  8
別途部材
  6
CONTINUOUS
 10
-23.816957
 20
-61.87628
 11
-24.816957
 21
-61.87628
  0
LINE
  8
別途部材
  6
CONTINUOUS
 10
-20.816957
 20
-61.87628
 11
-19.816957
 21
-61.87628
  0
LINE
  8
別途部材
  6
CONTINUOUS
 10
-58.816957
 20
-60.87628
 11
-58.816957
 21
-70.209613
  0
LINE
  8
別途部材
  6
CONTINUOUS
 10
-56.816957
 20
-61.87628
 11
-56.816957
 21
-70.209613
  0
LINE
  8
別途部材
  6
CONTINUOUS
 10
-59.816957
 20
-61.87628
 11
-59.816957
 21
-70.209613
  0
LINE
  8
別途部材
  6
CONTINUOUS
 10
-57.816957
 20
-60.87628
 11
-57.816957
 21
-70.209613
  0
LINE
  8
別途部材
  6
CONTINUOUS
 10
-54.816957
 20
-60.87628
 11
-54.816957
 21
-70.209613
  0
LINE
  8
別途部材
  6
CONTINUOUS
 10
-55.816957
 20
-61.87628
 11
-55.816957
 21
-70.209613
  0
LINE
  8
別途部材
  6
CONTINUOUS
 10
-53.816957
 20
-60.87628
 11
-53.816957
 21
-70.209613
  0
LINE
  8
別途部材
  6
CONTINUOUS
 10
-52.816957
 20
-61.87628
 11
-52.816957
 21
-70.209613
  0
LINE
  8
別途部材
  6
CONTINUOUS
 10
-51.816957
 20
-61.87628
 11
-51.816957
 21
-70.209613
  0
LINE
  8
別途部材
  6
CONTINUOUS
 10
-50.816957
 20
-60.87628
 11
-50.816957
 21
-70.209613
  0
LINE
  8
別途部材
  6
CONTINUOUS
 10
-48.816957
 20
-61.87628
 11
-48.816957
 21
-70.209613
  0
LINE
  8
別途部材
  6
CONTINUOUS
 10
-49.816957
 20
-60.87628
 11
-49.816957
 21
-70.209613
  0
LINE
  8
別途部材
  6
CONTINUOUS
 10
-46.816957
 20
-60.87628
 11
-46.816957
 21
-70.209613
  0
LINE
  8
別途部材
  6
CONTINUOUS
 10
-47.816957
 20
-61.87628
 11
-47.816957
 21
-70.209613
  0
LINE
  8
別途部材
  6
CONTINUOUS
 10
-43.816957
 20
-61.87628
 11
-43.816957
 21
-70.209613
  0
LINE
  8
別途部材
  6
CONTINUOUS
 10
-42.816957
 20
-60.87628
 11
-42.816957
 21
-70.209613
  0
LINE
  8
別途部材
  6
CONTINUOUS
 10
-41.816957
 20
-60.87628
 11
-41.816957
 21
-70.209613
  0
LINE
  8
別途部材
  6
CONTINUOUS
 10
-44.816957
 20
-61.87628
 11
-44.816957
 21
-70.209613
  0
LINE
  8
別途部材
  6
CONTINUOUS
 10
-45.816957
 20
-60.87628
 11
-45.816957
 21
-70.209613
  0
LINE
  8
別途部材
  6
CONTINUOUS
 10
-37.816957
 20
-60.87628
 11
-37.816957
 21
-70.209613
  0
LINE
  8
別途部材
  6
CONTINUOUS
 10
-39.816957
 20
-61.87628
 11
-39.816957
 21
-70.209613
  0
LINE
  8
別途部材
  6
CONTINUOUS
 10
-40.816957
 20
-61.87628
 11
-40.816957
 21
-70.209613
  0
LINE
  8
別途部材
  6
CONTINUOUS
 10
-38.816957
 20
-60.87628
 11
-38.816957
 21
-70.209613
  0
LINE
  8
別途部材
  6
CONTINUOUS
 10
-36.816957
 20
-61.87628
 11
-36.816957
 21
-70.209613
  0
LINE
  8
別途部材
  6
CONTINUOUS
 10
-34.816957
 20
-60.87628
 11
-34.816957
 21
-70.209613
  0
LINE
  8
別途部材
  6
CONTINUOUS
 10
-33.816957
 20
-60.87628
 11
-33.816957
 21
-70.209613
  0
LINE
  8
別途部材
  6
CONTINUOUS
 10
-31.816957
 20
-61.87628
 11
-31.816957
 21
-70.209613
  0
LINE
  8
別途部材
  6
CONTINUOUS
 10
-32.816957
 20
-61.87628
 11
-32.816957
 21
-70.209613
  0
LINE
  8
別途部材
  6
CONTINUOUS
 10
-35.816957
 20
-61.87628
 11
-35.816957
 21
-70.209613
  0
LINE
  8
別途部材
  6
CONTINUOUS
 10
-30.816957
 20
-60.87628
 11
-30.816957
 21
-70.209613
  0
LINE
  8
別途部材
  6
CONTINUOUS
 10
-28.816957
 20
-61.87628
 11
-28.816957
 21
-70.209613
  0
LINE
  8
別途部材
  6
CONTINUOUS
 10
-29.816957
 20
-60.87628
 11
-29.816957
 21
-70.209613
  0
LINE
  8
別途部材
  6
CONTINUOUS
 10
-27.816957
 20
-61.87628
 11
-27.816957
 21
-70.209613
  0
LINE
  8
別途部材
  6
CONTINUOUS
 10
-26.816957
 20
-60.87628
 11
-26.816957
 21
-70.209613
  0
LINE
  8
別途部材
  6
CONTINUOUS
 10
-24.816957
 20
-61.87628
 11
-24.816957
 21
-70.209613
  0
LINE
  8
別途部材
  6
CONTINUOUS
 10
-25.816957
 20
-60.87628
 11
-25.816957
 21
-70.209613
  0
LINE
  8
別途部材
  6
CONTINUOUS
 10
-23.816957
 20
-61.87628
 11
-23.816957
 21
-70.209613
  0
LINE
  8
別途部材
  6
CONTINUOUS
 10
-22.816957
 20
-60.87628
 11
-22.816957
 21
-70.209613
  0
LINE
  8
別途部材
  6
CONTINUOUS
 10
-20.816957
 20
-61.87628
 11
-20.816957
 21
-70.209613
  0
LINE
  8
別途部材
  6
CONTINUOUS
 10
-21.816957
 20
-60.87628
 11
-21.816957
 21
-70.209613
  0
LINE
  8
別途部材
  6
CONTINUOUS
 10
-19.816957
 20
-61.87628
 11
-19.816957
 21
-70.209613
  0
LINE
  8
別途部材
  6
CONTINUOUS
 10
-18.816957
 20
-60.87628
 11
-18.816957
 21
-70.209613
  0
LINE
  8
別途部材
  6
CONTINUOUS
 10
-59.816957
 20
-61.87628
 11
-61.65029
 21
-61.87628
  0
LINE
  8
別途部材
  6
CONTINUOUS
 62
    96
 10
41.683043
 20
-70.209613
 11
42.083043
 21
-71.209613
  0
ARC
  8
別途部材
  6
CONTINUOUS
 10
25.016379
 20
-79.542948
 40
17.666667
 50
31.890796
 51
90.0
  0
LINE
  8
別途部材
  6
CONTINUOUS
 62
    96
 10
41.683043
 20
-70.209613
 11
-18.316957
 21
-70.209613
  0
LINE
  8
別途部材
  6
CONTINUOUS
 10
42.083043
 20
-71.209613
 11
-18.316957
 21
-71.209613
  0
LINE
  8
別途部材
  6
CONTINUOUS
 10
-17.816957
 20
-60.87628
 11
-16.816957
 21
-61.87628
  0
LINE
  8
別途部材
  6
CONTINUOUS
 10
-15.816957
 20
-61.87628
 11
-14.816957
 21
-60.87628
  0
LINE
  8
別途部材
  6
CONTINUOUS
 10
-13.816957
 20
-60.87628
 11
-12.816957
 21
-61.87628
  0
LINE
  8
別途部材
  6
CONTINUOUS
 10
-14.816957
 20
-60.87628
 11
-13.816957
 21
-60.87628
  0
LINE
  8
別途部材
  6
CONTINUOUS
 10
-17.816957
 20
-60.87628
 11
-18.316957
 21
-60.87628
  0
LINE
  8
別途部材
  6
CONTINUOUS
 10
-11.816957
 20
-61.87628
 11
-10.816957
 21
-60.87628
  0
LINE
  8
別途部材
  6
CONTINUOUS
 10
-9.816957
 20
-60.87628
 11
-8.816957
 21
-61.87628
  0
LINE
  8
別途部材
  6
CONTINUOUS
 10
-10.816957
 20
-60.87628
 11
-9.816957
 21
-60.87628
  0
LINE
  8
別途部材
  6
CONTINUOUS
 10
-7.816957
 20
-61.87628
 11
-6.816957
 21
-60.87628
  0
LINE
  8
別途部材
  6
CONTINUOUS
 10
-5.816957
 20
-60.87628
 11
-4.816957
 21
-61.87628
  0
LINE
  8
別途部材
  6
CONTINUOUS
 10
-6.816957
 20
-60.87628
 11
-5.816957
 21
-60.87628
  0
LINE
  8
別途部材
  6
CONTINUOUS
 10
-3.816957
 20
-61.87628
 11
-2.816957
 21
-60.87628
  0
LINE
  8
別途部材
  6
CONTINUOUS
 10
-1.816957
 20
-60.87628
 11
-0.816957
 21
-61.87628
  0
LINE
  8
別途部材
  6
CONTINUOUS
 10
-2.816957
 20
-60.87628
 11
-1.816957
 21
-60.87628
  0
LINE
  8
別途部材
  6
CONTINUOUS
 10
0.183043
 20
-61.87628
 11
1.183043
 21
-60.87628
  0
LINE
  8
別途部材
  6
CONTINUOUS
 10
2.183043
 20
-60.87628
 11
3.183043
 21
-61.87628
  0
LINE
  8
別途部材
  6
CONTINUOUS
 10
1.183043
 20
-60.87628
 11
2.183043
 21
-60.87628
  0
LINE
  8
別途部材
  6
CONTINUOUS
 10
4.183043
 20
-61.87628
 11
5.183043
 21
-60.87628
  0
LINE
  8
別途部材
  6
CONTINUOUS
 10
6.183043
 20
-60.87628
 11
7.183043
 21
-61.87628
  0
LINE
  8
別途部材
  6
CONTINUOUS
 10
5.183043
 20
-60.87628
 11
6.183043
 21
-60.87628
  0
LINE
  8
別途部材
  6
CONTINUOUS
 10
8.183043
 20
-61.87628
 11
9.183043
 21
-60.87628
  0
LINE
  8
別途部材
  6
CONTINUOUS
 10
10.183043
 20
-60.87628
 11
11.183043
 21
-61.87628
  0
LINE
  8
別途部材
  6
CONTINUOUS
 10
9.183043
 20
-60.87628
 11
10.183043
 21
-60.87628
  0
LINE
  8
別途部材
  6
CONTINUOUS
 10
12.183043
 20
-61.87628
 11
13.183043
 21
-60.87628
  0
LINE
  8
別途部材
  6
CONTINUOUS
 10
14.183043
 20
-60.87628
 11
15.183043
 21
-61.87628
  0
LINE
  8
別途部材
  6
CONTINUOUS
 10
13.183043
 20
-60.87628
 11
14.183043
 21
-60.87628
  0
LINE
  8
別途部材
  6
CONTINUOUS
 10
16.183043
 20
-61.87628
 11
17.183043
 21
-60.87628
  0
LINE
  8
別途部材
  6
CONTINUOUS
 10
18.183043
 20
-60.87628
 11
19.183043
 21
-61.87628
  0
LINE
  8
別途部材
  6
CONTINUOUS
 10
17.183043
 20
-60.87628
 11
18.183043
 21
-60.87628
  0
LINE
  8
別途部材
  6
CONTINUOUS
 10
20.183043
 20
-61.87628
 11
21.183043
 21
-60.87628
  0
LINE
  8
別途部材
  6
CONTINUOUS
 10
22.183043
 20
-60.87628
 11
23.183043
 21
-61.87628
  0
LINE
  8
別途部材
  6
CONTINUOUS
 10
21.183043
 20
-60.87628
 11
22.183043
 21
-60.87628
  0
LINE
  8
別途部材
  6
CONTINUOUS
 10
19.183043
 20
-61.87628
 11
20.183043
 21
-61.87628
  0
LINE
  8
別途部材
  6
CONTINUOUS
 10
15.183043
 20
-61.87628
 11
16.183043
 21
-61.87628
  0
LINE
  8
別途部材
  6
CONTINUOUS
 10
11.183043
 20
-61.87628
 11
12.183043
 21
-61.87628
  0
LINE
  8
別途部材
  6
CONTINUOUS
 10
7.183043
 20
-61.87628
 11
8.183043
 21
-61.87628
  0
LINE
  8
別途部材
  6
CONTINUOUS
 10
3.183043
 20
-61.87628
 11
4.183043
 21
-61.87628
  0
LINE
  8
別途部材
  6
CONTINUOUS
 10
-0.816957
 20
-61.87628
 11
0.183043
 21
-61.87628
  0
LINE
  8
別途部材
  6
CONTINUOUS
 10
-4.816957
 20
-61.87628
 11
-3.816957
 21
-61.87628
  0
LINE
  8
別途部材
  6
CONTINUOUS
 10
-8.816957
 20
-61.87628
 11
-7.816957
 21
-61.87628
  0
LINE
  8
別途部材
  6
CONTINUOUS
 10
-12.816957
 20
-61.87628
 11
-11.816957
 21
-61.87628
  0
LINE
  8
別途部材
  6
CONTINUOUS
 10
-15.816957
 20
-61.87628
 11
-16.816957
 21
-61.87628
  0
LINE
  8
別途部材
  6
CONTINUOUS
 10
22.183043
 20
-60.87628
 11
22.183043
 21
-70.209613
  0
LINE
  8
別途部材
  6
CONTINUOUS
 10
20.183043
 20
-61.87628
 11
20.183043
 21
-70.209613
  0
LINE
  8
別途部材
  6
CONTINUOUS
 10
23.183043
 20
-61.87628
 11
23.183043
 21
-70.209613
  0
LINE
  8
別途部材
  6
CONTINUOUS
 10
21.183043
 20
-60.87628
 11
21.183043
 21
-70.209613
  0
LINE
  8
別途部材
  6
CONTINUOUS
 10
18.183043
 20
-60.87628
 11
18.183043
 21
-70.209613
  0
LINE
  8
別途部材
  6
CONTINUOUS
 10
19.183043
 20
-61.87628
 11
19.183043
 21
-70.209613
  0
LINE
  8
別途部材
  6
CONTINUOUS
 10
17.183043
 20
-60.87628
 11
17.183043
 21
-70.209613
  0
LINE
  8
別途部材
  6
CONTINUOUS
 10
16.183043
 20
-61.87628
 11
16.183043
 21
-70.209613
  0
LINE
  8
別途部材
  6
CONTINUOUS
 10
15.183043
 20
-61.87628
 11
15.183043
 21
-70.209613
  0
LINE
  8
別途部材
  6
CONTINUOUS
 10
14.183043
 20
-60.87628
 11
14.183043
 21
-70.209613
  0
LINE
  8
別途部材
  6
CONTINUOUS
 10
12.183043
 20
-61.87628
 11
12.183043
 21
-70.209613
  0
LINE
  8
別途部材
  6
CONTINUOUS
 10
13.183043
 20
-60.87628
 11
13.183043
 21
-70.209613
  0
LINE
  8
別途部材
  6
CONTINUOUS
 10
10.183043
 20
-60.87628
 11
10.183043
 21
-70.209613
  0
LINE
  8
別途部材
  6
CONTINUOUS
 10
11.183043
 20
-61.87628
 11
11.183043
 21
-70.209613
  0
LINE
  8
別途部材
  6
CONTINUOUS
 10
7.183043
 20
-61.87628
 11
7.183043
 21
-70.209613
  0
LINE
  8
別途部材
  6
CONTINUOUS
 10
6.183043
 20
-60.87628
 11
6.183043
 21
-70.209613
  0
LINE
  8
別途部材
  6
CONTINUOUS
 10
5.183043
 20
-60.87628
 11
5.183043
 21
-70.209613
  0
LINE
  8
別途部材
  6
CONTINUOUS
 10
8.183043
 20
-61.87628
 11
8.183043
 21
-70.209613
  0
LINE
  8
別途部材
  6
CONTINUOUS
 10
9.183043
 20
-60.87628
 11
9.183043
 21
-70.209613
  0
LINE
  8
別途部材
  6
CONTINUOUS
 10
1.183043
 20
-60.87628
 11
1.183043
 21
-70.209613
  0
LINE
  8
別途部材
  6
CONTINUOUS
 10
3.183043
 20
-61.87628
 11
3.183043
 21
-70.209613
  0
LINE
  8
別途部材
  6
CONTINUOUS
 10
4.183043
 20
-61.87628
 11
4.183043
 21
-70.209613
  0
LINE
  8
別途部材
  6
CONTINUOUS
 10
2.183043
 20
-60.87628
 11
2.183043
 21
-70.209613
  0
LINE
  8
別途部材
  6
CONTINUOUS
 10
0.183043
 20
-61.87628
 11
0.183043
 21
-70.209613
  0
LINE
  8
別途部材
  6
CONTINUOUS
 10
-1.816957
 20
-60.87628
 11
-1.816957
 21
-70.209613
  0
LINE
  8
別途部材
  6
CONTINUOUS
 10
-2.816957
 20
-60.87628
 11
-2.816957
 21
-70.209613
  0
LINE
  8
別途部材
  6
CONTINUOUS
 10
-4.816957
 20
-61.87628
 11
-4.816957
 21
-70.209613
  0
LINE
  8
別途部材
  6
CONTINUOUS
 10
-3.816957
 20
-61.87628
 11
-3.816957
 21
-70.209613
  0
LINE
  8
別途部材
  6
CONTINUOUS
 10
-0.816957
 20
-61.87628
 11
-0.816957
 21
-70.209613
  0
LINE
  8
別途部材
  6
CONTINUOUS
 10
-5.816957
 20
-60.87628
 11
-5.816957
 21
-70.209613
  0
LINE
  8
別途部材
  6
CONTINUOUS
 10
-7.816957
 20
-61.87628
 11
-7.816957
 21
-70.209613
  0
LINE
  8
別途部材
  6
CONTINUOUS
 10
-6.816957
 20
-60.87628
 11
-6.816957
 21
-70.209613
  0
LINE
  8
別途部材
  6
CONTINUOUS
 10
-8.816957
 20
-61.87628
 11
-8.816957
 21
-70.209613
  0
LINE
  8
別途部材
  6
CONTINUOUS
 10
-9.816957
 20
-60.87628
 11
-9.816957
 21
-70.209613
  0
LINE
  8
別途部材
  6
CONTINUOUS
 10
-11.816957
 20
-61.87628
 11
-11.816957
 21
-70.209613
  0
LINE
  8
別途部材
  6
CONTINUOUS
 10
-10.816957
 20
-60.87628
 11
-10.816957
 21
-70.209613
  0
LINE
  8
別途部材
  6
CONTINUOUS
 10
-12.816957
 20
-61.87628
 11
-12.816957
 21
-70.209613
  0
LINE
  8
別途部材
  6
CONTINUOUS
 10
-13.816957
 20
-60.87628
 11
-13.816957
 21
-70.209613
  0
LINE
  8
別途部材
  6
CONTINUOUS
 10
-15.816957
 20
-61.87628
 11
-15.816957
 21
-70.209613
  0
LINE
  8
別途部材
  6
CONTINUOUS
 10
-14.816957
 20
-60.87628
 11
-14.816957
 21
-70.209613
  0
LINE
  8
別途部材
  6
CONTINUOUS
 10
-16.816957
 20
-61.87628
 11
-16.816957
 21
-70.209613
  0
LINE
  8
別途部材
  6
CONTINUOUS
 10
-17.816957
 20
-60.87628
 11
-17.816957
 21
-70.209613
  0
LINE
  8
別途部材
  6
CONTINUOUS
 10
23.183043
 20
-61.87628
 11
25.016375
 21
-61.87628
  0
ENDBLK
  0
BLOCK
  2
*GRP_0012
 70
    65
 10
0.0
 20
0.0
  0
LINE
  8
補助線
  6
BYBLOCK
 62
    64
 10
-64.919883
 20
-75.190572
 11
-65.047368
 21
-75.297933
  0
LINE
  8
補助線
  6
BYBLOCK
 62
    64
 10
-65.037305
 20
-75.180508
 11
-64.929945
 21
-75.307995
  0
LINE
  8
補助線
  6
BYBLOCK
 62
    64
 10
-56.429465
 20
-68.04055
 11
-56.55695
 21
-68.147905
  0
LINE
  8
補助線
  6
BYBLOCK
 62
    64
 10
-56.546887
 20
-68.030485
 11
-56.439527
 21
-68.157967
  0
LINE
  8
補助線
  6
BYBLOCK
 62
    64
 10
-48.06653
 20
-60.99788
 11
-47.939048
 21
-60.890523
  0
LINE
  8
補助線
  6
BYBLOCK
 62
    64
 10
-48.05647
 20
-60.880458
 11
-47.94911
 21
-61.007945
  0
LINE
  8
型材断面
  6
CONTINUOUS
 10
-65.77538
 20
-74.82155
 11
-65.835758
 21
-75.526075
  0
LINE
  8
型材断面
  6
CONTINUOUS
 10
-65.835758
 20
-75.526075
 11
-65.406325
 21
-76.03601
  0
LINE
  8
型材断面
  6
CONTINUOUS
 10
-65.406325
 20
-76.03601
 11
-64.7018
 21
-76.096388
  0
LINE
  8
型材断面
  6
CONTINUOUS
 10
-48.284613
 20
-60.09207
 11
-47.580087
 21
-60.152448
  0
LINE
  8
型材断面
  6
CONTINUOUS
 10
-47.580087
 20
-60.152448
 11
-47.150655
 21
-60.662382
  0
LINE
  8
型材断面
  6
CONTINUOUS
 10
-47.150655
 20
-60.662382
 11
-47.211032
 21
-61.366907
  0
LINE
  8
型材断面
  6
CONTINUOUS
 10
-65.77538
 20
-74.82155
 11
-48.284613
 21
-60.09207
  0
LINE
  8
型材断面
  6
CONTINUOUS
 10
-64.7018
 20
-76.096388
 11
-47.211032
 21
-61.366907
  0
CIRCLE
  8
ボルト／ビス
  6
CONTINUOUS
 10
-64.983625
 20
-75.244253
 40
0.250185
  0
CIRCLE
  8
ボルト／ビス
  6
CONTINUOUS
 10
-64.983625
 20
-75.244253
 40
0.301025
  0
LINE
  8
ボルト／ビス
  6
CONTINUOUS
 62
    64
 10
-65.229932
 20
-75.288135
 11
-65.14478
 21
-75.052887
  0
LINE
  8
ボルト／ビス
  6
CONTINUOUS
 62
    64
 10
-64.898473
 20
-75.009003
 11
-65.14478
 21
-75.052887
  0
LINE
  8
ボルト／ビス
  6
CONTINUOUS
 62
    64
 10
-65.068778
 20
-75.479503
 11
-64.82247
 21
-75.435617
  0
LINE
  8
ボルト／ビス
  6
CONTINUOUS
 62
    64
 10
-64.737317
 20
-75.20037
 11
-64.82247
 21
-75.435617
  0
LINE
  8
ボルト／ビス
  6
CONTINUOUS
 62
    64
 10
-65.229932
 20
-75.288135
 11
-65.068778
 21
-75.479503
  0
LINE
  8
ボルト／ビス
  6
CONTINUOUS
 62
    64
 10
-64.898473
 20
-75.009003
 11
-64.737317
 21
-75.20037
  0
CIRCLE
  8
ボルト／ビス
  6
CONTINUOUS
 62
    64
 10
-64.983625
 20
-75.244253
 40
0.216668
  0
CIRCLE
  8
ボルト／ビス
  6
CONTINUOUS
 10
-56.493207
 20
-68.094228
 40
0.250185
  0
CIRCLE
  8
ボルト／ビス
  6
CONTINUOUS
 10
-56.493207
 20
-68.094228
 40
0.301025
  0
LINE
  8
ボルト／ビス
  6
CONTINUOUS
 62
    64
 10
-56.739515
 20
-68.13811
 11
-56.654363
 21
-67.90286
  0
LINE
  8
ボルト／ビス
  6
CONTINUOUS
 62
    64
 10
-56.408055
 20
-67.858978
 11
-56.654363
 21
-67.90286
  0
LINE
  8
ボルト／ビス
  6
CONTINUOUS
 62
    64
 10
-56.57836
 20
-68.329478
 11
-56.33205
 21
-68.285595
  0
LINE
  8
ボルト／ビス
  6
CONTINUOUS
 62
    64
 10
-56.2469
 20
-68.050348
 11
-56.33205
 21
-68.285595
  0
LINE
  8
ボルト／ビス
  6
CONTINUOUS
 62
    64
 10
-56.739515
 20
-68.13811
 11
-56.57836
 21
-68.329478
  0
LINE
  8
ボルト／ビス
  6
CONTINUOUS
 62
    64
 10
-56.408055
 20
-67.858978
 11
-56.2469
 21
-68.050348
  0
CIRCLE
  8
ボルト／ビス
  6
CONTINUOUS
 62
    64
 10
-56.493207
 20
-68.094228
 40
0.216668
  0
CIRCLE
  8
ボルト／ビス
  6
CONTINUOUS
 10
-48.002787
 20
-60.944203
 40
0.250185
  0
CIRCLE
  8
ボルト／ビス
  6
CONTINUOUS
 10
-48.002787
 20
-60.944203
 40
0.301025
  0
LINE
  8
ボルト／ビス
  6
CONTINUOUS
 62
    64
 10
-47.917635
 20
-60.708953
 11
-48.163945
 21
-60.752837
  0
LINE
  8
ボルト／ビス
  6
CONTINUOUS
 62
    64
 10
-48.249097
 20
-60.988085
 11
-48.163945
 21
-60.752837
  0
LINE
  8
ボルト／ビス
  6
CONTINUOUS
 62
    64
 10
-47.756483
 20
-60.90032
 11
-47.841633
 21
-61.135567
  0
LINE
  8
ボルト／ビス
  6
CONTINUOUS
 62
    64
 10
-48.087943
 20
-61.179453
 11
-47.841633
 21
-61.135567
  0
LINE
  8
ボルト／ビス
  6
CONTINUOUS
 62
    64
 10
-47.917635
 20
-60.708953
 11
-47.756483
 21
-60.90032
  0
LINE
  8
ボルト／ビス
  6
CONTINUOUS
 62
    64
 10
-48.249097
 20
-60.988085
 11
-48.087943
 21
-61.179453
  0
CIRCLE
  8
ボルト／ビス
  6
CONTINUOUS
 62
    64
 10
-48.002787
 20
-60.944203
 40
0.216668
  0
ENDBLK
  0
BLOCK
  2
*GRP_0013
 70
    65
 10
0.0
 20
0.0
  0
LINE
  8
補助線
  6
BYBLOCK
 62
    64
 10
-48.066532
 20
-75.190572
 11
-47.939048
 21
-75.297933
  0
LINE
  8
補助線
  6
BYBLOCK
 62
    64
 10
-47.94911
 20
-75.180508
 11
-48.05647
 21
-75.307995
  0
LINE
  8
補助線
  6
BYBLOCK
 62
    64
 10
-56.55695
 20
-68.04055
 11
-56.429465
 21
-68.147905
  0
LINE
  8
補助線
  6
BYBLOCK
 62
    64
 10
-56.439527
 20
-68.030485
 11
-56.546887
 21
-68.157967
  0
LINE
  8
補助線
  6
BYBLOCK
 62
    64
 10
-64.919885
 20
-60.99788
 11
-65.047368
 21
-60.890523
  0
LINE
  8
補助線
  6
BYBLOCK
 62
    64
 10
-64.929945
 20
-60.880458
 11
-65.037305
 21
-61.007945
  0
LINE
  8
型材断面
  6
CONTINUOUS
 10
-47.211035
 20
-74.82155
 11
-47.150658
 21
-75.526075
  0
LINE
  8
型材断面
  6
CONTINUOUS
 10
-47.150658
 20
-75.526075
 11
-47.58009
 21
-76.03601
  0
LINE
  8
型材断面
  6
CONTINUOUS
 10
-47.58009
 20
-76.03601
 11
-48.284615
 21
-76.096388
  0
LINE
  8
型材断面
  6
CONTINUOUS
 10
-64.701803
 20
-60.09207
 11
-65.406328
 21
-60.152448
  0
LINE
  8
型材断面
  6
CONTINUOUS
 10
-65.406328
 20
-60.152448
 11
-65.83576
 21
-60.662382
  0
LINE
  8
型材断面
  6
CONTINUOUS
 10
-65.83576
 20
-60.662382
 11
-65.775382
 21
-61.366907
  0
LINE
  8
型材断面
  6
CONTINUOUS
 10
-47.211035
 20
-74.82155
 11
-64.701803
 21
-60.09207
  0
LINE
  8
型材断面
  6
CONTINUOUS
 10
-48.284615
 20
-76.096388
 11
-65.775382
 21
-61.366907
  0
CIRCLE
  8
ボルト／ビス
  6
CONTINUOUS
 10
-48.00279
 20
-75.244253
 40
0.250185
  0
CIRCLE
  8
ボルト／ビス
  6
CONTINUOUS
 10
-48.00279
 20
-75.244253
 40
0.301025
  0
LINE
  8
ボルト／ビス
  6
CONTINUOUS
 62
    64
 10
-47.756483
 20
-75.288135
 11
-47.841635
 21
-75.052887
  0
LINE
  8
ボルト／ビス
  6
CONTINUOUS
 62
    64
 10
-48.087943
 20
-75.009003
 11
-47.841635
 21
-75.052887
  0
LINE
  8
ボルト／ビス
  6
CONTINUOUS
 62
    64
 10
-47.917637
 20
-75.479503
 11
-48.163945
 21
-75.435617
  0
LINE
  8
ボルト／ビス
  6
CONTINUOUS
 62
    64
 10
-48.249097
 20
-75.20037
 11
-48.163945
 21
-75.435617
  0
LINE
  8
ボルト／ビス
  6
CONTINUOUS
 62
    64
 10
-47.756483
 20
-75.288135
 11
-47.917637
 21
-75.479503
  0
LINE
  8
ボルト／ビス
  6
CONTINUOUS
 62
    64
 10
-48.087943
 20
-75.009003
 11
-48.249097
 21
-75.20037
  0
CIRCLE
  8
ボルト／ビス
  6
CONTINUOUS
 62
    64
 10
-48.00279
 20
-75.244253
 40
0.216668
  0
CIRCLE
  8
ボルト／ビス
  6
CONTINUOUS
 10
-56.493207
 20
-68.094228
 40
0.250185
  0
CIRCLE
  8
ボルト／ビス
  6
CONTINUOUS
 10
-56.493207
 20
-68.094228
 40
0.301025
  0
LINE
  8
ボルト／ビス
  6
CONTINUOUS
 62
    64
 10
-56.2469
 20
-68.13811
 11
-56.332053
 21
-67.90286
  0
LINE
  8
ボルト／ビス
  6
CONTINUOUS
 62
    64
 10
-56.57836
 20
-67.858978
 11
-56.332053
 21
-67.90286
  0
LINE
  8
ボルト／ビス
  6
CONTINUOUS
 62
    64
 10
-56.408055
 20
-68.329478
 11
-56.654365
 21
-68.285595
  0
LINE
  8
ボルト／ビス
  6
CONTINUOUS
 62
    64
 10
-56.739515
 20
-68.050348
 11
-56.654365
 21
-68.285595
  0
LINE
  8
ボルト／ビス
  6
CONTINUOUS
 62
    64
 10
-56.2469
 20
-68.13811
 11
-56.408055
 21
-68.329478
  0
LINE
  8
ボルト／ビス
  6
CONTINUOUS
 62
    64
 10
-56.57836
 20
-67.858978
 11
-56.739515
 21
-68.050348
  0
CIRCLE
  8
ボルト／ビス
  6
CONTINUOUS
 62
    64
 10
-56.493207
 20
-68.094228
 40
0.216668
  0
CIRCLE
  8
ボルト／ビス
  6
CONTINUOUS
 10
-64.983627
 20
-60.944203
 40
0.250185
  0
CIRCLE
  8
ボルト／ビス
  6
CONTINUOUS
 10
-64.983627
 20
-60.944203
 40
0.301025
  0
LINE
  8
ボルト／ビス
  6
CONTINUOUS
 62
    64
 10
-65.06878
 20
-60.708953
 11
-64.82247
 21
-60.752837
  0
LINE
  8
ボルト／ビス
  6
CONTINUOUS
 62
    64
 10
-64.737317
 20
-60.988085
 11
-64.82247
 21
-60.752837
  0
LINE
  8
ボルト／ビス
  6
CONTINUOUS
 62
    64
 10
-65.229932
 20
-60.90032
 11
-65.144783
 21
-61.135567
  0
LINE
  8
ボルト／ビス
  6
CONTINUOUS
 62
    64
 10
-64.898473
 20
-61.179453
 11
-65.144783
 21
-61.135567
  0
LINE
  8
ボルト／ビス
  6
CONTINUOUS
 62
    64
 10
-65.06878
 20
-60.708953
 11
-65.229932
 21
-60.90032
  0
LINE
  8
ボルト／ビス
  6
CONTINUOUS
 62
    64
 10
-64.737317
 20
-60.988085
 11
-64.898473
 21
-61.179453
  0
CIRCLE
  8
ボルト／ビス
  6
CONTINUOUS
 62
    64
 10
-64.983627
 20
-60.944203
 40
0.216668
  0
ENDBLK
  0
BLOCK
  2
*GRP_0014
 70
    65
 10
0.0
 20
0.0
  0
LINE
  8
補助線
  6
BYBLOCK
 62
    64
 10
28.285967
 20
-75.190572
 11
28.413452
 21
-75.297933
  0
LINE
  8
補助線
  6
BYBLOCK
 62
    64
 10
28.40339
 20
-75.180508
 11
28.29603
 21
-75.307995
  0
LINE
  8
補助線
  6
BYBLOCK
 62
    64
 10
19.79555
 20
-68.04055
 11
19.923035
 21
-68.147905
  0
LINE
  8
補助線
  6
BYBLOCK
 62
    64
 10
19.912973
 20
-68.030485
 11
19.805612
 21
-68.157967
  0
LINE
  8
補助線
  6
BYBLOCK
 62
    64
 10
11.432615
 20
-60.99788
 11
11.305133
 21
-60.890523
  0
LINE
  8
補助線
  6
BYBLOCK
 62
    64
 10
11.422555
 20
-60.880458
 11
11.315195
 21
-61.007945
  0
LINE
  8
型材断面
  6
CONTINUOUS
 10
29.141465
 20
-74.82155
 11
29.201843
 21
-75.526075
  0
LINE
  8
型材断面
  6
CONTINUOUS
 10
29.201843
 20
-75.526075
 11
28.77241
 21
-76.03601
  0
LINE
  8
型材断面
  6
CONTINUOUS
 10
28.77241
 20
-76.03601
 11
28.067885
 21
-76.096388
  0
LINE
  8
型材断面
  6
CONTINUOUS
 10
11.650698
 20
-60.09207
 11
10.946172
 21
-60.152448
  0
LINE
  8
型材断面
  6
CONTINUOUS
 10
10.946172
 20
-60.152448
 11
10.51674
 21
-60.662382
  0
LINE
  8
型材断面
  6
CONTINUOUS
 10
10.51674
 20
-60.662382
 11
10.577117
 21
-61.366907
  0
LINE
  8
型材断面
  6
CONTINUOUS
 10
29.141465
 20
-74.82155
 11
11.650698
 21
-60.09207
  0
LINE
  8
型材断面
  6
CONTINUOUS
 10
28.067885
 20
-76.096388
 11
10.577117
 21
-61.366907
  0
CIRCLE
  8
ボルト／ビス
  6
CONTINUOUS
 10
28.34971
 20
-75.244253
 40
0.250185
  0
CIRCLE
  8
ボルト／ビス
  6
CONTINUOUS
 10
28.34971
 20
-75.244253
 40
0.301025
  0
LINE
  8
ボルト／ビス
  6
CONTINUOUS
 62
    64
 10
28.596018
 20
-75.288135
 11
28.510865
 21
-75.052887
  0
LINE
  8
ボルト／ビス
  6
CONTINUOUS
 62
    64
 10
28.264558
 20
-75.009003
 11
28.510865
 21
-75.052887
  0
LINE
  8
ボルト／ビス
  6
CONTINUOUS
 62
    64
 10
28.434863
 20
-75.479503
 11
28.188555
 21
-75.435617
  0
LINE
  8
ボルト／ビス
  6
CONTINUOUS
 62
    64
 10
28.103403
 20
-75.20037
 11
28.188555
 21
-75.435617
  0
LINE
  8
ボルト／ビス
  6
CONTINUOUS
 62
    64
 10
28.596018
 20
-75.288135
 11
28.434863
 21
-75.479503
  0
LINE
  8
ボルト／ビス
  6
CONTINUOUS
 62
    64
 10
28.264558
 20
-75.009003
 11
28.103403
 21
-75.20037
  0
CIRCLE
  8
ボルト／ビス
  6
CONTINUOUS
 62
    64
 10
28.34971
 20
-75.244253
 40
0.216668
  0
CIRCLE
  8
ボルト／ビス
  6
CONTINUOUS
 10
19.859293
 20
-68.094228
 40
0.250185
  0
CIRCLE
  8
ボルト／ビス
  6
CONTINUOUS
 10
19.859293
 20
-68.094228
 40
0.301025
  0
LINE
  8
ボルト／ビス
  6
CONTINUOUS
 62
    64
 10
20.1056
 20
-68.13811
 11
20.020448
 21
-67.90286
  0
LINE
  8
ボルト／ビス
  6
CONTINUOUS
 62
    64
 10
19.77414
 20
-67.858978
 11
20.020448
 21
-67.90286
  0
LINE
  8
ボルト／ビス
  6
CONTINUOUS
 62
    64
 10
19.944445
 20
-68.329478
 11
19.698135
 21
-68.285595
  0
LINE
  8
ボルト／ビス
  6
CONTINUOUS
 62
    64
 10
19.612985
 20
-68.050348
 11
19.698135
 21
-68.285595
  0
LINE
  8
ボルト／ビス
  6
CONTINUOUS
 62
    64
 10
20.1056
 20
-68.13811
 11
19.944445
 21
-68.329478
  0
LINE
  8
ボルト／ビス
  6
CONTINUOUS
 62
    64
 10
19.77414
 20
-67.858978
 11
19.612985
 21
-68.050348
  0
CIRCLE
  8
ボルト／ビス
  6
CONTINUOUS
 62
    64
 10
19.859293
 20
-68.094228
 40
0.216668
  0
CIRCLE
  8
ボルト／ビス
  6
CONTINUOUS
 10
11.368872
 20
-60.944203
 40
0.250185
  0
CIRCLE
  8
ボルト／ビス
  6
CONTINUOUS
 10
11.368872
 20
-60.944203
 40
0.301025
  0
LINE
  8
ボルト／ビス
  6
CONTINUOUS
 62
    64
 10
11.28372
 20
-60.708953
 11
11.53003
 21
-60.752837
  0
LINE
  8
ボルト／ビス
  6
CONTINUOUS
 62
    64
 10
11.615183
 20
-60.988085
 11
11.53003
 21
-60.752837
  0
LINE
  8
ボルト／ビス
  6
CONTINUOUS
 62
    64
 10
11.122567
 20
-60.90032
 11
11.207718
 21
-61.135567
  0
LINE
  8
ボルト／ビス
  6
CONTINUOUS
 62
    64
 10
11.454027
 20
-61.179453
 11
11.207718
 21
-61.135567
  0
LINE
  8
ボルト／ビス
  6
CONTINUOUS
 62
    64
 10
11.28372
 20
-60.708953
 11
11.122567
 21
-60.90032
  0
LINE
  8
ボルト／ビス
  6
CONTINUOUS
 62
    64
 10
11.615183
 20
-60.988085
 11
11.454027
 21
-61.179453
  0
CIRCLE
  8
ボルト／ビス
  6
CONTINUOUS
 62
    64
 10
11.368872
 20
-60.944203
 40
0.216668
  0
ENDBLK
  0
BLOCK
  2
*GRP_0015
 70
    65
 10
0.0
 20
0.0
  0
LINE
  8
補助線
  6
BYBLOCK
 62
    64
 10
11.432618
 20
-75.190572
 11
11.305133
 21
-75.297933
  0
LINE
  8
補助線
  6
BYBLOCK
 62
    64
 10
11.315195
 20
-75.180508
 11
11.422555
 21
-75.307995
  0
LINE
  8
補助線
  6
BYBLOCK
 62
    64
 10
19.923035
 20
-68.04055
 11
19.79555
 21
-68.147905
  0
LINE
  8
補助線
  6
BYBLOCK
 62
    64
 10
19.805612
 20
-68.030485
 11
19.912973
 21
-68.157967
  0
LINE
  8
補助線
  6
BYBLOCK
 62
    64
 10
28.28597
 20
-60.99788
 11
28.413452
 21
-60.890523
  0
LINE
  8
補助線
  6
BYBLOCK
 62
    64
 10
28.29603
 20
-60.880458
 11
28.40339
 21
-61.007945
  0
LINE
  8
型材断面
  6
CONTINUOUS
 10
10.57712
 20
-74.82155
 11
10.516742
 21
-75.526075
  0
LINE
  8
型材断面
  6
CONTINUOUS
 10
10.516742
 20
-75.526075
 11
10.946175
 21
-76.03601
  0
LINE
  8
型材断面
  6
CONTINUOUS
 10
10.946175
 20
-76.03601
 11
11.6507
 21
-76.096388
  0
LINE
  8
型材断面
  6
CONTINUOUS
 10
28.067887
 20
-60.09207
 11
28.772413
 21
-60.152448
  0
LINE
  8
型材断面
  6
CONTINUOUS
 10
28.772413
 20
-60.152448
 11
29.201845
 21
-60.662382
  0
LINE
  8
型材断面
  6
CONTINUOUS
 10
29.201845
 20
-60.662382
 11
29.141467
 21
-61.366907
  0
LINE
  8
型材断面
  6
CONTINUOUS
 10
10.57712
 20
-74.82155
 11
28.067887
 21
-60.09207
  0
LINE
  8
型材断面
  6
CONTINUOUS
 10
11.6507
 20
-76.096388
 11
29.141467
 21
-61.366907
  0
CIRCLE
  8
ボルト／ビス
  6
CONTINUOUS
 10
11.368875
 20
-75.244253
 40
0.250185
  0
CIRCLE
  8
ボルト／ビス
  6
CONTINUOUS
 10
11.368875
 20
-75.244253
 40
0.301025
  0
LINE
  8
ボルト／ビス
  6
CONTINUOUS
 62
    64
 10
11.122567
 20
-75.288135
 11
11.20772
 21
-75.052887
  0
LINE
  8
ボルト／ビス
  6
CONTINUOUS
 62
    64
 10
11.454027
 20
-75.009003
 11
11.20772
 21
-75.052887
  0
LINE
  8
ボルト／ビス
  6
CONTINUOUS
 62
    64
 10
11.283722
 20
-75.479503
 11
11.53003
 21
-75.435617
  0
LINE
  8
ボルト／ビス
  6
CONTINUOUS
 62
    64
 10
11.615183
 20
-75.20037
 11
11.53003
 21
-75.435617
  0
LINE
  8
ボルト／ビス
  6
CONTINUOUS
 62
    64
 10
11.122567
 20
-75.288135
 11
11.283722
 21
-75.479503
  0
LINE
  8
ボルト／ビス
  6
CONTINUOUS
 62
    64
 10
11.454027
 20
-75.009003
 11
11.615183
 21
-75.20037
  0
CIRCLE
  8
ボルト／ビス
  6
CONTINUOUS
 62
    64
 10
11.368875
 20
-75.244253
 40
0.216668
  0
CIRCLE
  8
ボルト／ビス
  6
CONTINUOUS
 10
19.859293
 20
-68.094228
 40
0.250185
  0
CIRCLE
  8
ボルト／ビス
  6
CONTINUOUS
 10
19.859293
 20
-68.094228
 40
0.301025
  0
LINE
  8
ボルト／ビス
  6
CONTINUOUS
 62
    64
 10
19.612985
 20
-68.13811
 11
19.698137
 21
-67.90286
  0
LINE
  8
ボルト／ビス
  6
CONTINUOUS
 62
    64
 10
19.944445
 20
-67.858978
 11
19.698137
 21
-67.90286
  0
LINE
  8
ボルト／ビス
  6
CONTINUOUS
 62
    64
 10
19.77414
 20
-68.329478
 11
20.02045
 21
-68.285595
  0
LINE
  8
ボルト／ビス
  6
CONTINUOUS
 62
    64
 10
20.1056
 20
-68.050348
 11
20.02045
 21
-68.285595
  0
LINE
  8
ボルト／ビス
  6
CONTINUOUS
 62
    64
 10
19.612985
 20
-68.13811
 11
19.77414
 21
-68.329478
  0
LINE
  8
ボルト／ビス
  6
CONTINUOUS
 62
    64
 10
19.944445
 20
-67.858978
 11
20.1056
 21
-68.050348
  0
CIRCLE
  8
ボルト／ビス
  6
CONTINUOUS
 62
    64
 10
19.859293
 20
-68.094228
 40
0.216668
  0
CIRCLE
  8
ボルト／ビス
  6
CONTINUOUS
 10
28.349712
 20
-60.944203
 40
0.250185
  0
CIRCLE
  8
ボルト／ビス
  6
CONTINUOUS
 10
28.349712
 20
-60.944203
 40
0.301025
  0
LINE
  8
ボルト／ビス
  6
CONTINUOUS
 62
    64
 10
28.434865
 20
-60.708953
 11
28.188555
 21
-60.752837
  0
LINE
  8
ボルト／ビス
  6
CONTINUOUS
 62
    64
 10
28.103403
 20
-60.988085
 11
28.188555
 21
-60.752837
  0
LINE
  8
ボルト／ビス
  6
CONTINUOUS
 62
    64
 10
28.596018
 20
-60.90032
 11
28.510867
 21
-61.135567
  0
LINE
  8
ボルト／ビス
  6
CONTINUOUS
 62
    64
 10
28.264558
 20
-61.179453
 11
28.510867
 21
-61.135567
  0
LINE
  8
ボルト／ビス
  6
CONTINUOUS
 62
    64
 10
28.434865
 20
-60.708953
 11
28.596018
 21
-60.90032
  0
LINE
  8
ボルト／ビス
  6
CONTINUOUS
 62
    64
 10
28.103403
 20
-60.988085
 11
28.264558
 21
-61.179453
  0
CIRCLE
  8
ボルト／ビス
  6
CONTINUOUS
 62
    64
 10
28.349712
 20
-60.944203
 40
0.216668
  0
ENDBLK
  0
BLOCK
  2
*DIM_0016
 70
    65
 10
0.0
 20
0.0
  0
LINE
  8
寸法
  6
BYBLOCK
 62
     0
 10
129.54964
 20
57.4807
 11
129.54964
 21
68.369967
  0
LINE
  8
寸法
  6
BYBLOCK
 62
     0
 10
136.583143
 20
57.797367
 11
136.583143
 21
68.369967
  0
LINE
  8
寸法
  6
BYBLOCK
 62
     0
 10
129.54964
 20
68.369967
 11
136.583143
 21
68.369967
  0
POINT
  8
寸法
 62
     0
 10
129.54964
 20
68.369967
  0
POINT
  8
寸法
 62
     0
 10
136.583143
 20
68.369967
  0
TEXT
  7
TextStyle03
  8
寸法
  6
CONTINUOUS
 62
     0
 10
130.6125
 20
68.725
  1
211
 40
3.0
 72
     5
 11
135.4875
 21
68.725
  0
ENDBLK
  0
BLOCK
  2
*DIM_0017
 70
    65
 10
0.0
 20
0.0
  0
LINE
  8
寸法
  6
BYBLOCK
 62
     0
 10
127.926425
 20
54.797367
 11
74.036025
 21
54.797367
  0
LINE
  8
寸法
  6
BYBLOCK
 62
     0
 10
74.036025
 20
52.814033
 11
74.036025
 21
54.797367
  0
POINT
  8
寸法
 62
     0
 10
74.036025
 20
52.814033
  0
POINT
  8
寸法
 62
     0
 10
74.036025
 20
54.797367
  0
TEXT
  7
TextStyle03
  8
寸法
  6
CONTINUOUS
 62
     0
 10
73.625
 20
57.26875
  1
59.5
 40
3.0
 50
90.0
 72
     5
 11
73.625
 21
63.83125
  0
ENDBLK
  0
BLOCK
  2
*DIM_0018
 70
    65
 10
0.0
 20
0.0
  0
LINE
  8
寸法
  6
BYBLOCK
 62
     0
 10
127.926425
 20
20.8307
 11
74.036025
 21
20.8307
  0
LINE
  8
寸法
  6
BYBLOCK
 62
     0
 10
74.036025
 20
22.814033
 11
74.036025
 21
20.8307
  0
POINT
  8
寸法
 62
     0
 10
74.036025
 20
22.814033
  0
POINT
  8
寸法
 62
     0
 10
74.036025
 20
20.8307
  0
TEXT
  7
TextStyle03
  8
寸法
  6
CONTINUOUS
 62
     0
 10
73.625
 20
11.76875
  1
59.5
 40
3.0
 50
90.0
 72
     5
 11
73.625
 21
18.33125
  0
ENDBLK
  0
BLOCK
  2
*DIM_0019
 70
    65
 10
0.0
 20
0.0
  0
LINE
  8
寸法
  6
BYBLOCK
 62
     0
 10
44.683043
 20
-70.209613
 11
55.986025
 21
-70.209613
  0
LINE
  8
寸法
  6
BYBLOCK
 62
     0
 10
44.99971
 20
-77.243115
 11
55.986025
 21
-77.243115
  0
LINE
  8
寸法
  6
BYBLOCK
 62
     0
 10
55.986025
 20
-70.209613
 11
55.986025
 21
-77.243115
  0
POINT
  8
寸法
 62
     0
 10
55.986025
 20
-70.209613
  0
POINT
  8
寸法
 62
     0
 10
55.986025
 20
-77.243115
  0
TEXT
  7
TextStyle03
  8
寸法
  6
CONTINUOUS
 62
     0
 10
55.6
 20
-76.1875
  1
211
 40
3.0
 50
90.0
 72
     5
 11
55.6
 21
-71.3125
  0
ENDBLK
  0
BLOCK
  2
*DIM_0020
 70
    65
 10
0.0
 20
0.0
  0
LINE
  8
寸法
  6
BYBLOCK
 62
     0
 10
41.99971
 20
-68.586398
 11
41.99971
 21
-13.121378
  0
LINE
  8
寸法
  6
BYBLOCK
 62
     0
 10
40.016375
 20
-13.121378
 11
41.99971
 21
-13.121378
  0
POINT
  8
寸法
 62
     0
 10
40.016375
 20
-13.121378
  0
POINT
  8
寸法
 62
     0
 10
41.99971
 20
-13.121378
  0
TEXT
  7
TextStyle03
  8
寸法
  6
CONTINUOUS
 62
     0
 10
44.46875
 20
-12.75
  1
59.5
 40
3.0
 72
     5
 11
51.03125
 21
-12.75
  0
ENDBLK
  0
BLOCK
  2
*DIM_0021
 70
    65
 10
0.0
 20
0.0
  0
LINE
  8
寸法
  6
BYBLOCK
 62
     0
 10
-78.633625
 20
-68.586398
 11
-78.633625
 21
-13.121378
  0
LINE
  8
寸法
  6
BYBLOCK
 62
     0
 10
-76.650292
 20
-13.121378
 11
-78.633625
 21
-13.121378
  0
POINT
  8
寸法
 62
     0
 10
-76.650292
 20
-13.121378
  0
POINT
  8
寸法
 62
     0
 10
-78.633625
 20
-13.121378
  0
TEXT
  7
TextStyle03
  8
寸法
  6
CONTINUOUS
 62
     0
 10
-87.68125
 20
-12.75
  1
59.5
 40
3.0
 72
     5
 11
-81.11875
 21
-12.75
  0
ENDBLK
  0
BLOCK
  2
*DIM_0022
 70
    65
 10
0.0
 20
0.0
  0
LINE
  8
寸法
  6
BYBLOCK
 62
     0
 10
-79.650292
 20
47.814033
 11
-92.94313
 21
47.814033
  0
LINE
  8
寸法
  6
BYBLOCK
 62
     0
 10
-79.650292
 20
27.814033
 11
-92.94313
 21
27.814033
  0
LINE
  8
寸法
  6
BYBLOCK
 62
     0
 10
-92.94313
 20
47.814033
 11
-92.94313
 21
27.814033
  0
POINT
  8
寸法
 62
     0
 10
-92.94313
 20
47.814033
  0
POINT
  8
寸法
 62
     0
 10
-92.94313
 20
27.814033
  0
TEXT
  7
TextStyle03
  8
寸法
  6
CONTINUOUS
 62
     0
 10
-93.325
 20
35.3625
  1
600
 40
3.0
 50
90.0
 72
     5
 11
-93.325
 21
40.2375
  0
ENDBLK
  0
BLOCK
  2
*DIM_0023
 70
    65
 10
0.0
 20
0.0
  0
LINE
  8
寸法
  6
BYBLOCK
 62
     0
 10
-71.65029
 20
55.814033
 11
-71.65029
 21
84.922105
  0
LINE
  8
寸法
  6
BYBLOCK
 62
     0
 10
-44.983625
 20
55.814033
 11
-44.983625
 21
84.922105
  0
LINE
  8
寸法
  6
BYBLOCK
 62
     0
 10
-71.65029
 20
84.922105
 11
-44.983625
 21
84.922105
  0
POINT
  8
寸法
 62
     0
 10
-71.65029
 20
84.922105
  0
POINT
  8
寸法
 62
     0
 10
-44.983625
 20
84.922105
  0
TEXT
  7
TextStyle03
  8
寸法
  6
CONTINUOUS
 62
     0
 10
-60.7625
 20
85.3
  1
800
 40
3.0
 72
     5
 11
-55.8875
 21
85.3
  0
ENDBLK
  0
BLOCK
  2
*DIM_0024
 70
    65
 10
0.0
 20
0.0
  0
LINE
  8
寸法
  6
BYBLOCK
 62
     0
 10
-18.316957
 20
55.814033
 11
-18.316957
 21
84.922105
  0
LINE
  8
寸法
  6
BYBLOCK
 62
     0
 10
-44.983625
 20
84.922105
 11
-18.316957
 21
84.922105
  0
POINT
  8
寸法
 62
     0
 10
-18.316957
 20
84.922105
  0
TEXT
  7
TextStyle03
  8
寸法
  6
CONTINUOUS
 62
     0
 10
-34.1125
 20
85.3
  1
800
 40
3.0
 72
     5
 11
-29.2375
 21
85.3
  0
ENDBLK
  0
BLOCK
  2
*DIM_0025
 70
    65
 10
0.0
 20
0.0
  0
LINE
  8
寸法
  6
BYBLOCK
 62
     0
 10
8.34971
 20
55.814033
 11
8.34971
 21
84.922105
  0
LINE
  8
寸法
  6
BYBLOCK
 62
     0
 10
-18.316957
 20
84.922105
 11
8.34971
 21
84.922105
  0
POINT
  8
寸法
 62
     0
 10
8.34971
 20
84.922105
  0
TEXT
  7
TextStyle03
  8
寸法
  6
CONTINUOUS
 62
     0
 10
-7.4375
 20
85.3
  1
800
 40
3.0
 72
     5
 11
-2.5625
 21
85.3
  0
ENDBLK
  0
BLOCK
  2
*DIM_0026
 70
    65
 10
0.0
 20
0.0
  0
LINE
  8
寸法
  6
BYBLOCK
 62
     0
 10
35.016375
 20
55.814033
 11
35.016375
 21
84.922105
  0
LINE
  8
寸法
  6
BYBLOCK
 62
     0
 10
8.34971
 20
84.922105
 11
35.016375
 21
84.922105
  0
POINT
  8
寸法
 62
     0
 10
35.016375
 20
84.922105
  0
TEXT
  7
TextStyle03
  8
寸法
  6
CONTINUOUS
 62
     0
 10
19.2375
 20
85.3
  1
800
 40
3.0
 72
     5
 11
24.1125
 21
85.3
  0
ENDBLK
  0
BLOCK
  2
*GRP_0028
 70
    65
 10
0.0
 20
0.0
  0
LINE
  8
ボルト／ビス
  6
CONTINUOUS
 10
129.54964
 20
22.147365
 11
129.082975
 21
22.147365
  0
LINE
  8
ボルト／ビス
  6
CONTINUOUS
 10
129.54964
 20
21.7807
 11
129.482975
 21
21.7807
  0
LINE
  8
ボルト／ビス
  6
CONTINUOUS
 10
129.482975
 20
21.7807
 11
129.482975
 21
22.514033
  0
LINE
  8
ボルト／ビス
  6
CONTINUOUS
 10
129.482975
 20
22.514033
 11
129.54964
 21
22.514033
  0
LINE
  8
ボルト／ビス
  6
CONTINUOUS
 10
129.54964
 20
21.7807
 11
129.54964
 21
22.514033
  0
LINE
  8
ボルト／ビス
  6
CONTINUOUS
 10
129.44964
 20
21.847365
 11
129.482975
 21
21.847365
  0
LINE
  8
ボルト／ビス
  6
CONTINUOUS
 10
129.44964
 20
21.847365
 11
129.44964
 21
22.447365
  0
LINE
  8
ボルト／ビス
  6
CONTINUOUS
 10
129.44964
 20
22.447365
 11
129.482975
 21
22.447365
  0
LINE
  8
ボルト／ビス
  6
CONTINUOUS
 62
    64
 10
129.24964
 20
21.98699
 11
129.261315
 21
21.954915
  0
ARC
  8
ボルト／ビス
  6
CONTINUOUS
 62
    64
 10
129.354621
 20
22.003029
 40
0.104978
 50
152.721967
 51
180.0
  0
ARC
  8
ボルト／ビス
  6
CONTINUOUS
 62
    64
 10
129.652044
 20
22.147367
 40
0.402402
 50
166.165002
 51
193.834985
  0
LINE
  8
ボルト／ビス
  6
CONTINUOUS
 62
    64
 10
129.24964
 20
22.30774
 11
129.261315
 21
22.339815
  0
ARC
  8
ボルト／ビス
  6
CONTINUOUS
 62
    64
 10
129.354621
 20
22.291704
 40
0.104978
 50
180.0
 51
207.278033
  0
LINE
  8
ボルト／ビス
  6
CONTINUOUS
 62
    64
 10
129.24964
 20
21.98699
 11
129.24964
 21
22.30774
  0
LINE
  8
ボルト／ビス
  6
CONTINUOUS
 62
    64
 10
129.261315
 20
22.339815
 11
129.382975
 21
22.339815
  0
LINE
  8
ボルト／ビス
  6
CONTINUOUS
 62
    64
 10
129.261315
 20
22.24359
 11
129.382975
 21
22.24359
  0
LINE
  8
ボルト／ビス
  6
CONTINUOUS
 62
    64
 10
129.261315
 20
21.954915
 11
129.382975
 21
21.954915
  0
LINE
  8
ボルト／ビス
  6
CONTINUOUS
 62
    64
 10
129.261315
 20
22.05114
 11
129.382975
 21
22.05114
  0
LINE
  8
ボルト／ビス
  6
CONTINUOUS
 10
129.382975
 20
21.954915
 11
129.382975
 21
22.339815
  0
LINE
  8
ボルト／ビス
  6
CONTINUOUS
 10
129.382975
 20
21.947365
 11
129.44964
 21
21.947365
  0
LINE
  8
ボルト／ビス
  6
CONTINUOUS
 10
129.382975
 20
21.947365
 11
129.382975
 21
22.347365
  0
LINE
  8
ボルト／ビス
  6
CONTINUOUS
 10
129.382975
 20
22.347365
 11
129.44964
 21
22.347365
  0
ENDBLK
  0
BLOCK
  2
*GRP_0029
 70
    65
 10
0.0
 20
0.0
  0
LINE
  8
ボルト／ビス
  6
CONTINUOUS
 10
129.54964
 20
53.4807
 11
129.082975
 21
53.4807
  0
LINE
  8
ボルト／ビス
  6
CONTINUOUS
 10
129.54964
 20
53.847365
 11
129.482975
 21
53.847365
  0
LINE
  8
ボルト／ビス
  6
CONTINUOUS
 10
129.482975
 20
53.847365
 11
129.482975
 21
53.114033
  0
LINE
  8
ボルト／ビス
  6
CONTINUOUS
 10
129.482975
 20
53.114033
 11
129.54964
 21
53.114033
  0
LINE
  8
ボルト／ビス
  6
CONTINUOUS
 10
129.54964
 20
53.847365
 11
129.54964
 21
53.114033
  0
LINE
  8
ボルト／ビス
  6
CONTINUOUS
 10
129.44964
 20
53.7807
 11
129.482975
 21
53.7807
  0
LINE
  8
ボルト／ビス
  6
CONTINUOUS
 10
129.44964
 20
53.7807
 11
129.44964
 21
53.1807
  0
LINE
  8
ボルト／ビス
  6
CONTINUOUS
 10
129.44964
 20
53.1807
 11
129.482975
 21
53.1807
  0
LINE
  8
ボルト／ビス
  6
CONTINUOUS
 62
    64
 10
129.24964
 20
53.641075
 11
129.261315
 21
53.67315
  0
ARC
  8
ボルト／ビス
  6
CONTINUOUS
 62
    64
 10
129.354621
 20
53.625036
 40
0.104978
 50
180.0
 51
207.278033
  0
ARC
  8
ボルト／ビス
  6
CONTINUOUS
 62
    64
 10
129.652044
 20
53.480698
 40
0.402402
 50
166.165015
 51
193.834998
  0
LINE
  8
ボルト／ビス
  6
CONTINUOUS
 62
    64
 10
129.24964
 20
53.320325
 11
129.261315
 21
53.28825
  0
ARC
  8
ボルト／ビス
  6
CONTINUOUS
 62
    64
 10
129.354621
 20
53.336361
 40
0.104978
 50
152.721967
 51
180.0
  0
LINE
  8
ボルト／ビス
  6
CONTINUOUS
 62
    64
 10
129.24964
 20
53.641075
 11
129.24964
 21
53.320325
  0
LINE
  8
ボルト／ビス
  6
CONTINUOUS
 62
    64
 10
129.261315
 20
53.28825
 11
129.382975
 21
53.28825
  0
LINE
  8
ボルト／ビス
  6
CONTINUOUS
 62
    64
 10
129.261315
 20
53.384475
 11
129.382975
 21
53.384475
  0
LINE
  8
ボルト／ビス
  6
CONTINUOUS
 62
    64
 10
129.261315
 20
53.67315
 11
129.382975
 21
53.67315
  0
LINE
  8
ボルト／ビス
  6
CONTINUOUS
 62
    64
 10
129.261315
 20
53.576925
 11
129.382975
 21
53.576925
  0
LINE
  8
ボルト／ビス
  6
CONTINUOUS
 10
129.382975
 20
53.67315
 11
129.382975
 21
53.28825
  0
LINE
  8
ボルト／ビス
  6
CONTINUOUS
 10
129.382975
 20
53.6807
 11
129.44964
 21
53.6807
  0
LINE
  8
ボルト／ビス
  6
CONTINUOUS
 10
129.382975
 20
53.6807
 11
129.382975
 21
53.2807
  0
LINE
  8
ボルト／ビス
  6
CONTINUOUS
 10
129.382975
 20
53.2807
 11
129.44964
 21
53.2807
  0
ENDBLK
  0
BLOCK
  2
*GRP_0030
 70
    65
 10
0.0
 20
0.0
  0
LINE
  8
ボルト／ビス
  6
CONTINUOUS
 10
40.683043
 20
-70.209613
 11
40.683043
 21
-69.742947
  0
LINE
  8
ボルト／ビス
  6
CONTINUOUS
 10
40.316378
 20
-70.209613
 11
40.316378
 21
-70.142947
  0
LINE
  8
ボルト／ビス
  6
CONTINUOUS
 10
40.316378
 20
-70.142947
 11
41.04971
 21
-70.142947
  0
LINE
  8
ボルト／ビス
  6
CONTINUOUS
 10
41.04971
 20
-70.142947
 11
41.04971
 21
-70.209613
  0
LINE
  8
ボルト／ビス
  6
CONTINUOUS
 10
40.316378
 20
-70.209613
 11
41.04971
 21
-70.209613
  0
LINE
  8
ボルト／ビス
  6
CONTINUOUS
 10
40.383043
 20
-70.109612
 11
40.383043
 21
-70.142947
  0
LINE
  8
ボルト／ビス
  6
CONTINUOUS
 10
40.383043
 20
-70.109612
 11
40.983043
 21
-70.109612
  0
LINE
  8
ボルト／ビス
  6
CONTINUOUS
 10
40.983043
 20
-70.109612
 11
40.983043
 21
-70.142947
  0
LINE
  8
ボルト／ビス
  6
CONTINUOUS
 62
    64
 10
40.522667
 20
-69.909613
 11
40.490592
 21
-69.921288
  0
ARC
  8
ボルト／ビス
  6
CONTINUOUS
 62
    64
 10
40.538706
 20
-70.014592
 40
0.104978
 50
62.721967
 51
90.0
  0
ARC
  8
ボルト／ビス
  6
CONTINUOUS
 62
    64
 10
40.683044
 20
-70.312016
 40
0.402402
 50
76.165002
 51
103.834985
  0
LINE
  8
ボルト／ビス
  6
CONTINUOUS
 62
    64
 10
40.843418
 20
-69.909613
 11
40.875492
 21
-69.921288
  0
ARC
  8
ボルト／ビス
  6
CONTINUOUS
 62
    64
 10
40.827381
 20
-70.014592
 40
0.104978
 50
90.0
 51
117.278033
  0
LINE
  8
ボルト／ビス
  6
CONTINUOUS
 62
    64
 10
40.522667
 20
-69.909613
 11
40.843418
 21
-69.909613
  0
LINE
  8
ボルト／ビス
  6
CONTINUOUS
 62
    64
 10
40.875492
 20
-69.921288
 11
40.875492
 21
-70.042947
  0
LINE
  8
ボルト／ビス
  6
CONTINUOUS
 62
    64
 10
40.779268
 20
-69.921288
 11
40.779268
 21
-70.042947
  0
LINE
  8
ボルト／ビス
  6
CONTINUOUS
 62
    64
 10
40.490592
 20
-69.921288
 11
40.490592
 21
-70.042947
  0
LINE
  8
ボルト／ビス
  6
CONTINUOUS
 62
    64
 10
40.586817
 20
-69.921288
 11
40.586817
 21
-70.042947
  0
LINE
  8
ボルト／ビス
  6
CONTINUOUS
 10
40.490592
 20
-70.042947
 11
40.875492
 21
-70.042947
  0
LINE
  8
ボルト／ビス
  6
CONTINUOUS
 10
40.483043
 20
-70.042947
 11
40.483043
 21
-70.109612
  0
LINE
  8
ボルト／ビス
  6
CONTINUOUS
 10
40.483043
 20
-70.042947
 11
40.883043
 21
-70.042947
  0
LINE
  8
ボルト／ビス
  6
CONTINUOUS
 10
40.883043
 20
-70.042947
 11
40.883043
 21
-70.109612
  0
ENDBLK
  0
BLOCK
  2
*GRP_0031
 70
    65
 10
0.0
 20
0.0
  0
LINE
  8
ボルト／ビス
  6
DOT
 10
40.683043
 20
-58.54295
 11
40.683043
 21
-58.076285
  0
LINE
  8
ボルト／ビス
  6
DOT
 10
40.316378
 20
-58.54295
 11
40.316378
 21
-58.476285
  0
LINE
  8
ボルト／ビス
  6
DOT
 10
40.316378
 20
-58.476285
 11
41.04971
 21
-58.476285
  0
LINE
  8
ボルト／ビス
  6
DOT
 10
41.04971
 20
-58.476285
 11
41.04971
 21
-58.54295
  0
LINE
  8
ボルト／ビス
  6
DOT
 10
40.316378
 20
-58.54295
 11
41.04971
 21
-58.54295
  0
LINE
  8
ボルト／ビス
  6
DOT
 10
40.383043
 20
-58.44295
 11
40.383043
 21
-58.476285
  0
LINE
  8
ボルト／ビス
  6
DOT
 10
40.383043
 20
-58.44295
 11
40.983043
 21
-58.44295
  0
LINE
  8
ボルト／ビス
  6
DOT
 10
40.983043
 20
-58.44295
 11
40.983043
 21
-58.476285
  0
LINE
  8
ボルト／ビス
  6
DOT
 62
    64
 10
40.522667
 20
-58.24295
 11
40.490592
 21
-58.254625
  0
ARC
  8
ボルト／ビス
  6
DOT
 62
    64
 10
40.538706
 20
-58.34793
 40
0.104978
 50
62.721967
 51
90.0
  0
ARC
  8
ボルト／ビス
  6
DOT
 62
    64
 10
40.683044
 20
-58.645354
 40
0.402402
 50
76.165002
 51
103.834985
  0
LINE
  8
ボルト／ビス
  6
DOT
 62
    64
 10
40.843418
 20
-58.24295
 11
40.875492
 21
-58.254625
  0
ARC
  8
ボルト／ビス
  6
DOT
 62
    64
 10
40.827381
 20
-58.34793
 40
0.104978
 50
90.0
 51
117.278033
  0
LINE
  8
ボルト／ビス
  6
DOT
 62
    64
 10
40.522667
 20
-58.24295
 11
40.843418
 21
-58.24295
  0
LINE
  8
ボルト／ビス
  6
DOT
 62
    64
 10
40.875492
 20
-58.254625
 11
40.875492
 21
-58.376285
  0
LINE
  8
ボルト／ビス
  6
DOT
 62
    64
 10
40.779268
 20
-58.254625
 11
40.779268
 21
-58.376285
  0
LINE
  8
ボルト／ビス
  6
DOT
 62
    64
 10
40.490592
 20
-58.254625
 11
40.490592
 21
-58.376285
  0
LINE
  8
ボルト／ビス
  6
DOT
 62
    64
 10
40.586817
 20
-58.254625
 11
40.586817
 21
-58.376285
  0
LINE
  8
ボルト／ビス
  6
DOT
 10
40.490592
 20
-58.376285
 11
40.875492
 21
-58.376285
  0
LINE
  8
ボルト／ビス
  6
DOT
 10
40.483043
 20
-58.376285
 11
40.483043
 21
-58.44295
  0
LINE
  8
ボルト／ビス
  6
DOT
 10
40.483043
 20
-58.376285
 11
40.883043
 21
-58.376285
  0
LINE
  8
ボルト／ビス
  6
DOT
 10
40.883043
 20
-58.376285
 11
40.883043
 21
-58.44295
  0
ENDBLK
  0
BLOCK
  2
*GRP_0032
 70
    65
 10
0.0
 20
0.0
  0
LINE
  8
ボルト／ビス
  6
CONTINUOUS
 10
-77.316957
 20
-70.209613
 11
-77.316957
 21
-69.742947
  0
LINE
  8
ボルト／ビス
  6
CONTINUOUS
 10
-76.950292
 20
-70.209613
 11
-76.950292
 21
-70.142947
  0
LINE
  8
ボルト／ビス
  6
CONTINUOUS
 10
-76.950292
 20
-70.142947
 11
-77.683625
 21
-70.142947
  0
LINE
  8
ボルト／ビス
  6
CONTINUOUS
 10
-77.683625
 20
-70.142947
 11
-77.683625
 21
-70.209613
  0
LINE
  8
ボルト／ビス
  6
CONTINUOUS
 10
-76.950292
 20
-70.209613
 11
-77.683625
 21
-70.209613
  0
LINE
  8
ボルト／ビス
  6
CONTINUOUS
 10
-77.016957
 20
-70.109612
 11
-77.016957
 21
-70.142947
  0
LINE
  8
ボルト／ビス
  6
CONTINUOUS
 10
-77.016957
 20
-70.109612
 11
-77.616957
 21
-70.109612
  0
LINE
  8
ボルト／ビス
  6
CONTINUOUS
 10
-77.616957
 20
-70.109612
 11
-77.616957
 21
-70.142947
  0
LINE
  8
ボルト／ビス
  6
CONTINUOUS
 62
    64
 10
-77.156582
 20
-69.909613
 11
-77.124507
 21
-69.921288
  0
ARC
  8
ボルト／ビス
  6
CONTINUOUS
 62
    64
 10
-77.172621
 20
-70.014592
 40
0.104978
 50
90.0
 51
117.278033
  0
ARC
  8
ボルト／ビス
  6
CONTINUOUS
 62
    64
 10
-77.316959
 20
-70.312016
 40
0.402402
 50
76.165015
 51
103.834998
  0
LINE
  8
ボルト／ビス
  6
CONTINUOUS
 62
    64
 10
-77.477333
 20
-69.909613
 11
-77.509407
 21
-69.921288
  0
ARC
  8
ボルト／ビス
  6
CONTINUOUS
 62
    64
 10
-77.461296
 20
-70.014592
 40
0.104978
 50
62.721967
 51
90.0
  0
LINE
  8
ボルト／ビス
  6
CONTINUOUS
 62
    64
 10
-77.156582
 20
-69.909613
 11
-77.477333
 21
-69.909613
  0
LINE
  8
ボルト／ビス
  6
CONTINUOUS
 62
    64
 10
-77.509407
 20
-69.921288
 11
-77.509407
 21
-70.042947
  0
LINE
  8
ボルト／ビス
  6
CONTINUOUS
 62
    64
 10
-77.413183
 20
-69.921288
 11
-77.413183
 21
-70.042947
  0
LINE
  8
ボルト／ビス
  6
CONTINUOUS
 62
    64
 10
-77.124507
 20
-69.921288
 11
-77.124507
 21
-70.042947
  0
LINE
  8
ボルト／ビス
  6
CONTINUOUS
 62
    64
 10
-77.220733
 20
-69.921288
 11
-77.220733
 21
-70.042947
  0
LINE
  8
ボルト／ビス
  6
CONTINUOUS
 10
-77.124507
 20
-70.042947
 11
-77.509407
 21
-70.042947
  0
LINE
  8
ボルト／ビス
  6
CONTINUOUS
 10
-77.116957
 20
-70.042947
 11
-77.116957
 21
-70.109612
  0
LINE
  8
ボルト／ビス
  6
CONTINUOUS
 10
-77.116957
 20
-70.042947
 11
-77.516957
 21
-70.042947
  0
LINE
  8
ボルト／ビス
  6
CONTINUOUS
 10
-77.516957
 20
-70.042947
 11
-77.516957
 21
-70.109612
  0
ENDBLK
  0
BLOCK
  2
*GRP_0033
 70
    65
 10
0.0
 20
0.0
  0
LINE
  8
ボルト／ビス
  6
DOT
 10
-77.316957
 20
-58.54295
 11
-77.316957
 21
-58.076285
  0
LINE
  8
ボルト／ビス
  6
DOT
 10
-76.950292
 20
-58.54295
 11
-76.950292
 21
-58.476285
  0
LINE
  8
ボルト／ビス
  6
DOT
 10
-76.950292
 20
-58.476285
 11
-77.683625
 21
-58.476285
  0
LINE
  8
ボルト／ビス
  6
DOT
 10
-77.683625
 20
-58.476285
 11
-77.683625
 21
-58.54295
  0
LINE
  8
ボルト／ビス
  6
DOT
 10
-76.950292
 20
-58.54295
 11
-77.683625
 21
-58.54295
  0
LINE
  8
ボルト／ビス
  6
DOT
 10
-77.016957
 20
-58.44295
 11
-77.016957
 21
-58.476285
  0
LINE
  8
ボルト／ビス
  6
DOT
 10
-77.016957
 20
-58.44295
 11
-77.616957
 21
-58.44295
  0
LINE
  8
ボルト／ビス
  6
DOT
 10
-77.616957
 20
-58.44295
 11
-77.616957
 21
-58.476285
  0
LINE
  8
ボルト／ビス
  6
DOT
 62
    64
 10
-77.156582
 20
-58.24295
 11
-77.124507
 21
-58.254625
  0
ARC
  8
ボルト／ビス
  6
DOT
 62
    64
 10
-77.172621
 20
-58.34793
 40
0.104978
 50
90.0
 51
117.278033
  0
ARC
  8
ボルト／ビス
  6
DOT
 62
    64
 10
-77.316959
 20
-58.645354
 40
0.402402
 50
76.165015
 51
103.834998
  0
LINE
  8
ボルト／ビス
  6
DOT
 62
    64
 10
-77.477333
 20
-58.24295
 11
-77.509407
 21
-58.254625
  0
ARC
  8
ボルト／ビス
  6
DOT
 62
    64
 10
-77.461296
 20
-58.34793
 40
0.104978
 50
62.721967
 51
90.0
  0
LINE
  8
ボルト／ビス
  6
DOT
 62
    64
 10
-77.156582
 20
-58.24295
 11
-77.477333
 21
-58.24295
  0
LINE
  8
ボルト／ビス
  6
DOT
 62
    64
 10
-77.509407
 20
-58.254625
 11
-77.509407
 21
-58.376285
  0
LINE
  8
ボルト／ビス
  6
DOT
 62
    64
 10
-77.413183
 20
-58.254625
 11
-77.413183
 21
-58.376285
  0
LINE
  8
ボルト／ビス
  6
DOT
 62
    64
 10
-77.124507
 20
-58.254625
 11
-77.124507
 21
-58.376285
  0
LINE
  8
ボルト／ビス
  6
DOT
 62
    64
 10
-77.220733
 20
-58.254625
 11
-77.220733
 21
-58.376285
  0
LINE
  8
ボルト／ビス
  6
DOT
 10
-77.124507
 20
-58.376285
 11
-77.509407
 21
-58.376285
  0
LINE
  8
ボルト／ビス
  6
DOT
 10
-77.116957
 20
-58.376285
 11
-77.116957
 21
-58.44295
  0
LINE
  8
ボルト／ビス
  6
DOT
 10
-77.116957
 20
-58.376285
 11
-77.516957
 21
-58.376285
  0
LINE
  8
ボルト／ビス
  6
DOT
 10
-77.516957
 20
-58.376285
 11
-77.516957
 21
-58.44295
  0
ENDBLK
  0
BLOCK
  2
*DIM_0034
 70
    65
 10
0.0
 20
0.0
  0
LINE
  8
寸法
  6
BYBLOCK
 62
     0
 10
28.016373
 20
-50.209613
 11
55.986025
 21
-50.209613
  0
LINE
  8
寸法
  6
BYBLOCK
 62
     0
 10
55.986025
 20
-61.87628
 11
55.986025
 21
-50.209613
  0
POINT
  8
寸法
 62
     0
 10
55.986025
 20
-61.87628
  0
POINT
  8
寸法
 62
     0
 10
55.986025
 20
-50.209613
  0
TEXT
  7
TextStyle03
  8
寸法
  6
CONTINUOUS
 62
     0
 10
55.525
 20
-48.6375
  1
上昇高さ350
 40
3.0
 50
90.0
 72
     5
 11
55.525
 21
-30.2625
  0
ENDBLK
  0
ENDSEC
  0
SECTION
  2
ENTITIES
  0
POLYLINE
  8
通り芯
  6
CONTINUOUS
 66
     1
 70
     1
  0
VERTEX
  8
通り芯
 10
-210.0
 20
-148.5
  0
VERTEX
  8
通り芯
 10
210.0
 20
-148.5
  0
VERTEX
  8
通り芯
 10
210.0
 20
148.5
  0
VERTEX
  8
通り芯
 10
-210.0
 20
148.5
  0
SEQEND
  0
INSERT
  2
*GRP_0001
  8
型材断面
  6
CONTINUOUS
 10
0.0
 20
0.0
  0
LINE
  8
型材断面
  6
DASHDOT
 10
40.016375
 20
-77.836442
 11
40.016375
 21
52.814033
  0
LINE
  8
型材断面
  6
DASHDOT
 10
-18.316957
 20
-77.836442
 11
-18.316957
 21
52.814033
  0
LINE
  8
型材断面
  6
DASHDOT
 10
-76.650292
 20
-77.836442
 11
-76.650292
 21
52.814033
  0
LINE
  8
型材断面
  6
DASHDOT
 10
137.693138
 20
22.814033
 11
-76.650292
 21
22.814033
  0
LINE
  8
型材断面
  6
DASHDOT
 10
137.693138
 20
37.814033
 11
-76.650292
 21
37.814033
  0
LINE
  8
型材断面
  6
DASHDOT
 10
137.693138
 20
52.814033
 11
-76.650292
 21
52.814033
  0
POLYLINE
  8
型材断面
  6
CONTINUOUS
 66
     1
 70
     1
  0
VERTEX
  8
型材断面
 10
-8.770652
 20
13.03811
  0
VERTEX
  8
型材断面
 10
-27.542583
 20
13.03811
  0
VERTEX
  8
型材断面
 10
-27.542583
 20
8.301267
  0
VERTEX
  8
型材断面
 10
-8.770652
 20
8.301267
  0
SEQEND
  0
POLYLINE
  8
型材断面
  6
CONTINUOUS
 66
     1
 70
     1
  0
VERTEX
  8
型材断面
 10
-8.770652
 20
62.589955
  0
VERTEX
  8
型材断面
 10
-27.542583
 20
62.589955
  0
VERTEX
  8
型材断面
 10
-27.542583
 20
67.326798
  0
VERTEX
  8
型材断面
 10
-8.770652
 20
67.326798
  0
SEQEND
  0
LINE
  8
型材断面
  6
CONTINUOUS
 10
-59.983625
 20
55.444162
 11
-61.479255
 21
58.03467
  0
LINE
  8
型材断面
  6
CONTINUOUS
 10
-59.983625
 20
55.444162
 11
-58.487995
 21
58.03467
  0
LINE
  8
型材断面
  6
CONTINUOUS
 10
-58.487995
 20
58.03467
 11
-61.479255
 21
58.03467
  0
LINE
  8
型材断面
  6
CONTINUOUS
 10
-79.280422
 20
37.814033
 11
-81.87093
 21
39.309663
  0
LINE
  8
型材断面
  6
CONTINUOUS
 10
-79.280422
 20
37.814033
 11
-81.87093
 21
36.318403
  0
LINE
  8
型材断面
  6
CONTINUOUS
 10
-81.87093
 20
36.318403
 11
-81.87093
 21
39.309663
  0
LINE
  8
型材断面
  6
CONTINUOUS
 10
-59.983625
 20
20.183902
 11
-61.479255
 21
17.593395
  0
LINE
  8
型材断面
  6
CONTINUOUS
 10
-59.983625
 20
20.183902
 11
-58.487995
 21
17.593395
  0
LINE
  8
型材断面
  6
CONTINUOUS
 10
-58.487995
 20
17.593395
 11
-61.479255
 21
17.593395
  0
LINE
  8
型材断面
  6
CONTINUOUS
 10
-130.528815
 20
90.791505
 11
-129.93276
 21
88.200998
  0
LINE
  8
型材断面
  6
CONTINUOUS
 10
-130.528815
 20
90.791505
 11
-131.124873
 21
88.200998
  0
LINE
  8
型材断面
  6
CONTINUOUS
 10
-131.124873
 20
88.200998
 11
-129.93276
 21
88.200998
  0
LINE
  8
型材断面
  6
CONTINUOUS
 10
-136.551403
 20
84.922105
 11
-90.309625
 21
84.922105
  0
LINE
  8
型材断面
  6
CONTINUOUS
 10
-130.528815
 20
97.32138
 11
-132.024445
 21
94.730873
  0
LINE
  8
型材断面
  6
CONTINUOUS
 10
-130.528815
 20
97.32138
 11
-129.033185
 21
94.730873
  0
LINE
  8
型材断面
  6
CONTINUOUS
 10
-129.033185
 20
94.730873
 11
-132.024445
 21
94.730873
  0
LINE
  8
型材断面
  6
CONTINUOUS
 10
-136.551403
 20
93.792277
 11
-90.309625
 21
93.792277
  0
LINE
  8
型材断面
  6
CONTINUOUS
 10
-136.551403
 20
79.134073
 11
-90.309625
 21
79.134073
  0
LINE
  8
型材断面
  6
CONTINUOUS
 10
23.34971
 20
55.444162
 11
24.84534
 21
58.03467
  0
LINE
  8
型材断面
  6
CONTINUOUS
 10
23.34971
 20
55.444162
 11
21.85408
 21
58.03467
  0
LINE
  8
型材断面
  6
CONTINUOUS
 10
21.85408
 20
58.03467
 11
24.84534
 21
58.03467
  0
LINE
  8
型材断面
  6
CONTINUOUS
 10
42.646508
 20
37.814033
 11
45.237015
 21
39.309663
  0
LINE
  8
型材断面
  6
CONTINUOUS
 10
42.646508
 20
37.814033
 11
45.237015
 21
36.318403
  0
LINE
  8
型材断面
  6
CONTINUOUS
 10
45.237015
 20
36.318403
 11
45.237015
 21
39.309663
  0
LINE
  8
型材断面
  6
CONTINUOUS
 10
23.34971
 20
20.183902
 11
24.84534
 21
17.593395
  0
LINE
  8
型材断面
  6
CONTINUOUS
 10
23.34971
 20
20.183902
 11
21.85408
 21
17.593395
  0
LINE
  8
型材断面
  6
CONTINUOUS
 10
21.85408
 20
17.593395
 11
24.84534
 21
17.593395
  0
LINE
  8
型材断面
  6
CONTINUOUS
 10
42.646505
 20
49.114035
 11
45.237015
 21
48.517982
  0
LINE
  8
型材断面
  6
CONTINUOUS
 10
42.646505
 20
49.114035
 11
45.237012
 21
49.710095
  0
LINE
  8
型材断面
  6
CONTINUOUS
 10
45.237012
 20
49.710095
 11
45.237015
 21
48.517982
  0
LINE
  8
型材断面
  6
CONTINUOUS
 10
42.646505
 20
26.51403
 11
45.237015
 21
27.110082
  0
LINE
  8
型材断面
  6
CONTINUOUS
 10
42.646505
 20
26.51403
 11
45.237012
 21
25.91797
  0
LINE
  8
型材断面
  6
CONTINUOUS
 10
45.237012
 20
25.91797
 11
45.237015
 21
27.110082
  0
LINE
  8
型材断面
  6
CONTINUOUS
 10
-79.28042
 20
49.114035
 11
-81.87093
 21
48.517982
  0
LINE
  8
型材断面
  6
CONTINUOUS
 10
-79.28042
 20
49.114035
 11
-81.870928
 21
49.710095
  0
LINE
  8
型材断面
  6
CONTINUOUS
 10
-81.870928
 20
49.710095
 11
-81.87093
 21
48.517982
  0
LINE
  8
型材断面
  6
CONTINUOUS
 10
-79.28042
 20
26.51403
 11
-81.87093
 21
27.110082
  0
LINE
  8
型材断面
  6
CONTINUOUS
 10
-79.28042
 20
26.51403
 11
-81.870928
 21
25.91797
  0
LINE
  8
型材断面
  6
CONTINUOUS
 10
-81.870928
 20
25.91797
 11
-81.87093
 21
27.110082
  0
INSERT
  2
*GRP_0012
  8
型材断面
  6
CONTINUOUS
 10
0.0
 20
0.0
  0
INSERT
  2
*GRP_0013
  8
型材断面
  6
CONTINUOUS
 10
0.0
 20
0.0
  0
INSERT
  2
*GRP_0014
  8
型材断面
  6
CONTINUOUS
 10
0.0
 20
0.0
  0
INSERT
  2
*GRP_0015
  8
型材断面
  6
CONTINUOUS
 10
0.0
 20
0.0
  0
LINE
  8
型材断面
  6
CONTINUOUS
 62
    47
 10
137.083143
 20
21.3307
 11
136.583143
 21
21.3307
  0
LINE
  8
型材断面
  6
CONTINUOUS
 62
    47
 10
136.583143
 20
20.8307
 11
133.266475
 21
20.8307
  0
LINE
  8
型材断面
  6
CONTINUOUS
 62
    47
 10
130.926425
 20
20.8307
 11
133.099757
 21
20.8307
  0
LINE
  8
型材断面
  6
CONTINUOUS
 62
    47
 10
130.926425
 20
21.714033
 11
130.54964
 21
21.714033
  0
LINE
  8
型材断面
  6
CONTINUOUS
 62
    47
 10
130.926425
 20
20.8307
 11
130.926425
 21
37.814033
  0
LINE
  8
型材断面
  6
CONTINUOUS
 62
    47
 10
133.266475
 20
20.8307
 11
133.266443
 21
37.814033
  0
LINE
  8
型材断面
  6
CONTINUOUS
 62
    47
 10
136.583143
 20
20.8307
 11
136.583143
 21
37.814033
  0
LINE
  8
型材断面
  6
CONTINUOUS
 62
    47
 10
137.083143
 20
21.3307
 11
137.083143
 21
37.814033
  0
LINE
  8
型材断面
  6
CONTINUOUS
 62
    47
 10
133.099757
 20
20.8307
 11
133.099757
 21
37.814033
  0
LINE
  8
型材断面
  6
CONTINUOUS
 62
    47
 10
137.083143
 20
54.297367
 11
136.583143
 21
54.297367
  0
LINE
  8
型材断面
  6
CONTINUOUS
 62
    47
 10
136.583143
 20
54.797367
 11
133.266475
 21
54.797367
  0
LINE
  8
型材断面
  6
CONTINUOUS
 62
    47
 10
130.926425
 20
54.797367
 11
133.099757
 21
54.797367
  0
LINE
  8
型材断面
  6
CONTINUOUS
 62
    47
 10
130.926425
 20
53.914033
 11
130.54964
 21
53.914033
  0
LINE
  8
型材断面
  6
CONTINUOUS
 62
    47
 10
130.926425
 20
54.797367
 11
130.926425
 21
37.814033
  0
LINE
  8
型材断面
  6
CONTINUOUS
 62
    47
 10
133.266475
 20
54.797367
 11
133.266443
 21
37.814033
  0
LINE
  8
型材断面
  6
CONTINUOUS
 62
    47
 10
136.583143
 20
54.797367
 11
136.583143
 21
37.814033
  0
LINE
  8
型材断面
  6
CONTINUOUS
 62
    47
 10
137.083143
 20
54.297367
 11
137.083143
 21
37.814033
  0
LINE
  8
型材断面
  6
CONTINUOUS
 62
    47
 10
133.099757
 20
54.797367
 11
133.099757
 21
37.814033
  0
LINE
  8
型材断面
  6
CONTINUOUS
 62
    47
 10
-78.133625
 20
-77.743115
 11
-78.133625
 21
-77.243115
  0
LINE
  8
型材断面
  6
CONTINUOUS
 62
    47
 10
-78.633625
 20
-77.243115
 11
-78.633625
 21
-73.926447
  0
LINE
  8
型材断面
  6
CONTINUOUS
 62
    47
 10
-78.633625
 20
-71.586398
 11
-78.633625
 21
-73.75973
  0
LINE
  8
型材断面
  6
CONTINUOUS
 62
    47
 10
-77.750292
 20
-71.586398
 11
-77.750292
 21
-71.209613
  0
LINE
  8
型材断面
  6
CONTINUOUS
 62
    47
 10
-78.133625
 20
-77.743115
 11
-18.316957
 21
-77.743115
  0
LINE
  8
型材断面
  6
CONTINUOUS
 62
    47
 10
-78.633625
 20
-77.243115
 11
-18.316957
 21
-77.243115
  0
LINE
  8
型材断面
  6
CONTINUOUS
 62
    47
 10
-78.633625
 20
-73.926447
 11
-18.316957
 21
-73.926332
  0
LINE
  8
型材断面
  6
CONTINUOUS
 62
    47
 10
-78.633625
 20
-73.75973
 11
-18.316957
 21
-73.75973
  0
LINE
  8
型材断面
  6
CONTINUOUS
 62
    47
 10
-78.633625
 20
-71.586398
 11
-18.316957
 21
-71.586398
  0
LINE
  8
型材断面
  6
CONTINUOUS
 62
    47
 10
41.49971
 20
-77.743115
 11
41.49971
 21
-77.243115
  0
LINE
  8
型材断面
  6
CONTINUOUS
 62
    47
 10
41.99971
 20
-77.243115
 11
41.99971
 21
-73.926447
  0
LINE
  8
型材断面
  6
CONTINUOUS
 62
    47
 10
41.99971
 20
-71.586398
 11
41.99971
 21
-73.75973
  0
LINE
  8
型材断面
  6
CONTINUOUS
 62
    47
 10
41.116378
 20
-71.586398
 11
41.116378
 21
-71.209613
  0
LINE
  8
型材断面
  6
CONTINUOUS
 62
    47
 10
41.49971
 20
-77.743115
 11
-18.316957
 21
-77.743115
  0
LINE
  8
型材断面
  6
CONTINUOUS
 62
    47
 10
41.99971
 20
-77.243115
 11
-18.316957
 21
-77.243115
  0
LINE
  8
型材断面
  6
CONTINUOUS
 62
    47
 10
41.99971
 20
-73.926447
 11
-18.316957
 21
-73.926332
  0
LINE
  8
型材断面
  6
CONTINUOUS
 62
    47
 10
41.99971
 20
-73.75973
 11
-18.316957
 21
-73.75973
  0
LINE
  8
型材断面
  6
CONTINUOUS
 62
    47
 10
41.99971
 20
-71.586398
 11
-18.316957
 21
-71.586398
  0
LINE
  8
型材断面
  6
CONTINUOUS
 10
-136.551403
 20
73.34604
 11
-90.309625
 21
73.34604
  0
LINE
  8
型材断面
  6
DOT
 10
-36.57807
 20
22.814033
 11
-36.57807
 21
52.814033
  0
LINE
  8
型材断面
  6
DOT
 10
-39.07807
 20
22.814033
 11
-39.07807
 21
52.814033
  0
LINE
  8
型材断面
  6
DASHDOT
 10
-37.82807
 20
22.814033
 11
-37.82807
 21
52.814033
  0
LINE
  8
型材断面
  6
DOT
 10
-0.055845
 20
22.814033
 11
-0.055845
 21
52.814033
  0
LINE
  8
型材断面
  6
DOT
 10
2.444155
 20
22.814033
 11
2.444155
 21
52.814033
  0
LINE
  8
型材断面
  6
DASHDOT
 10
1.194155
 20
22.814033
 11
1.194155
 21
52.814033
  0
TEXT
  7
TextStyle03
  8
文字
  6
CONTINUOUS
 10
116.575
 20
-76.7
  1
網入り6.8t
 40
3.0
 72
     5
 11
133.2625
 21
-76.7
  0
TEXT
  7
TextStyle03
  8
文字
  6
CONTINUOUS
 10
-26.45
 20
9.325
  1
可動装置側
 40
3.0
 72
     5
 11
-9.95
 21
9.325
  0
TEXT
  7
TextStyle03
  8
文字
  6
CONTINUOUS
 10
-26.45
 20
63.275
  1
可動装置側
 40
3.0
 72
     5
 11
-9.95
 21
63.275
  0
TEXT
  7
TextStyle03
  8
文字
  6
CONTINUOUS
 10
123.25
 20
-81.375
  1
×３枚
 40
3.0
 72
     5
 11
133.0
 21
-81.375
  0
TEXT
  7
TextStyle03
  8
文字
  6
CONTINUOUS
 10
-127.75
 20
89.4
  1
はケーシング位置を示す
 40
3.0
 72
     5
 11
-91.0
 21
89.4
  0
TEXT
  7
TextStyle03
  8
文字
  6
CONTINUOUS
 10
-127.75
 20
86.025
  1
４ヶ所中1ヶ所に設定
 40
3.0
 72
     5
 11
-96.0625
 21
86.025
  0
TEXT
  7
TextStyle03
  8
文字
  6
CONTINUOUS
 10
-127.75
 20
94.925
  1
は排水穴位置を示す
 40
3.0
 72
     5
 11
-97.75
 21
94.925
  0
TEXT
  7
TextStyle03
  8
文字
  6
CONTINUOUS
 10
-97.65
 20
16.275
  1
アンカーピッチ
 40
3.0
 50
90.0
 72
     5
 11
-97.65
 21
39.525
  0
TEXT
  7
TextStyle03
  8
文字
  6
CONTINUOUS
 10
-65.5
 20
89.775
  1
アンカーピッチ
 40
3.0
 72
     5
 11
-42.25
 21
89.775
  0
TEXT
  7
TextStyle03
  8
文字
  6
CONTINUOUS
 10
-131.475
 20
80.05
  1
アンカー数量　１４ヶ所
 40
3.0
 72
     5
 11
-94.725
 21
80.05
  0
TEXT
  7
TextStyle03
  8
文字
  6
CONTINUOUS
 10
-131.525
 20
74.3
  1
アームユニット数　４ヶ所
 40
3.0
 72
     5
 11
-91.4
 21
74.3
  0
TEXT
  7
TextStyle03
  8
文字
  6
CONTINUOUS
 10
78.1
 20
125.25
  1
シリーズ：ＴＤ２Ｌ
 40
5.0
 72
     5
 11
128.1
 21
125.25
  0
TEXT
  7
TextStyle03
  8
文字
  6
CONTINUOUS
 10
78.1
 20
119.625
  1
　　　　　（上下可動）900×3500タイプ
 40
5.0
 72
     5
 11
181.5375
 21
119.625
  0
TEXT
  7
TextStyle03
  8
文字
  6
CONTINUOUS
 10
78.1
 20
114.0
  1
図面名　：外観姿図
 40
5.0
 72
     5
 11
128.1
 21
114.0
  0
TEXT
  7
TextStyle03
  8
文字
  6
CONTINUOUS
 10
78.1
 20
108.375
  1
　　　　　　
 40
5.0
 72
     5
 11
111.225
 21
108.375
  0
TEXT
  7
TextStyle03
  8
文字
  6
CONTINUOUS
 10
77.125
 20
103.95
  1
ＮＳコード：ＮＳＤＺＬ
 40
5.0
 72
     5
 11
138.375
 21
103.95
  0
INSERT
  2
*DIM_0002
  8
寸法
  6
CONTINUOUS
 10
0.0
 20
0.0
  0
INSERT
  2
*DIM_0003
  8
寸法
  6
CONTINUOUS
 10
0.0
 20
0.0
  0
INSERT
  2
*DIM_0004
  8
寸法
  6
CONTINUOUS
 10
0.0
 20
0.0
  0
INSERT
  2
*DIM_0005
  8
寸法
  6
CONTINUOUS
 10
0.0
 20
0.0
  0
INSERT
  2
*DIM_0006
  8
寸法
  6
CONTINUOUS
 10
0.0
 20
0.0
  0
INSERT
  2
*DIM_0007
  8
寸法
  6
CONTINUOUS
 10
0.0
 20
0.0
  0
INSERT
  2
*DIM_0008
  8
寸法
  6
CONTINUOUS
 10
0.0
 20
0.0
  0
INSERT
  2
*DIM_0009
  8
寸法
  6
CONTINUOUS
 10
0.0
 20
0.0
  0
INSERT
  2
*DIM_0010
  8
寸法
  6
CONTINUOUS
 10
0.0
 20
0.0
  0
INSERT
  2
*DIM_0016
  8
寸法
  6
CONTINUOUS
 10
0.0
 20
0.0
  0
INSERT
  2
*DIM_0017
  8
寸法
  6
CONTINUOUS
 10
0.0
 20
0.0
  0
INSERT
  2
*DIM_0018
  8
寸法
  6
CONTINUOUS
 10
0.0
 20
0.0
  0
INSERT
  2
*DIM_0019
  8
寸法
  6
CONTINUOUS
 10
0.0
 20
0.0
  0
INSERT
  2
*DIM_0020
  8
寸法
  6
CONTINUOUS
 10
0.0
 20
0.0
  0
INSERT
  2
*DIM_0021
  8
寸法
  6
CONTINUOUS
 10
0.0
 20
0.0
  0
INSERT
  2
*DIM_0022
  8
寸法
  6
CONTINUOUS
 10
0.0
 20
0.0
  0
INSERT
  2
*DIM_0023
  8
寸法
  6
CONTINUOUS
 10
0.0
 20
0.0
  0
INSERT
  2
*DIM_0024
  8
寸法
  6
CONTINUOUS
 10
0.0
 20
0.0
  0
INSERT
  2
*DIM_0025
  8
寸法
  6
CONTINUOUS
 10
0.0
 20
0.0
  0
INSERT
  2
*DIM_0026
  8
寸法
  6
CONTINUOUS
 10
0.0
 20
0.0
  0
INSERT
  2
*DIM_0034
  8
寸法
  6
CONTINUOUS
 10
0.0
 20
0.0
  0
LINE
  8
別途部材
  6
CONTINUOUS
 10
42.083043
 20
20.747365
 11
41.683043
 21
21.147365
  0
LINE
  8
別途部材
  6
CONTINUOUS
 10
40.016375
 20
22.814033
 11
31.95712
 21
30.87329
  0
LINE
  8
別途部材
  6
CONTINUOUS
 62
    96
 10
129.54964
 20
21.147365
 11
130.54964
 21
20.747365
  0
LINE
  8
別途部材
  6
CONTINUOUS
 10
41.683043
 20
21.147365
 11
41.683043
 21
37.814033
  0
LINE
  8
別途部材
  6
CONTINUOUS
 10
42.083043
 20
20.747365
 11
42.083043
 21
37.814033
  0
LINE
  8
別途部材
  6
CONTINUOUS
 10
42.083043
 20
54.8807
 11
41.683043
 21
54.4807
  0
LINE
  8
別途部材
  6
CONTINUOUS
 10
40.016375
 20
52.814033
 11
31.95712
 21
44.754775
  0
LINE
  8
別途部材
  6
CONTINUOUS
 10
41.683043
 20
54.4807
 11
41.683043
 21
37.814033
  0
LINE
  8
別途部材
  6
CONTINUOUS
 10
42.083043
 20
54.8807
 11
42.083043
 21
37.814033
  0
LINE
  8
別途部材
  6
CONTINUOUS
 62
    96
 10
129.54964
 20
21.147365
 11
129.54964
 21
37.814033
  0
LINE
  8
別途部材
  6
CONTINUOUS
 10
130.54964
 20
20.747365
 11
130.54964
 21
37.814033
  0
LINE
  8
別途部材
  6
CONTINUOUS
 62
    96
 10
129.54964
 20
54.4807
 11
130.54964
 21
54.8807
  0
LINE
  8
別途部材
  6
CONTINUOUS
 62
    96
 10
129.54964
 20
54.4807
 11
129.54964
 21
37.814033
  0
LINE
  8
別途部材
  6
CONTINUOUS
 10
130.54964
 20
54.8807
 11
130.54964
 21
37.814033
  0
ARC
  8
別途部材
  6
CONTINUOUS
 10
138.882973
 20
37.814033
 40
17.666667
 50
121.890796
 51
238.109204
  0
LINE
  8
別途部材
  6
CONTINUOUS
 10
41.683043
 20
54.4807
 11
-18.316957
 21
54.4807
  0
LINE
  8
別途部材
  6
CONTINUOUS
 10
42.083043
 20
54.8807
 11
-18.316957
 21
54.8807
  0
LINE
  8
別途部材
  6
CONTINUOUS
 10
41.683043
 20
21.147365
 11
-18.316957
 21
21.147365
  0
LINE
  8
別途部材
  6
CONTINUOUS
 10
42.083043
 20
20.747365
 11
-18.316957
 21
20.747365
  0
LINE
  8
別途部材
  6
CONTINUOUS
 10
-78.716957
 20
20.747365
 11
-78.316957
 21
21.147365
  0
LINE
  8
別途部材
  6
CONTINUOUS
 10
-76.65029
 20
22.814033
 11
-68.591035
 21
30.87329
  0
LINE
  8
別途部材
  6
CONTINUOUS
 10
-78.316957
 20
21.147365
 11
-78.316957
 21
37.814033
  0
LINE
  8
別途部材
  6
CONTINUOUS
 10
-78.716957
 20
20.747365
 11
-78.716957
 21
37.814033
  0
LINE
  8
別途部材
  6
CONTINUOUS
 10
-78.716957
 20
54.8807
 11
-78.316957
 21
54.4807
  0
LINE
  8
別途部材
  6
CONTINUOUS
 10
-76.65029
 20
52.814033
 11
-68.591035
 21
44.754775
  0
LINE
  8
別途部材
  6
CONTINUOUS
 10
-78.316957
 20
54.4807
 11
-78.316957
 21
37.814033
  0
LINE
  8
別途部材
  6
CONTINUOUS
 10
-78.716957
 20
54.8807
 11
-78.716957
 21
37.814033
  0
LINE
  8
別途部材
  6
CONTINUOUS
 10
-78.316957
 20
54.4807
 11
-18.316957
 21
54.4807
  0
LINE
  8
別途部材
  6
CONTINUOUS
 10
-78.716957
 20
54.8807
 11
-18.316957
 21
54.8807
  0
LINE
  8
別途部材
  6
CONTINUOUS
 10
-78.316957
 20
21.147365
 11
-18.316957
 21
21.147365
  0
LINE
  8
別途部材
  6
CONTINUOUS
 10
-78.716957
 20
20.747365
 11
-18.316957
 21
20.747365
  0
LINE
  8
別途部材
  6
DOT
 62
    96
 10
41.683043
 20
-58.542945
 11
42.083043
 21
-59.542945
  0
ARC
  8
別途部材
  6
DOT
 10
25.016373
 20
-67.876279
 40
17.666667
 50
31.890796
 51
90.0
  0
LINE
  8
別途部材
  6
DOT
 10
25.016375
 20
-50.209613
 11
-18.316957
 21
-50.209613
  0
LINE
  8
別途部材
  6
DOT
 62
    96
 10
41.683043
 20
-58.542945
 11
-18.316957
 21
-58.542945
  0
LINE
  8
別途部材
  6
DOT
 10
42.083043
 20
-59.542945
 11
-18.316957
 21
-59.542945
  0
LINE
  8
別途部材
  6
DOT
 62
    96
 10
-78.316957
 20
-58.542945
 11
-78.716957
 21
-59.542945
  0
ARC
  8
別途部材
  6
DOT
 10
-61.65029
 20
-67.876279
 40
17.666667
 50
90.0
 51
148.109204
  0
LINE
  8
別途部材
  6
DOT
 10
-61.65029
 20
-50.209613
 11
-18.316957
 21
-50.209613
  0
LINE
  8
別途部材
  6
DOT
 62
    96
 10
-78.316957
 20
-58.542945
 11
-18.316957
 21
-58.542945
  0
LINE
  8
別途部材
  6
DOT
 10
-78.716957
 20
-59.542945
 11
-18.316957
 21
-59.542945
  0
INSERT
  2
*GRP_0011
  8
別途部材
  6
CONTINUOUS
 10
0.0
 20
0.0
  0
INSERT
  2
*GRP_0028
  8
別途部材
  6
DOT
 10
0.0
 20
0.0
  0
INSERT
  2
*GRP_0029
  8
別途部材
  6
DOT
 10
0.0
 20
0.0
  0
INSERT
  2
*GRP_0030
  8
別途部材
  6
DOT
 10
0.0
 20
0.0
  0
INSERT
  2
*GRP_0031
  8
別途部材
  6
DOT
 10
0.0
 20
0.0
  0
INSERT
  2
*GRP_0032
  8
別途部材
  6
DOT
 10
0.0
 20
0.0
  0
INSERT
  2
*GRP_0033
  8
別途部材
  6
DOT
 10
0.0
 20
0.0
  0
LINE
  8
曲げ物
  6
CONTINUOUS
 10
135.10293
 20
-83.118728
 11
135.10293
 21
-53.785395
  0
LINE
  8
曲げ物
  6
CONTINUOUS
 10
97.149597
 20
-83.118728
 11
97.149597
 21
-53.785395
  0
LINE
  8
曲げ物
  6
CONTINUOUS
 10
135.10293
 20
-53.785395
 11
97.149597
 21
-53.785395
  0
LINE
  8
曲げ物
  6
CONTINUOUS
 10
135.10293
 20
-83.118728
 11
97.149597
 21
-83.118728
  0
ENDSEC
  0
EOF
