  0
SECTION
  2
HEADER
  9
$EXTMIN
 10
-210.0
 20
-148.5
  9
$EXTMAX
 10
210.0
 20
148.5
  9
$PDMODE
 70
    32
  9
$PDSIZE
 40
1.5
  9
$LTSCALE
 40
10.0
  0
ENDSEC
  0
SECTION
  2
TABLES
  0
TABLE
  2
LTYPE
 70
    15
  0
LTYPE
  2
CONTINUOUS
 70
    64
  3
実線
 72
    65
 73
     0
 40
0.0
  0
LTYPE
  2
DASHED
 70
    64
  3
破線A
 72
    65
 73
     2
 40
0.6
 49
0.4
 49
-0.2
  0
LTYPE
  2
DASHEDX2
 70
    64
  3
破線B
 72
    65
 73
     2
 40
1.3
 49
0.9
 49
-0.4
  0
LTYPE
  2
DASHDOT
 70
    64
  3
１点鎖線A
 72
    65
 73
     4
 40
0.5375
 49
0.375
 49
-0.05
 49
0.0625
 49
-0.05
  0
LTYPE
  2
DASHDOTX2
 70
    64
  3
１点鎖線B
 72
    65
 73
     4
 40
1.075
 49
0.75
 49
-0.1
 49
0.125
 49
-0.1
  0
LTYPE
  2
DIVIDE2
 70
    64
  3
２点鎖線A
 72
    65
 73
     6
 40
0.5125
 49
0.3
 49
-0.0375
 49
0.05
 49
-0.0375
 49
0.05
 49
-0.0375
  0
LTYPE
  2
DIVIDE
 70
    64
  3
２点鎖線B
 72
    65
 73
     6
 40
1.05
 49
0.55
 49
-0.1
 49
0.1
 49
-0.1
 49
0.1
 49
-0.1
  0
LTYPE
  2
DOT
 70
    64
  3
点線A
 72
    65
 73
     2
 40
0.1125
 49
0.0625
 49
-0.05
  0
LTYPE
  2
DOTX2
 70
    64
  3
点線B
 72
    65
 73
     2
 40
0.275
 49
0.15
 49
-0.125
  0
LTYPE
  2
CONTINUOUS
 70
    64
  3
実線
 72
    65
 73
     0
 40
0.0
  0
LTYPE
  2
CONTINUOUS
 70
    64
  3
実線
 72
    65
 73
     0
 40
0.0
  0
LTYPE
  2
CONTINUOUS
 70
    64
  3
実線
 72
    65
 73
     0
 40
0.0
  0
LTYPE
  2
CONTINUOUS
 70
    64
  3
実線
 72
    65
 73
     0
 40
0.0
  0
LTYPE
  2
CONTINUOUS
 70
    64
  3
実線
 72
    65
 73
     0
 40
0.0
  0
LTYPE
  2
CONTINUOUS
 70
    64
  3
実線
 72
    65
 73
     0
 40
0.0
  0
ENDTAB
  0
TABLE
  2
LAYER
 70
    34
  0
LAYER
  2
通り芯
 70
     0
 62
    15
  6
CONTINUOUS
  0
LAYER
  2
補助線
 70
     0
 62
    16
  6
DOT
  0
LAYER
  2
躯体
 70
     0
 62
    31
  6
CONTINUOUS
  0
LAYER
  2
型材
 70
     0
 62
    32
  6
CONTINUOUS
  0
LAYER
  2
型材断面
 70
     0
 62
    47
  6
CONTINUOUS
  0
LAYER
  2
ガラス
 70
     0
 62
    48
  6
CONTINUOUS
  0
LAYER
  2
ゴム等
 70
     0
 62
    63
  6
CONTINUOUS
  0
LAYER
  2
ボルト／ビス
 70
     0
 62
    64
  6
CONTINUOUS
  0
LAYER
  2
文字
 70
     0
 62
    79
  6
CONTINUOUS
  0
LAYER
  2
寸法
 70
     0
 62
    80
  6
CONTINUOUS
  0
LAYER
  2
ﾊｯﾁﾝｸﾞ
 70
     0
 62
    95
  6
CONTINUOUS
  0
LAYER
  2
別途部材
 70
     0
 62
    96
  6
CONTINUOUS
  0
LAYER
  2
曲げ物
 70
     0
 62
   111
  6
CONTINUOUS
  0
LAYER
  2
鉄骨等
 70
     0
 62
   112
  6
CONTINUOUS
  0
LAYER
  2
St
 70
     0
 62
   127
  6
CONTINUOUS
  0
LAYER
  2
その他部品等
 70
     0
 62
   128
  6
CONTINUOUS
  0
LAYER
  2
ｶﾞｽｹｯﾄ
 70
     0
 62
   143
  6
CONTINUOUS
  0
LAYER
  2
ｽｹｯﾁ
 70
     0
 62
    14
  6
CONTINUOUS
  0
LAYER
  2
0
 70
     0
 62
    17
  6
CONTINUOUS
  0
LAYER
  2
1
 70
     0
 62
    30
  6
CONTINUOUS
  0
LAYER
  2
4
 70
     0
 62
    33
  6
CONTINUOUS
  0
LAYER
  2
ﾚｲﾔ3
 70
     0
 62
    46
  6
CONTINUOUS
  0
LAYER
  2
外形線
 70
     0
 62
    49
  6
CONTINUOUS
  0
LAYER
  2
部品
 70
     0
 62
    14
  6
CONTINUOUS
  0
LAYER
  2
サッシ芯
 70
     0
 62
    17
  6
DASHDOTX2
  0
LAYER
  2
寸法線
 70
     0
 62
    62
  6
CONTINUOUS
  0
LAYER
  2
姿図外形線
 70
     0
 62
    65
  6
CONTINUOUS
  0
LAYER
  2
姿補助線
 70
     0
 62
    30
  6
CONTINUOUS
  0
LAYER
  2
透視線
 70
     0
 62
    78
  6
DOT
  0
LAYER
  2
用紙
 70
     0
 62
    81
  6
CONTINUOUS
  0
LAYER
  2
実線図枠
 70
     0
 62
    94
  6
CONTINUOUS
  0
LAYER
  2
補助図枠
 70
     0
 62
    97
  6
CONTINUOUS
  0
LAYER
  2
建具記号
 70
     0
 62
   110
  6
CONTINUOUS
  0
LAYER
  2
補助文字
 70
     0
 62
   113
  6
CONTINUOUS
  0
ENDTAB
  0
TABLE
  2
STYLE
 70
    10
  0
STYLE
  2
STANDARD
 70
     0
 40
1.0
 41
1.0
 42
1.0
 50
0.0
 71
     0
  3
TXT
  4
BIGFONT
  0
STYLE
  2
TATE
 70
     4
 40
1.0
 41
1.0
 42
1.0
 50
0.0
 71
     0
  3
TXT
  4
BIGFONT
  0
STYLE
  2
TextStyle03
 70
     0
 40
1.0
 41
1.0
 42
1.0
 50
0.0
 71
     0
  3
MONOTXT
  4
BIGFONT
  0
STYLE
  2
TextStyle04
 70
     0
 40
1.0
 41
1.0
 42
1.0
 50
0.0
 71
     0
  3
MONOTXT
  4
BIGFONT
  0
STYLE
  2
TextStyle05
 70
     0
 40
1.0
 41
1.0
 42
1.0
 50
0.0
 71
     0
  3
MONOTXT
  4
BIGFONT
  0
STYLE
  2
TextStyle06
 70
     0
 40
1.0
 41
1.0
 42
1.0
 50
0.0
 71
     0
  3
MONOTXT
  4
BIGFONT
  0
STYLE
  2
TextStyle07
 70
     0
 40
1.0
 41
1.0
 42
1.0
 50
0.0
 71
     0
  3
MONOTXT
  4
BIGFONT
  0
STYLE
  2
TextStyle08
 70
     0
 40
1.0
 41
1.0
 42
1.0
 50
0.0
 71
     0
  3
MONOTXT
  4
BIGFONT
  0
STYLE
  2
TextStyle09
 70
     0
 40
1.0
 41
1.0
 42
1.0
 50
0.0
 71
     0
  3
MONOTXT
  4
BIGFONT
  0
STYLE
  2
TextStyle10
 70
     0
 40
1.0
 41
1.0
 42
1.0
 50
0.0
 71
     0
  3
MONOTXT
  4
BIGFONT
  0
ENDTAB
  0
ENDSEC
  0
SECTION
  2
BLOCKS
  0
BLOCK
  2
*GRP_0001
 70
    65
 10
0.0
 20
0.0
  0
LINE
  8
型材断面
  6
CONTINUOUS
 10
195.0
 20
133.5
 11
195.0
 21
-133.5
  0
LINE
  8
型材断面
  6
CONTINUOUS
 10
195.0
 20
-133.5
 11
-185.0
 21
-133.5
  0
LINE
  8
型材断面
  6
CONTINUOUS
 10
-185.0
 20
-133.5
 11
-185.0
 21
133.5
  0
LINE
  8
型材断面
  6
CONTINUOUS
 10
195.0
 20
133.5
 11
-185.0
 21
133.5
  0
LINE
  8
型材断面
  6
CONTINUOUS
 10
145.0
 20
-133.5
 11
145.0
 21
-118.5
  0
LINE
  8
型材断面
  6
CONTINUOUS
 10
195.0
 20
-118.5
 11
145.0
 21
-118.5
  0
ENDBLK
  0
BLOCK
  2
*DIM_0002
 70
    65
 10
0.0
 20
0.0
  0
LINE
  8
寸法
  6
BYBLOCK
 62
     0
 10
68.48755
 20
-64.87628
 11
93.4572
 21
-64.87628
  0
LINE
  8
寸法
  6
BYBLOCK
 62
     0
 10
93.4572
 20
-70.209613
 11
93.4572
 21
-64.87628
  0
POINT
  8
寸法
 62
     0
 10
93.4572
 20
-70.209613
  0
POINT
  8
寸法
 62
     0
 10
93.4572
 20
-64.87628
  0
TEXT
  7
TextStyle03
  8
寸法
  6
CONTINUOUS
 62
     0
 10
93.05
 20
-69.9875
  1
160
 40
3.0
 50
90.0
 72
     5
 11
93.05
 21
-65.1125
  0
ENDBLK
  0
BLOCK
  2
*DIM_0003
 70
    65
 10
0.0
 20
0.0
  0
LINE
  8
寸法
  6
BYBLOCK
 62
     0
 10
-122.51245
 20
-13.511205
 11
-122.51245
 21
-13.121378
  0
LINE
  8
寸法
  6
BYBLOCK
 62
     0
 10
77.48755
 20
-13.121378
 11
-122.51245
 21
-13.121378
  0
POINT
  8
寸法
 62
     0
 10
77.48755
 20
-13.121378
  0
POINT
  8
寸法
 62
     0
 10
-122.51245
 20
-13.121378
  0
TEXT
  7
TextStyle03
  8
寸法
  6
CONTINUOUS
 62
     0
 10
-34.26875
 20
-12.75
  1
呼称寸法　6000
 40
3.0
 72
     5
 11
-10.83125
 21
-12.75
  0
ENDBLK
  0
BLOCK
  2
*DIM_0004
 70
    65
 10
0.0
 20
0.0
  0
LINE
  8
寸法
  6
BYBLOCK
 62
     0
 10
111.5072
 20
22.814033
 11
111.5072
 21
42.814033
  0
POINT
  8
寸法
 62
     0
 10
111.5072
 20
22.814033
  0
POINT
  8
寸法
 62
     0
 10
111.5072
 20
42.814033
  0
TEXT
  7
TextStyle03
  8
寸法
  6
CONTINUOUS
 62
     0
 10
111.1
 20
21.925
  1
呼称寸法　600
 40
3.0
 50
90.0
 72
     5
 11
111.1
 21
43.675
  0
ENDBLK
  0
BLOCK
  2
*DIM_0005
 70
    65
 10
0.0
 20
0.0
  0
LINE
  8
寸法
  6
BYBLOCK
 62
     0
 10
161.687483
 20
33.814033
 11
161.687483
 21
60.666798
  0
LINE
  8
寸法
  6
BYBLOCK
 62
     0
 10
167.020815
 20
60.666798
 11
161.687483
 21
60.666798
  0
POINT
  8
寸法
 62
     0
 10
167.020815
 20
60.666798
  0
POINT
  8
寸法
 62
     0
 10
161.687483
 20
60.666798
  0
TEXT
  7
TextStyle03
  8
寸法
  6
CONTINUOUS
 62
     0
 10
161.8875
 20
61.025
  1
160
 40
3.0
 72
     5
 11
166.7625
 21
61.025
  0
ENDBLK
  0
BLOCK
  2
*DIM_0006
 70
    65
 10
0.0
 20
0.0
  0
LINE
  8
寸法
  6
BYBLOCK
 62
     0
 10
172.574105
 20
-61.05917
 11
172.574105
 21
-53.518805
  0
LINE
  8
寸法
  6
BYBLOCK
 62
     0
 10
140.240772
 20
-61.05917
 11
140.240772
 21
-53.518805
  0
LINE
  8
寸法
  6
BYBLOCK
 62
     0
 10
172.574105
 20
-53.518805
 11
140.240772
 21
-53.518805
  0
POINT
  8
寸法
 62
     0
 10
172.574105
 20
-53.518805
  0
POINT
  8
寸法
 62
     0
 10
140.240772
 20
-53.518805
  0
TEXT
  7
TextStyle03
  8
寸法
  6
CONTINUOUS
 62
     0
 10
153.9375
 20
-53.125
  1
970
 40
3.0
 72
     5
 11
158.8125
 21
-53.125
  0
ENDBLK
  0
BLOCK
  2
*DIM_0007
 70
    65
 10
0.0
 20
0.0
  0
LINE
  8
寸法
  6
BYBLOCK
 62
     0
 10
173.574105
 20
-63.785395
 11
181.685635
 21
-63.785395
  0
LINE
  8
寸法
  6
BYBLOCK
 62
     0
 10
173.574105
 20
-83.118728
 11
181.685635
 21
-83.118728
  0
LINE
  8
寸法
  6
BYBLOCK
 62
     0
 10
181.685635
 20
-63.785395
 11
181.685635
 21
-83.118728
  0
POINT
  8
寸法
 62
     0
 10
181.685635
 20
-63.785395
  0
POINT
  8
寸法
 62
     0
 10
181.685635
 20
-83.118728
  0
TEXT
  7
TextStyle03
  8
寸法
  6
CONTINUOUS
 62
     0
 10
181.275
 20
-75.9125
  1
580
 40
3.0
 50
90.0
 72
     5
 11
181.275
 21
-71.0375
  0
ENDBLK
  0
BLOCK
  2
*DIM_0008
 70
    65
 10
0.0
 20
0.0
  0
LINE
  8
寸法
  6
BYBLOCK
 62
     0
 10
-105.845783
 20
19.183902
 11
-105.845783
 21
13.963537
  0
LINE
  8
寸法
  6
BYBLOCK
 62
     0
 10
-22.51245
 20
19.183905
 11
-22.51245
 21
13.963537
  0
LINE
  8
寸法
  6
BYBLOCK
 62
     0
 10
-105.845783
 20
13.963537
 11
-22.51245
 21
13.963537
  0
POINT
  8
寸法
 62
     0
 10
-105.845783
 20
13.963537
  0
POINT
  8
寸法
 62
     0
 10
-22.51245
 20
13.963537
  0
TEXT
  7
TextStyle03
  8
寸法
  6
CONTINUOUS
 62
     0
 10
-67.48125
 20
14.325
  1
2500
 40
3.0
 72
     5
 11
-60.91875
 21
14.325
  0
ENDBLK
  0
BLOCK
  2
*DIM_0009
 70
    65
 10
0.0
 20
0.0
  0
LINE
  8
寸法
  6
BYBLOCK
 62
     0
 10
60.820882
 20
19.183902
 11
60.820882
 21
13.963537
  0
LINE
  8
寸法
  6
BYBLOCK
 62
     0
 10
-22.51245
 20
13.963537
 11
60.820882
 21
13.963537
  0
POINT
  8
寸法
 62
     0
 10
60.820882
 20
13.963537
  0
TEXT
  7
TextStyle03
  8
寸法
  6
CONTINUOUS
 62
     0
 10
15.86875
 20
14.325
  1
2500
 40
3.0
 72
     5
 11
22.43125
 21
14.325
  0
ENDBLK
  0
BLOCK
  2
*DIM_0010
 70
    65
 10
0.0
 20
0.0
  0
LINE
  8
寸法
  6
BYBLOCK
 62
     0
 10
78.48755
 20
42.814035
 11
88.211832
 21
42.814035
  0
LINE
  8
寸法
  6
BYBLOCK
 62
     0
 10
81.11768
 20
39.114035
 11
88.211832
 21
39.114035
  0
LINE
  8
寸法
  6
BYBLOCK
 62
     0
 10
88.211832
 20
42.814035
 11
88.211832
 21
39.114035
  0
POINT
  8
寸法
 62
     0
 10
88.211832
 20
42.814035
  0
POINT
  8
寸法
 62
     0
 10
88.211832
 20
39.114035
  0
TEXT
  7
TextStyle03
  8
寸法
  6
CONTINUOUS
 62
     0
 10
87.875
 20
43.8125
  1
111
 40
3.0
 50
90.0
 72
     5
 11
87.875
 21
48.6875
  0
ENDBLK
  0
BLOCK
  2
*DIM_0011
 70
    65
 10
0.0
 20
0.0
  0
LINE
  8
寸法
  6
BYBLOCK
 62
     0
 10
78.48755
 20
22.81403
 11
88.211832
 21
22.814027
  0
LINE
  8
寸法
  6
BYBLOCK
 62
     0
 10
81.11768
 20
26.51403
 11
88.211832
 21
26.514027
  0
LINE
  8
寸法
  6
BYBLOCK
 62
     0
 10
88.211832
 20
22.814027
 11
88.211832
 21
26.514027
  0
POINT
  8
寸法
 62
     0
 10
88.211832
 20
22.814027
  0
POINT
  8
寸法
 62
     0
 10
88.211832
 20
26.514027
  0
TEXT
  7
TextStyle03
  8
寸法
  6
CONTINUOUS
 62
     0
 10
88.2
 20
16.5625
  1
111
 40
3.0
 50
90.0
 72
     5
 11
88.2
 21
21.4375
  0
ENDBLK
  0
BLOCK
  2
*GRP_0012
 70
    65
 10
0.0
 20
0.0
  0
LINE
  8
別途部材
  6
CONTINUOUS
 62
    96
 10
-124.179115
 20
-70.209613
 11
-124.579115
 21
-71.209613
  0
LINE
  8
別途部材
  6
CONTINUOUS
 62
    96
 10
-124.179115
 20
-70.209613
 11
-22.51245
 21
-70.209613
  0
LINE
  8
別途部材
  6
CONTINUOUS
 10
-124.579115
 20
-71.209613
 11
-22.51245
 21
-71.209613
  0
ARC
  8
別途部材
  6
CONTINUOUS
 10
-112.512449
 20
-76.917952
 40
12.041668
 50
90.0
 51
146.144967
  0
LINE
  8
別途部材
  6
CONTINUOUS
 10
-23.01245
 20
-63.87628
 11
-24.01245
 21
-64.87628
  0
LINE
  8
別途部材
  6
CONTINUOUS
 10
-25.01245
 20
-64.87628
 11
-26.01245
 21
-63.87628
  0
LINE
  8
別途部材
  6
CONTINUOUS
 10
-27.01245
 20
-63.87628
 11
-28.01245
 21
-64.87628
  0
LINE
  8
別途部材
  6
CONTINUOUS
 10
-26.01245
 20
-63.87628
 11
-27.01245
 21
-63.87628
  0
LINE
  8
別途部材
  6
CONTINUOUS
 10
-23.01245
 20
-63.87628
 11
-22.51245
 21
-63.87628
  0
LINE
  8
別途部材
  6
CONTINUOUS
 10
-29.01245
 20
-64.87628
 11
-30.01245
 21
-63.87628
  0
LINE
  8
別途部材
  6
CONTINUOUS
 10
-31.01245
 20
-63.87628
 11
-32.01245
 21
-64.87628
  0
LINE
  8
別途部材
  6
CONTINUOUS
 10
-30.01245
 20
-63.87628
 11
-31.01245
 21
-63.87628
  0
LINE
  8
別途部材
  6
CONTINUOUS
 10
-33.01245
 20
-64.87628
 11
-34.01245
 21
-63.87628
  0
LINE
  8
別途部材
  6
CONTINUOUS
 10
-35.01245
 20
-63.87628
 11
-36.01245
 21
-64.87628
  0
LINE
  8
別途部材
  6
CONTINUOUS
 10
-34.01245
 20
-63.87628
 11
-35.01245
 21
-63.87628
  0
LINE
  8
別途部材
  6
CONTINUOUS
 10
-37.01245
 20
-64.87628
 11
-38.01245
 21
-63.87628
  0
LINE
  8
別途部材
  6
CONTINUOUS
 10
-39.01245
 20
-63.87628
 11
-40.01245
 21
-64.87628
  0
LINE
  8
別途部材
  6
CONTINUOUS
 10
-38.01245
 20
-63.87628
 11
-39.01245
 21
-63.87628
  0
LINE
  8
別途部材
  6
CONTINUOUS
 10
-41.01245
 20
-64.87628
 11
-42.01245
 21
-63.87628
  0
LINE
  8
別途部材
  6
CONTINUOUS
 10
-43.01245
 20
-63.87628
 11
-44.01245
 21
-64.87628
  0
LINE
  8
別途部材
  6
CONTINUOUS
 10
-42.01245
 20
-63.87628
 11
-43.01245
 21
-63.87628
  0
LINE
  8
別途部材
  6
CONTINUOUS
 10
-45.01245
 20
-64.87628
 11
-46.01245
 21
-63.87628
  0
LINE
  8
別途部材
  6
CONTINUOUS
 10
-47.01245
 20
-63.87628
 11
-48.01245
 21
-64.87628
  0
LINE
  8
別途部材
  6
CONTINUOUS
 10
-46.01245
 20
-63.87628
 11
-47.01245
 21
-63.87628
  0
LINE
  8
別途部材
  6
CONTINUOUS
 10
-49.01245
 20
-64.87628
 11
-50.01245
 21
-63.87628
  0
LINE
  8
別途部材
  6
CONTINUOUS
 10
-51.01245
 20
-63.87628
 11
-52.01245
 21
-64.87628
  0
LINE
  8
別途部材
  6
CONTINUOUS
 10
-50.01245
 20
-63.87628
 11
-51.01245
 21
-63.87628
  0
LINE
  8
別途部材
  6
CONTINUOUS
 10
-53.01245
 20
-64.87628
 11
-54.01245
 21
-63.87628
  0
LINE
  8
別途部材
  6
CONTINUOUS
 10
-55.01245
 20
-63.87628
 11
-56.01245
 21
-64.87628
  0
LINE
  8
別途部材
  6
CONTINUOUS
 10
-54.01245
 20
-63.87628
 11
-55.01245
 21
-63.87628
  0
LINE
  8
別途部材
  6
CONTINUOUS
 10
-57.01245
 20
-64.87628
 11
-58.01245
 21
-63.87628
  0
LINE
  8
別途部材
  6
CONTINUOUS
 10
-59.01245
 20
-63.87628
 11
-60.01245
 21
-64.87628
  0
LINE
  8
別途部材
  6
CONTINUOUS
 10
-58.01245
 20
-63.87628
 11
-59.01245
 21
-63.87628
  0
LINE
  8
別途部材
  6
CONTINUOUS
 10
-61.01245
 20
-64.87628
 11
-62.01245
 21
-63.87628
  0
LINE
  8
別途部材
  6
CONTINUOUS
 10
-63.01245
 20
-63.87628
 11
-64.01245
 21
-64.87628
  0
LINE
  8
別途部材
  6
CONTINUOUS
 10
-62.01245
 20
-63.87628
 11
-63.01245
 21
-63.87628
  0
LINE
  8
別途部材
  6
CONTINUOUS
 10
-65.01245
 20
-64.87628
 11
-66.01245
 21
-63.87628
  0
LINE
  8
別途部材
  6
CONTINUOUS
 10
-67.01245
 20
-63.87628
 11
-68.01245
 21
-64.87628
  0
LINE
  8
別途部材
  6
CONTINUOUS
 10
-66.01245
 20
-63.87628
 11
-67.01245
 21
-63.87628
  0
LINE
  8
別途部材
  6
CONTINUOUS
 10
-64.01245
 20
-64.87628
 11
-65.01245
 21
-64.87628
  0
LINE
  8
別途部材
  6
CONTINUOUS
 10
-60.01245
 20
-64.87628
 11
-61.01245
 21
-64.87628
  0
LINE
  8
別途部材
  6
CONTINUOUS
 10
-56.01245
 20
-64.87628
 11
-57.01245
 21
-64.87628
  0
LINE
  8
別途部材
  6
CONTINUOUS
 10
-52.01245
 20
-64.87628
 11
-53.01245
 21
-64.87628
  0
LINE
  8
別途部材
  6
CONTINUOUS
 10
-48.01245
 20
-64.87628
 11
-49.01245
 21
-64.87628
  0
LINE
  8
別途部材
  6
CONTINUOUS
 10
-44.01245
 20
-64.87628
 11
-45.01245
 21
-64.87628
  0
LINE
  8
別途部材
  6
CONTINUOUS
 10
-40.01245
 20
-64.87628
 11
-41.01245
 21
-64.87628
  0
LINE
  8
別途部材
  6
CONTINUOUS
 10
-36.01245
 20
-64.87628
 11
-37.01245
 21
-64.87628
  0
LINE
  8
別途部材
  6
CONTINUOUS
 10
-32.01245
 20
-64.87628
 11
-33.01245
 21
-64.87628
  0
LINE
  8
別途部材
  6
CONTINUOUS
 10
-28.01245
 20
-64.87628
 11
-29.01245
 21
-64.87628
  0
LINE
  8
別途部材
  6
CONTINUOUS
 10
-25.01245
 20
-64.87628
 11
-24.01245
 21
-64.87628
  0
LINE
  8
別途部材
  6
CONTINUOUS
 10
-69.01245
 20
-64.87628
 11
-70.01245
 21
-63.87628
  0
LINE
  8
別途部材
  6
CONTINUOUS
 10
-71.01245
 20
-63.87628
 11
-72.01245
 21
-64.87628
  0
LINE
  8
別途部材
  6
CONTINUOUS
 10
-70.01245
 20
-63.87628
 11
-71.01245
 21
-63.87628
  0
LINE
  8
別途部材
  6
CONTINUOUS
 10
-73.01245
 20
-64.87628
 11
-74.01245
 21
-63.87628
  0
LINE
  8
別途部材
  6
CONTINUOUS
 10
-75.01245
 20
-63.87628
 11
-76.01245
 21
-64.87628
  0
LINE
  8
別途部材
  6
CONTINUOUS
 10
-74.01245
 20
-63.87628
 11
-75.01245
 21
-63.87628
  0
LINE
  8
別途部材
  6
CONTINUOUS
 10
-77.01245
 20
-64.87628
 11
-78.01245
 21
-63.87628
  0
LINE
  8
別途部材
  6
CONTINUOUS
 10
-79.01245
 20
-63.87628
 11
-80.01245
 21
-64.87628
  0
LINE
  8
別途部材
  6
CONTINUOUS
 10
-78.01245
 20
-63.87628
 11
-79.01245
 21
-63.87628
  0
LINE
  8
別途部材
  6
CONTINUOUS
 10
-81.01245
 20
-64.87628
 11
-82.01245
 21
-63.87628
  0
LINE
  8
別途部材
  6
CONTINUOUS
 10
-83.01245
 20
-63.87628
 11
-84.01245
 21
-64.87628
  0
LINE
  8
別途部材
  6
CONTINUOUS
 10
-82.01245
 20
-63.87628
 11
-83.01245
 21
-63.87628
  0
LINE
  8
別途部材
  6
CONTINUOUS
 10
-85.01245
 20
-64.87628
 11
-86.01245
 21
-63.87628
  0
LINE
  8
別途部材
  6
CONTINUOUS
 10
-87.01245
 20
-63.87628
 11
-88.01245
 21
-64.87628
  0
LINE
  8
別途部材
  6
CONTINUOUS
 10
-86.01245
 20
-63.87628
 11
-87.01245
 21
-63.87628
  0
LINE
  8
別途部材
  6
CONTINUOUS
 10
-89.01245
 20
-64.87628
 11
-90.01245
 21
-63.87628
  0
LINE
  8
別途部材
  6
CONTINUOUS
 10
-91.01245
 20
-63.87628
 11
-92.01245
 21
-64.87628
  0
LINE
  8
別途部材
  6
CONTINUOUS
 10
-90.01245
 20
-63.87628
 11
-91.01245
 21
-63.87628
  0
LINE
  8
別途部材
  6
CONTINUOUS
 10
-93.01245
 20
-64.87628
 11
-94.01245
 21
-63.87628
  0
LINE
  8
別途部材
  6
CONTINUOUS
 10
-95.01245
 20
-63.87628
 11
-96.01245
 21
-64.87628
  0
LINE
  8
別途部材
  6
CONTINUOUS
 10
-94.01245
 20
-63.87628
 11
-95.01245
 21
-63.87628
  0
LINE
  8
別途部材
  6
CONTINUOUS
 10
-97.01245
 20
-64.87628
 11
-98.01245
 21
-63.87628
  0
LINE
  8
別途部材
  6
CONTINUOUS
 10
-99.01245
 20
-63.87628
 11
-100.01245
 21
-64.87628
  0
LINE
  8
別途部材
  6
CONTINUOUS
 10
-98.01245
 20
-63.87628
 11
-99.01245
 21
-63.87628
  0
LINE
  8
別途部材
  6
CONTINUOUS
 10
-96.01245
 20
-64.87628
 11
-97.01245
 21
-64.87628
  0
LINE
  8
別途部材
  6
CONTINUOUS
 10
-92.01245
 20
-64.87628
 11
-93.01245
 21
-64.87628
  0
LINE
  8
別途部材
  6
CONTINUOUS
 10
-88.01245
 20
-64.87628
 11
-89.01245
 21
-64.87628
  0
LINE
  8
別途部材
  6
CONTINUOUS
 10
-84.01245
 20
-64.87628
 11
-85.01245
 21
-64.87628
  0
LINE
  8
別途部材
  6
CONTINUOUS
 10
-80.01245
 20
-64.87628
 11
-81.01245
 21
-64.87628
  0
LINE
  8
別途部材
  6
CONTINUOUS
 10
-76.01245
 20
-64.87628
 11
-77.01245
 21
-64.87628
  0
LINE
  8
別途部材
  6
CONTINUOUS
 10
-72.01245
 20
-64.87628
 11
-73.01245
 21
-64.87628
  0
LINE
  8
別途部材
  6
CONTINUOUS
 10
-68.01245
 20
-64.87628
 11
-69.01245
 21
-64.87628
  0
LINE
  8
別途部材
  6
CONTINUOUS
 10
-101.01245
 20
-64.87628
 11
-102.01245
 21
-63.87628
  0
LINE
  8
別途部材
  6
CONTINUOUS
 10
-103.01245
 20
-63.87628
 11
-104.01245
 21
-64.87628
  0
LINE
  8
別途部材
  6
CONTINUOUS
 10
-102.01245
 20
-63.87628
 11
-103.01245
 21
-63.87628
  0
LINE
  8
別途部材
  6
CONTINUOUS
 10
-100.01245
 20
-64.87628
 11
-101.01245
 21
-64.87628
  0
LINE
  8
別途部材
  6
CONTINUOUS
 10
-105.01245
 20
-64.87628
 11
-106.01245
 21
-63.87628
  0
LINE
  8
別途部材
  6
CONTINUOUS
 10
-107.01245
 20
-63.87628
 11
-108.01245
 21
-64.87628
  0
LINE
  8
別途部材
  6
CONTINUOUS
 10
-106.01245
 20
-63.87628
 11
-107.01245
 21
-63.87628
  0
LINE
  8
別途部材
  6
CONTINUOUS
 10
-104.01245
 20
-64.87628
 11
-105.01245
 21
-64.87628
  0
LINE
  8
別途部材
  6
CONTINUOUS
 10
-108.01245
 20
-64.87628
 11
-108.01245
 21
-70.209613
  0
LINE
  8
別途部材
  6
CONTINUOUS
 10
-107.01245
 20
-63.87628
 11
-107.01245
 21
-70.209613
  0
LINE
  8
別途部材
  6
CONTINUOUS
 10
-106.01245
 20
-63.87628
 11
-106.01245
 21
-70.209613
  0
LINE
  8
別途部材
  6
CONTINUOUS
 10
-104.01245
 20
-64.87628
 11
-104.01245
 21
-70.209613
  0
LINE
  8
別途部材
  6
CONTINUOUS
 10
-105.01245
 20
-64.87628
 11
-105.01245
 21
-70.209613
  0
LINE
  8
別途部材
  6
CONTINUOUS
 10
-103.01245
 20
-63.87628
 11
-103.01245
 21
-70.209613
  0
LINE
  8
別途部材
  6
CONTINUOUS
 10
-102.01245
 20
-63.87628
 11
-102.01245
 21
-70.209613
  0
LINE
  8
別途部材
  6
CONTINUOUS
 10
-100.01245
 20
-64.87628
 11
-100.01245
 21
-70.209613
  0
LINE
  8
別途部材
  6
CONTINUOUS
 10
-98.01245
 20
-63.87628
 11
-98.01245
 21
-70.209613
  0
LINE
  8
別途部材
  6
CONTINUOUS
 10
-97.01245
 20
-64.87628
 11
-97.01245
 21
-70.209613
  0
LINE
  8
別途部材
  6
CONTINUOUS
 10
-99.01245
 20
-63.87628
 11
-99.01245
 21
-70.209613
  0
LINE
  8
別途部材
  6
CONTINUOUS
 10
-101.01245
 20
-64.87628
 11
-101.01245
 21
-70.209613
  0
LINE
  8
別途部材
  6
CONTINUOUS
 10
-96.01245
 20
-64.87628
 11
-96.01245
 21
-70.209613
  0
LINE
  8
別途部材
  6
CONTINUOUS
 10
-95.01245
 20
-63.87628
 11
-95.01245
 21
-70.209613
  0
LINE
  8
別途部材
  6
CONTINUOUS
 10
-93.01245
 20
-64.87628
 11
-93.01245
 21
-70.209613
  0
LINE
  8
別途部材
  6
CONTINUOUS
 10
-94.01245
 20
-63.87628
 11
-94.01245
 21
-70.209613
  0
LINE
  8
別途部材
  6
CONTINUOUS
 10
-91.01245
 20
-63.87628
 11
-91.01245
 21
-70.209613
  0
LINE
  8
別途部材
  6
CONTINUOUS
 10
-92.01245
 20
-64.87628
 11
-92.01245
 21
-70.209613
  0
LINE
  8
別途部材
  6
CONTINUOUS
 10
-90.01245
 20
-63.87628
 11
-90.01245
 21
-70.209613
  0
LINE
  8
別途部材
  6
CONTINUOUS
 10
-89.01245
 20
-64.87628
 11
-89.01245
 21
-70.209613
  0
LINE
  8
別途部材
  6
CONTINUOUS
 10
-87.01245
 20
-63.87628
 11
-87.01245
 21
-70.209613
  0
LINE
  8
別途部材
  6
CONTINUOUS
 10
-88.01245
 20
-64.87628
 11
-88.01245
 21
-70.209613
  0
LINE
  8
別途部材
  6
CONTINUOUS
 10
-85.01245
 20
-64.87628
 11
-85.01245
 21
-70.209613
  0
LINE
  8
別途部材
  6
CONTINUOUS
 10
-86.01245
 20
-63.87628
 11
-86.01245
 21
-70.209613
  0
LINE
  8
別途部材
  6
CONTINUOUS
 10
-84.01245
 20
-64.87628
 11
-84.01245
 21
-70.209613
  0
LINE
  8
別途部材
  6
CONTINUOUS
 10
-82.01245
 20
-63.87628
 11
-82.01245
 21
-70.209613
  0
LINE
  8
別途部材
  6
CONTINUOUS
 10
-83.01245
 20
-63.87628
 11
-83.01245
 21
-70.209613
  0
LINE
  8
別途部材
  6
CONTINUOUS
 10
-81.01245
 20
-64.87628
 11
-81.01245
 21
-70.209613
  0
LINE
  8
別途部材
  6
CONTINUOUS
 10
-80.01245
 20
-64.87628
 11
-80.01245
 21
-70.209613
  0
LINE
  8
別途部材
  6
CONTINUOUS
 10
-79.01245
 20
-63.87628
 11
-79.01245
 21
-70.209613
  0
LINE
  8
別途部材
  6
CONTINUOUS
 10
-78.01245
 20
-63.87628
 11
-78.01245
 21
-70.209613
  0
LINE
  8
別途部材
  6
CONTINUOUS
 10
-75.01245
 20
-63.87628
 11
-75.01245
 21
-70.209613
  0
LINE
  8
別途部材
  6
CONTINUOUS
 10
-73.01245
 20
-64.87628
 11
-73.01245
 21
-70.209613
  0
LINE
  8
別途部材
  6
CONTINUOUS
 10
-74.01245
 20
-63.87628
 11
-74.01245
 21
-70.209613
  0
LINE
  8
別途部材
  6
CONTINUOUS
 10
-76.01245
 20
-64.87628
 11
-76.01245
 21
-70.209613
  0
LINE
  8
別途部材
  6
CONTINUOUS
 10
-77.01245
 20
-64.87628
 11
-77.01245
 21
-70.209613
  0
LINE
  8
別途部材
  6
CONTINUOUS
 10
-72.01245
 20
-64.87628
 11
-72.01245
 21
-70.209613
  0
LINE
  8
別途部材
  6
CONTINUOUS
 10
-70.01245
 20
-63.87628
 11
-70.01245
 21
-70.209613
  0
LINE
  8
別途部材
  6
CONTINUOUS
 10
-71.01245
 20
-63.87628
 11
-71.01245
 21
-70.209613
  0
LINE
  8
別途部材
  6
CONTINUOUS
 10
-69.01245
 20
-64.87628
 11
-69.01245
 21
-70.209613
  0
LINE
  8
別途部材
  6
CONTINUOUS
 10
-67.01245
 20
-63.87628
 11
-67.01245
 21
-70.209613
  0
LINE
  8
別途部材
  6
CONTINUOUS
 10
-68.01245
 20
-64.87628
 11
-68.01245
 21
-70.209613
  0
LINE
  8
別途部材
  6
CONTINUOUS
 10
-66.01245
 20
-63.87628
 11
-66.01245
 21
-70.209613
  0
LINE
  8
別途部材
  6
CONTINUOUS
 10
-65.01245
 20
-64.87628
 11
-65.01245
 21
-70.209613
  0
LINE
  8
別途部材
  6
CONTINUOUS
 10
-63.01245
 20
-63.87628
 11
-63.01245
 21
-70.209613
  0
LINE
  8
別途部材
  6
CONTINUOUS
 10
-64.01245
 20
-64.87628
 11
-64.01245
 21
-70.209613
  0
LINE
  8
別途部材
  6
CONTINUOUS
 10
-60.01245
 20
-64.87628
 11
-60.01245
 21
-70.209613
  0
LINE
  8
別途部材
  6
CONTINUOUS
 10
-61.01245
 20
-64.87628
 11
-61.01245
 21
-70.209613
  0
LINE
  8
別途部材
  6
CONTINUOUS
 10
-62.01245
 20
-63.87628
 11
-62.01245
 21
-70.209613
  0
LINE
  8
別途部材
  6
CONTINUOUS
 10
-59.01245
 20
-63.87628
 11
-59.01245
 21
-70.209613
  0
LINE
  8
別途部材
  6
CONTINUOUS
 10
-58.01245
 20
-63.87628
 11
-58.01245
 21
-70.209613
  0
LINE
  8
別途部材
  6
CONTINUOUS
 10
-57.01245
 20
-64.87628
 11
-57.01245
 21
-70.209613
  0
LINE
  8
別途部材
  6
CONTINUOUS
 10
-55.01245
 20
-63.87628
 11
-55.01245
 21
-70.209613
  0
LINE
  8
別途部材
  6
CONTINUOUS
 10
-51.01245
 20
-63.87628
 11
-51.01245
 21
-70.209613
  0
LINE
  8
別途部材
  6
CONTINUOUS
 10
-52.01245
 20
-64.87628
 11
-52.01245
 21
-70.209613
  0
LINE
  8
別途部材
  6
CONTINUOUS
 10
-53.01245
 20
-64.87628
 11
-53.01245
 21
-70.209613
  0
LINE
  8
別途部材
  6
CONTINUOUS
 10
-54.01245
 20
-63.87628
 11
-54.01245
 21
-70.209613
  0
LINE
  8
別途部材
  6
CONTINUOUS
 10
-56.01245
 20
-64.87628
 11
-56.01245
 21
-70.209613
  0
LINE
  8
別途部材
  6
CONTINUOUS
 10
-49.01245
 20
-64.87628
 11
-49.01245
 21
-70.209613
  0
LINE
  8
別途部材
  6
CONTINUOUS
 10
-50.01245
 20
-63.87628
 11
-50.01245
 21
-70.209613
  0
LINE
  8
別途部材
  6
CONTINUOUS
 10
-48.01245
 20
-64.87628
 11
-48.01245
 21
-70.209613
  0
LINE
  8
別途部材
  6
CONTINUOUS
 10
-47.01245
 20
-63.87628
 11
-47.01245
 21
-70.209613
  0
LINE
  8
別途部材
  6
CONTINUOUS
 10
-43.01245
 20
-63.87628
 11
-43.01245
 21
-70.209613
  0
LINE
  8
別途部材
  6
CONTINUOUS
 10
-42.01245
 20
-63.87628
 11
-42.01245
 21
-70.209613
  0
LINE
  8
別途部材
  6
CONTINUOUS
 10
-44.01245
 20
-64.87628
 11
-44.01245
 21
-70.209613
  0
LINE
  8
別途部材
  6
CONTINUOUS
 10
-45.01245
 20
-64.87628
 11
-45.01245
 21
-70.209613
  0
LINE
  8
別途部材
  6
CONTINUOUS
 10
-46.01245
 20
-63.87628
 11
-46.01245
 21
-70.209613
  0
LINE
  8
別途部材
  6
CONTINUOUS
 10
-41.01245
 20
-64.87628
 11
-41.01245
 21
-70.209613
  0
LINE
  8
別途部材
  6
CONTINUOUS
 10
-39.01245
 20
-63.87628
 11
-39.01245
 21
-70.209613
  0
LINE
  8
別途部材
  6
CONTINUOUS
 10
-38.01245
 20
-63.87628
 11
-38.01245
 21
-70.209613
  0
LINE
  8
別途部材
  6
CONTINUOUS
 10
-37.01245
 20
-64.87628
 11
-37.01245
 21
-70.209613
  0
LINE
  8
別途部材
  6
CONTINUOUS
 10
-36.01245
 20
-64.87628
 11
-36.01245
 21
-70.209613
  0
LINE
  8
別途部材
  6
CONTINUOUS
 10
-35.01245
 20
-63.87628
 11
-35.01245
 21
-70.209613
  0
LINE
  8
別途部材
  6
CONTINUOUS
 10
-40.01245
 20
-64.87628
 11
-40.01245
 21
-70.209613
  0
LINE
  8
別途部材
  6
CONTINUOUS
 10
-34.01245
 20
-63.87628
 11
-34.01245
 21
-70.209613
  0
LINE
  8
別途部材
  6
CONTINUOUS
 10
-33.01245
 20
-64.87628
 11
-33.01245
 21
-70.209613
  0
LINE
  8
別途部材
  6
CONTINUOUS
 10
-32.01245
 20
-64.87628
 11
-32.01245
 21
-70.209613
  0
LINE
  8
別途部材
  6
CONTINUOUS
 10
-30.01245
 20
-63.87628
 11
-30.01245
 21
-70.209613
  0
LINE
  8
別途部材
  6
CONTINUOUS
 10
-28.01245
 20
-64.87628
 11
-28.01245
 21
-70.209613
  0
LINE
  8
別途部材
  6
CONTINUOUS
 10
-27.01245
 20
-63.87628
 11
-27.01245
 21
-70.209613
  0
LINE
  8
別途部材
  6
CONTINUOUS
 10
-25.01245
 20
-64.87628
 11
-25.01245
 21
-70.209613
  0
LINE
  8
別途部材
  6
CONTINUOUS
 10
-24.01245
 20
-64.87628
 11
-24.01245
 21
-70.209613
  0
LINE
  8
別途部材
  6
CONTINUOUS
 10
-23.01245
 20
-63.87628
 11
-23.01245
 21
-70.209613
  0
LINE
  8
別途部材
  6
CONTINUOUS
 10
-26.01245
 20
-63.87628
 11
-26.01245
 21
-70.209613
  0
LINE
  8
別途部材
  6
CONTINUOUS
 10
-29.01245
 20
-64.87628
 11
-29.01245
 21
-70.209613
  0
LINE
  8
別途部材
  6
CONTINUOUS
 10
-31.01245
 20
-63.87628
 11
-31.01245
 21
-70.209613
  0
LINE
  8
別途部材
  6
CONTINUOUS
 10
-109.01245
 20
-64.87628
 11
-110.01245
 21
-63.87628
  0
LINE
  8
別途部材
  6
CONTINUOUS
 10
-111.01245
 20
-63.87628
 11
-112.01245
 21
-64.87628
  0
LINE
  8
別途部材
  6
CONTINUOUS
 10
-110.01245
 20
-63.87628
 11
-111.01245
 21
-63.87628
  0
LINE
  8
別途部材
  6
CONTINUOUS
 10
-108.01245
 20
-64.87628
 11
-109.01245
 21
-64.87628
  0
LINE
  8
別途部材
  6
CONTINUOUS
 10
-112.01245
 20
-64.87628
 11
-112.01245
 21
-70.209613
  0
LINE
  8
別途部材
  6
CONTINUOUS
 10
-111.01245
 20
-63.87628
 11
-111.01245
 21
-70.209613
  0
LINE
  8
別途部材
  6
CONTINUOUS
 10
-110.01245
 20
-63.87628
 11
-110.01245
 21
-70.209613
  0
LINE
  8
別途部材
  6
CONTINUOUS
 10
-109.01245
 20
-64.87628
 11
-109.01245
 21
-70.209613
  0
LINE
  8
別途部材
  6
CONTINUOUS
 10
-112.01245
 20
-64.87628
 11
-112.51245
 21
-64.87628
  0
LINE
  8
別途部材
  6
CONTINUOUS
 62
    96
 10
79.154218
 20
-70.209613
 11
79.554218
 21
-71.209613
  0
LINE
  8
別途部材
  6
CONTINUOUS
 62
    96
 10
79.154218
 20
-70.209613
 11
-22.51245
 21
-70.209613
  0
LINE
  8
別途部材
  6
CONTINUOUS
 10
79.554218
 20
-71.209613
 11
-22.51245
 21
-71.209613
  0
ARC
  8
別途部材
  6
CONTINUOUS
 10
67.487551
 20
-76.917952
 40
12.041668
 50
33.855033
 51
90.0
  0
LINE
  8
別途部材
  6
CONTINUOUS
 10
-22.01245
 20
-63.87628
 11
-21.01245
 21
-64.87628
  0
LINE
  8
別途部材
  6
CONTINUOUS
 10
-20.01245
 20
-64.87628
 11
-19.01245
 21
-63.87628
  0
LINE
  8
別途部材
  6
CONTINUOUS
 10
-18.01245
 20
-63.87628
 11
-17.01245
 21
-64.87628
  0
LINE
  8
別途部材
  6
CONTINUOUS
 10
-19.01245
 20
-63.87628
 11
-18.01245
 21
-63.87628
  0
LINE
  8
別途部材
  6
CONTINUOUS
 10
-22.01245
 20
-63.87628
 11
-22.51245
 21
-63.87628
  0
LINE
  8
別途部材
  6
CONTINUOUS
 10
-16.01245
 20
-64.87628
 11
-15.01245
 21
-63.87628
  0
LINE
  8
別途部材
  6
CONTINUOUS
 10
-14.01245
 20
-63.87628
 11
-13.01245
 21
-64.87628
  0
LINE
  8
別途部材
  6
CONTINUOUS
 10
-15.01245
 20
-63.87628
 11
-14.01245
 21
-63.87628
  0
LINE
  8
別途部材
  6
CONTINUOUS
 10
-12.01245
 20
-64.87628
 11
-11.01245
 21
-63.87628
  0
LINE
  8
別途部材
  6
CONTINUOUS
 10
-10.01245
 20
-63.87628
 11
-9.01245
 21
-64.87628
  0
LINE
  8
別途部材
  6
CONTINUOUS
 10
-11.01245
 20
-63.87628
 11
-10.01245
 21
-63.87628
  0
LINE
  8
別途部材
  6
CONTINUOUS
 10
-8.01245
 20
-64.87628
 11
-7.01245
 21
-63.87628
  0
LINE
  8
別途部材
  6
CONTINUOUS
 10
-6.01245
 20
-63.87628
 11
-5.01245
 21
-64.87628
  0
LINE
  8
別途部材
  6
CONTINUOUS
 10
-7.01245
 20
-63.87628
 11
-6.01245
 21
-63.87628
  0
LINE
  8
別途部材
  6
CONTINUOUS
 10
-4.01245
 20
-64.87628
 11
-3.01245
 21
-63.87628
  0
LINE
  8
別途部材
  6
CONTINUOUS
 10
-2.01245
 20
-63.87628
 11
-1.01245
 21
-64.87628
  0
LINE
  8
別途部材
  6
CONTINUOUS
 10
-3.01245
 20
-63.87628
 11
-2.01245
 21
-63.87628
  0
LINE
  8
別途部材
  6
CONTINUOUS
 10
-0.01245
 20
-64.87628
 11
0.98755
 21
-63.87628
  0
LINE
  8
別途部材
  6
CONTINUOUS
 10
1.98755
 20
-63.87628
 11
2.98755
 21
-64.87628
  0
LINE
  8
別途部材
  6
CONTINUOUS
 10
0.98755
 20
-63.87628
 11
1.98755
 21
-63.87628
  0
LINE
  8
別途部材
  6
CONTINUOUS
 10
3.98755
 20
-64.87628
 11
4.98755
 21
-63.87628
  0
LINE
  8
別途部材
  6
CONTINUOUS
 10
5.98755
 20
-63.87628
 11
6.98755
 21
-64.87628
  0
LINE
  8
別途部材
  6
CONTINUOUS
 10
4.98755
 20
-63.87628
 11
5.98755
 21
-63.87628
  0
LINE
  8
別途部材
  6
CONTINUOUS
 10
7.98755
 20
-64.87628
 11
8.98755
 21
-63.87628
  0
LINE
  8
別途部材
  6
CONTINUOUS
 10
9.98755
 20
-63.87628
 11
10.98755
 21
-64.87628
  0
LINE
  8
別途部材
  6
CONTINUOUS
 10
8.98755
 20
-63.87628
 11
9.98755
 21
-63.87628
  0
LINE
  8
別途部材
  6
CONTINUOUS
 10
11.98755
 20
-64.87628
 11
12.98755
 21
-63.87628
  0
LINE
  8
別途部材
  6
CONTINUOUS
 10
13.98755
 20
-63.87628
 11
14.98755
 21
-64.87628
  0
LINE
  8
別途部材
  6
CONTINUOUS
 10
12.98755
 20
-63.87628
 11
13.98755
 21
-63.87628
  0
LINE
  8
別途部材
  6
CONTINUOUS
 10
15.98755
 20
-64.87628
 11
16.98755
 21
-63.87628
  0
LINE
  8
別途部材
  6
CONTINUOUS
 10
17.98755
 20
-63.87628
 11
18.98755
 21
-64.87628
  0
LINE
  8
別途部材
  6
CONTINUOUS
 10
16.98755
 20
-63.87628
 11
17.98755
 21
-63.87628
  0
LINE
  8
別途部材
  6
CONTINUOUS
 10
19.98755
 20
-64.87628
 11
20.98755
 21
-63.87628
  0
LINE
  8
別途部材
  6
CONTINUOUS
 10
21.98755
 20
-63.87628
 11
22.98755
 21
-64.87628
  0
LINE
  8
別途部材
  6
CONTINUOUS
 10
20.98755
 20
-63.87628
 11
21.98755
 21
-63.87628
  0
LINE
  8
別途部材
  6
CONTINUOUS
 10
18.98755
 20
-64.87628
 11
19.98755
 21
-64.87628
  0
LINE
  8
別途部材
  6
CONTINUOUS
 10
14.98755
 20
-64.87628
 11
15.98755
 21
-64.87628
  0
LINE
  8
別途部材
  6
CONTINUOUS
 10
10.98755
 20
-64.87628
 11
11.98755
 21
-64.87628
  0
LINE
  8
別途部材
  6
CONTINUOUS
 10
6.98755
 20
-64.87628
 11
7.98755
 21
-64.87628
  0
LINE
  8
別途部材
  6
CONTINUOUS
 10
2.98755
 20
-64.87628
 11
3.98755
 21
-64.87628
  0
LINE
  8
別途部材
  6
CONTINUOUS
 10
-1.01245
 20
-64.87628
 11
-0.01245
 21
-64.87628
  0
LINE
  8
別途部材
  6
CONTINUOUS
 10
-5.01245
 20
-64.87628
 11
-4.01245
 21
-64.87628
  0
LINE
  8
別途部材
  6
CONTINUOUS
 10
-9.01245
 20
-64.87628
 11
-8.01245
 21
-64.87628
  0
LINE
  8
別途部材
  6
CONTINUOUS
 10
-13.01245
 20
-64.87628
 11
-12.01245
 21
-64.87628
  0
LINE
  8
別途部材
  6
CONTINUOUS
 10
-17.01245
 20
-64.87628
 11
-16.01245
 21
-64.87628
  0
LINE
  8
別途部材
  6
CONTINUOUS
 10
-20.01245
 20
-64.87628
 11
-21.01245
 21
-64.87628
  0
LINE
  8
別途部材
  6
CONTINUOUS
 10
23.98755
 20
-64.87628
 11
24.98755
 21
-63.87628
  0
LINE
  8
別途部材
  6
CONTINUOUS
 10
25.98755
 20
-63.87628
 11
26.98755
 21
-64.87628
  0
LINE
  8
別途部材
  6
CONTINUOUS
 10
24.98755
 20
-63.87628
 11
25.98755
 21
-63.87628
  0
LINE
  8
別途部材
  6
CONTINUOUS
 10
27.98755
 20
-64.87628
 11
28.98755
 21
-63.87628
  0
LINE
  8
別途部材
  6
CONTINUOUS
 10
29.98755
 20
-63.87628
 11
30.98755
 21
-64.87628
  0
LINE
  8
別途部材
  6
CONTINUOUS
 10
28.98755
 20
-63.87628
 11
29.98755
 21
-63.87628
  0
LINE
  8
別途部材
  6
CONTINUOUS
 10
31.98755
 20
-64.87628
 11
32.98755
 21
-63.87628
  0
LINE
  8
別途部材
  6
CONTINUOUS
 10
33.98755
 20
-63.87628
 11
34.98755
 21
-64.87628
  0
LINE
  8
別途部材
  6
CONTINUOUS
 10
32.98755
 20
-63.87628
 11
33.98755
 21
-63.87628
  0
LINE
  8
別途部材
  6
CONTINUOUS
 10
35.98755
 20
-64.87628
 11
36.98755
 21
-63.87628
  0
LINE
  8
別途部材
  6
CONTINUOUS
 10
37.98755
 20
-63.87628
 11
38.98755
 21
-64.87628
  0
LINE
  8
別途部材
  6
CONTINUOUS
 10
36.98755
 20
-63.87628
 11
37.98755
 21
-63.87628
  0
LINE
  8
別途部材
  6
CONTINUOUS
 10
39.98755
 20
-64.87628
 11
40.98755
 21
-63.87628
  0
LINE
  8
別途部材
  6
CONTINUOUS
 10
41.98755
 20
-63.87628
 11
42.98755
 21
-64.87628
  0
LINE
  8
別途部材
  6
CONTINUOUS
 10
40.98755
 20
-63.87628
 11
41.98755
 21
-63.87628
  0
LINE
  8
別途部材
  6
CONTINUOUS
 10
43.98755
 20
-64.87628
 11
44.98755
 21
-63.87628
  0
LINE
  8
別途部材
  6
CONTINUOUS
 10
45.98755
 20
-63.87628
 11
46.98755
 21
-64.87628
  0
LINE
  8
別途部材
  6
CONTINUOUS
 10
44.98755
 20
-63.87628
 11
45.98755
 21
-63.87628
  0
LINE
  8
別途部材
  6
CONTINUOUS
 10
47.98755
 20
-64.87628
 11
48.98755
 21
-63.87628
  0
LINE
  8
別途部材
  6
CONTINUOUS
 10
49.98755
 20
-63.87628
 11
50.98755
 21
-64.87628
  0
LINE
  8
別途部材
  6
CONTINUOUS
 10
48.98755
 20
-63.87628
 11
49.98755
 21
-63.87628
  0
LINE
  8
別途部材
  6
CONTINUOUS
 10
51.98755
 20
-64.87628
 11
52.98755
 21
-63.87628
  0
LINE
  8
別途部材
  6
CONTINUOUS
 10
53.98755
 20
-63.87628
 11
54.98755
 21
-64.87628
  0
LINE
  8
別途部材
  6
CONTINUOUS
 10
52.98755
 20
-63.87628
 11
53.98755
 21
-63.87628
  0
LINE
  8
別途部材
  6
CONTINUOUS
 10
50.98755
 20
-64.87628
 11
51.98755
 21
-64.87628
  0
LINE
  8
別途部材
  6
CONTINUOUS
 10
46.98755
 20
-64.87628
 11
47.98755
 21
-64.87628
  0
LINE
  8
別途部材
  6
CONTINUOUS
 10
42.98755
 20
-64.87628
 11
43.98755
 21
-64.87628
  0
LINE
  8
別途部材
  6
CONTINUOUS
 10
38.98755
 20
-64.87628
 11
39.98755
 21
-64.87628
  0
LINE
  8
別途部材
  6
CONTINUOUS
 10
34.98755
 20
-64.87628
 11
35.98755
 21
-64.87628
  0
LINE
  8
別途部材
  6
CONTINUOUS
 10
30.98755
 20
-64.87628
 11
31.98755
 21
-64.87628
  0
LINE
  8
別途部材
  6
CONTINUOUS
 10
26.98755
 20
-64.87628
 11
27.98755
 21
-64.87628
  0
LINE
  8
別途部材
  6
CONTINUOUS
 10
22.98755
 20
-64.87628
 11
23.98755
 21
-64.87628
  0
LINE
  8
別途部材
  6
CONTINUOUS
 10
55.98755
 20
-64.87628
 11
56.98755
 21
-63.87628
  0
LINE
  8
別途部材
  6
CONTINUOUS
 10
57.98755
 20
-63.87628
 11
58.98755
 21
-64.87628
  0
LINE
  8
別途部材
  6
CONTINUOUS
 10
56.98755
 20
-63.87628
 11
57.98755
 21
-63.87628
  0
LINE
  8
別途部材
  6
CONTINUOUS
 10
54.98755
 20
-64.87628
 11
55.98755
 21
-64.87628
  0
LINE
  8
別途部材
  6
CONTINUOUS
 10
59.98755
 20
-64.87628
 11
60.98755
 21
-63.87628
  0
LINE
  8
別途部材
  6
CONTINUOUS
 10
61.98755
 20
-63.87628
 11
62.98755
 21
-64.87628
  0
LINE
  8
別途部材
  6
CONTINUOUS
 10
60.98755
 20
-63.87628
 11
61.98755
 21
-63.87628
  0
LINE
  8
別途部材
  6
CONTINUOUS
 10
58.98755
 20
-64.87628
 11
59.98755
 21
-64.87628
  0
LINE
  8
別途部材
  6
CONTINUOUS
 10
62.98755
 20
-64.87628
 11
62.98755
 21
-70.209613
  0
LINE
  8
別途部材
  6
CONTINUOUS
 10
61.98755
 20
-63.87628
 11
61.98755
 21
-70.209613
  0
LINE
  8
別途部材
  6
CONTINUOUS
 10
60.98755
 20
-63.87628
 11
60.98755
 21
-70.209613
  0
LINE
  8
別途部材
  6
CONTINUOUS
 10
58.98755
 20
-64.87628
 11
58.98755
 21
-70.209613
  0
LINE
  8
別途部材
  6
CONTINUOUS
 10
59.98755
 20
-64.87628
 11
59.98755
 21
-70.209613
  0
LINE
  8
別途部材
  6
CONTINUOUS
 10
57.98755
 20
-63.87628
 11
57.98755
 21
-70.209613
  0
LINE
  8
別途部材
  6
CONTINUOUS
 10
56.98755
 20
-63.87628
 11
56.98755
 21
-70.209613
  0
LINE
  8
別途部材
  6
CONTINUOUS
 10
54.98755
 20
-64.87628
 11
54.98755
 21
-70.209613
  0
LINE
  8
別途部材
  6
CONTINUOUS
 10
52.98755
 20
-63.87628
 11
52.98755
 21
-70.209613
  0
LINE
  8
別途部材
  6
CONTINUOUS
 10
51.98755
 20
-64.87628
 11
51.98755
 21
-70.209613
  0
LINE
  8
別途部材
  6
CONTINUOUS
 10
53.98755
 20
-63.87628
 11
53.98755
 21
-70.209613
  0
LINE
  8
別途部材
  6
CONTINUOUS
 10
55.98755
 20
-64.87628
 11
55.98755
 21
-70.209613
  0
LINE
  8
別途部材
  6
CONTINUOUS
 10
50.98755
 20
-64.87628
 11
50.98755
 21
-70.209613
  0
LINE
  8
別途部材
  6
CONTINUOUS
 10
49.98755
 20
-63.87628
 11
49.98755
 21
-70.209613
  0
LINE
  8
別途部材
  6
CONTINUOUS
 10
47.98755
 20
-64.87628
 11
47.98755
 21
-70.209613
  0
LINE
  8
別途部材
  6
CONTINUOUS
 10
48.98755
 20
-63.87628
 11
48.98755
 21
-70.209613
  0
LINE
  8
別途部材
  6
CONTINUOUS
 10
45.98755
 20
-63.87628
 11
45.98755
 21
-70.209613
  0
LINE
  8
別途部材
  6
CONTINUOUS
 10
46.98755
 20
-64.87628
 11
46.98755
 21
-70.209613
  0
LINE
  8
別途部材
  6
CONTINUOUS
 10
44.98755
 20
-63.87628
 11
44.98755
 21
-70.209613
  0
LINE
  8
別途部材
  6
CONTINUOUS
 10
43.98755
 20
-64.87628
 11
43.98755
 21
-70.209613
  0
LINE
  8
別途部材
  6
CONTINUOUS
 10
41.98755
 20
-63.87628
 11
41.98755
 21
-70.209613
  0
LINE
  8
別途部材
  6
CONTINUOUS
 10
42.98755
 20
-64.87628
 11
42.98755
 21
-70.209613
  0
LINE
  8
別途部材
  6
CONTINUOUS
 10
39.98755
 20
-64.87628
 11
39.98755
 21
-70.209613
  0
LINE
  8
別途部材
  6
CONTINUOUS
 10
40.98755
 20
-63.87628
 11
40.98755
 21
-70.209613
  0
LINE
  8
別途部材
  6
CONTINUOUS
 10
38.98755
 20
-64.87628
 11
38.98755
 21
-70.209613
  0
LINE
  8
別途部材
  6
CONTINUOUS
 10
36.98755
 20
-63.87628
 11
36.98755
 21
-70.209613
  0
LINE
  8
別途部材
  6
CONTINUOUS
 10
37.98755
 20
-63.87628
 11
37.98755
 21
-70.209613
  0
LINE
  8
別途部材
  6
CONTINUOUS
 10
35.98755
 20
-64.87628
 11
35.98755
 21
-70.209613
  0
LINE
  8
別途部材
  6
CONTINUOUS
 10
34.98755
 20
-64.87628
 11
34.98755
 21
-70.209613
  0
LINE
  8
別途部材
  6
CONTINUOUS
 10
33.98755
 20
-63.87628
 11
33.98755
 21
-70.209613
  0
LINE
  8
別途部材
  6
CONTINUOUS
 10
32.98755
 20
-63.87628
 11
32.98755
 21
-70.209613
  0
LINE
  8
別途部材
  6
CONTINUOUS
 10
29.98755
 20
-63.87628
 11
29.98755
 21
-70.209613
  0
LINE
  8
別途部材
  6
CONTINUOUS
 10
27.98755
 20
-64.87628
 11
27.98755
 21
-70.209613
  0
LINE
  8
別途部材
  6
CONTINUOUS
 10
28.98755
 20
-63.87628
 11
28.98755
 21
-70.209613
  0
LINE
  8
別途部材
  6
CONTINUOUS
 10
30.98755
 20
-64.87628
 11
30.98755
 21
-70.209613
  0
LINE
  8
別途部材
  6
CONTINUOUS
 10
31.98755
 20
-64.87628
 11
31.98755
 21
-70.209613
  0
LINE
  8
別途部材
  6
CONTINUOUS
 10
26.98755
 20
-64.87628
 11
26.98755
 21
-70.209613
  0
LINE
  8
別途部材
  6
CONTINUOUS
 10
24.98755
 20
-63.87628
 11
24.98755
 21
-70.209613
  0
LINE
  8
別途部材
  6
CONTINUOUS
 10
25.98755
 20
-63.87628
 11
25.98755
 21
-70.209613
  0
LINE
  8
別途部材
  6
CONTINUOUS
 10
23.98755
 20
-64.87628
 11
23.98755
 21
-70.209613
  0
LINE
  8
別途部材
  6
CONTINUOUS
 10
21.98755
 20
-63.87628
 11
21.98755
 21
-70.209613
  0
LINE
  8
別途部材
  6
CONTINUOUS
 10
22.98755
 20
-64.87628
 11
22.98755
 21
-70.209613
  0
LINE
  8
別途部材
  6
CONTINUOUS
 10
20.98755
 20
-63.87628
 11
20.98755
 21
-70.209613
  0
LINE
  8
別途部材
  6
CONTINUOUS
 10
19.98755
 20
-64.87628
 11
19.98755
 21
-70.209613
  0
LINE
  8
別途部材
  6
CONTINUOUS
 10
17.98755
 20
-63.87628
 11
17.98755
 21
-70.209613
  0
LINE
  8
別途部材
  6
CONTINUOUS
 10
18.98755
 20
-64.87628
 11
18.98755
 21
-70.209613
  0
LINE
  8
別途部材
  6
CONTINUOUS
 10
14.98755
 20
-64.87628
 11
14.98755
 21
-70.209613
  0
LINE
  8
別途部材
  6
CONTINUOUS
 10
15.98755
 20
-64.87628
 11
15.98755
 21
-70.209613
  0
LINE
  8
別途部材
  6
CONTINUOUS
 10
16.98755
 20
-63.87628
 11
16.98755
 21
-70.209613
  0
LINE
  8
別途部材
  6
CONTINUOUS
 10
13.98755
 20
-63.87628
 11
13.98755
 21
-70.209613
  0
LINE
  8
別途部材
  6
CONTINUOUS
 10
12.98755
 20
-63.87628
 11
12.98755
 21
-70.209613
  0
LINE
  8
別途部材
  6
CONTINUOUS
 10
11.98755
 20
-64.87628
 11
11.98755
 21
-70.209613
  0
LINE
  8
別途部材
  6
CONTINUOUS
 10
9.98755
 20
-63.87628
 11
9.98755
 21
-70.209613
  0
LINE
  8
別途部材
  6
CONTINUOUS
 10
5.98755
 20
-63.87628
 11
5.98755
 21
-70.209613
  0
LINE
  8
別途部材
  6
CONTINUOUS
 10
6.98755
 20
-64.87628
 11
6.98755
 21
-70.209613
  0
LINE
  8
別途部材
  6
CONTINUOUS
 10
7.98755
 20
-64.87628
 11
7.98755
 21
-70.209613
  0
LINE
  8
別途部材
  6
CONTINUOUS
 10
8.98755
 20
-63.87628
 11
8.98755
 21
-70.209613
  0
LINE
  8
別途部材
  6
CONTINUOUS
 10
10.98755
 20
-64.87628
 11
10.98755
 21
-70.209613
  0
LINE
  8
別途部材
  6
CONTINUOUS
 10
3.98755
 20
-64.87628
 11
3.98755
 21
-70.209613
  0
LINE
  8
別途部材
  6
CONTINUOUS
 10
4.98755
 20
-63.87628
 11
4.98755
 21
-70.209613
  0
LINE
  8
別途部材
  6
CONTINUOUS
 10
2.98755
 20
-64.87628
 11
2.98755
 21
-70.209613
  0
LINE
  8
別途部材
  6
CONTINUOUS
 10
1.98755
 20
-63.87628
 11
1.98755
 21
-70.209613
  0
LINE
  8
別途部材
  6
CONTINUOUS
 10
-2.01245
 20
-63.87628
 11
-2.01245
 21
-70.209613
  0
LINE
  8
別途部材
  6
CONTINUOUS
 10
-3.01245
 20
-63.87628
 11
-3.01245
 21
-70.209613
  0
LINE
  8
別途部材
  6
CONTINUOUS
 10
-1.01245
 20
-64.87628
 11
-1.01245
 21
-70.209613
  0
LINE
  8
別途部材
  6
CONTINUOUS
 10
-0.01245
 20
-64.87628
 11
-0.01245
 21
-70.209613
  0
LINE
  8
別途部材
  6
CONTINUOUS
 10
0.98755
 20
-63.87628
 11
0.98755
 21
-70.209613
  0
LINE
  8
別途部材
  6
CONTINUOUS
 10
-4.01245
 20
-64.87628
 11
-4.01245
 21
-70.209613
  0
LINE
  8
別途部材
  6
CONTINUOUS
 10
-6.01245
 20
-63.87628
 11
-6.01245
 21
-70.209613
  0
LINE
  8
別途部材
  6
CONTINUOUS
 10
-7.01245
 20
-63.87628
 11
-7.01245
 21
-70.209613
  0
LINE
  8
別途部材
  6
CONTINUOUS
 10
-8.01245
 20
-64.87628
 11
-8.01245
 21
-70.209613
  0
LINE
  8
別途部材
  6
CONTINUOUS
 10
-9.01245
 20
-64.87628
 11
-9.01245
 21
-70.209613
  0
LINE
  8
別途部材
  6
CONTINUOUS
 10
-10.01245
 20
-63.87628
 11
-10.01245
 21
-70.209613
  0
LINE
  8
別途部材
  6
CONTINUOUS
 10
-5.01245
 20
-64.87628
 11
-5.01245
 21
-70.209613
  0
LINE
  8
別途部材
  6
CONTINUOUS
 10
-11.01245
 20
-63.87628
 11
-11.01245
 21
-70.209613
  0
LINE
  8
別途部材
  6
CONTINUOUS
 10
-12.01245
 20
-64.87628
 11
-12.01245
 21
-70.209613
  0
LINE
  8
別途部材
  6
CONTINUOUS
 10
-13.01245
 20
-64.87628
 11
-13.01245
 21
-70.209613
  0
LINE
  8
別途部材
  6
CONTINUOUS
 10
-15.01245
 20
-63.87628
 11
-15.01245
 21
-70.209613
  0
LINE
  8
別途部材
  6
CONTINUOUS
 10
-17.01245
 20
-64.87628
 11
-17.01245
 21
-70.209613
  0
LINE
  8
別途部材
  6
CONTINUOUS
 10
-18.01245
 20
-63.87628
 11
-18.01245
 21
-70.209613
  0
LINE
  8
別途部材
  6
CONTINUOUS
 10
-20.01245
 20
-64.87628
 11
-20.01245
 21
-70.209613
  0
LINE
  8
別途部材
  6
CONTINUOUS
 10
-21.01245
 20
-64.87628
 11
-21.01245
 21
-70.209613
  0
LINE
  8
別途部材
  6
CONTINUOUS
 10
-22.01245
 20
-63.87628
 11
-22.01245
 21
-70.209613
  0
LINE
  8
別途部材
  6
CONTINUOUS
 10
-19.01245
 20
-63.87628
 11
-19.01245
 21
-70.209613
  0
LINE
  8
別途部材
  6
CONTINUOUS
 10
-16.01245
 20
-64.87628
 11
-16.01245
 21
-70.209613
  0
LINE
  8
別途部材
  6
CONTINUOUS
 10
-14.01245
 20
-63.87628
 11
-14.01245
 21
-70.209613
  0
LINE
  8
別途部材
  6
CONTINUOUS
 10
63.98755
 20
-64.87628
 11
64.98755
 21
-63.87628
  0
LINE
  8
別途部材
  6
CONTINUOUS
 10
65.98755
 20
-63.87628
 11
66.98755
 21
-64.87628
  0
LINE
  8
別途部材
  6
CONTINUOUS
 10
64.98755
 20
-63.87628
 11
65.98755
 21
-63.87628
  0
LINE
  8
別途部材
  6
CONTINUOUS
 10
62.98755
 20
-64.87628
 11
63.98755
 21
-64.87628
  0
LINE
  8
別途部材
  6
CONTINUOUS
 10
66.98755
 20
-64.87628
 11
66.98755
 21
-70.209613
  0
LINE
  8
別途部材
  6
CONTINUOUS
 10
65.98755
 20
-63.87628
 11
65.98755
 21
-70.209613
  0
LINE
  8
別途部材
  6
CONTINUOUS
 10
64.98755
 20
-63.87628
 11
64.98755
 21
-70.209613
  0
LINE
  8
別途部材
  6
CONTINUOUS
 10
63.98755
 20
-64.87628
 11
63.98755
 21
-70.209613
  0
LINE
  8
別途部材
  6
CONTINUOUS
 10
66.98755
 20
-64.87628
 11
67.48755
 21
-64.87628
  0
ENDBLK
  0
BLOCK
  2
*GRP_0013
 70
    65
 10
0.0
 20
0.0
  0
LINE
  8
補助線
  6
BYBLOCK
 62
    64
 10
-102.43799
 20
-75.132367
 11
-102.586915
 21
-75.207193
  0
LINE
  8
補助線
  6
BYBLOCK
 62
    64
 10
-102.549865
 20
-75.095315
 11
-102.47504
 21
-75.244243
  0
LINE
  8
補助線
  6
BYBLOCK
 62
    64
 10
-92.51951
 20
-70.14901
 11
-92.668437
 21
-70.223835
  0
LINE
  8
補助線
  6
BYBLOCK
 62
    64
 10
-92.631387
 20
-70.111957
 11
-92.556563
 21
-70.260885
  0
LINE
  8
補助線
  6
BYBLOCK
 62
    64
 10
-82.74996
 20
-65.240477
 11
-82.601033
 21
-65.165653
  0
LINE
  8
補助線
  6
BYBLOCK
 62
    64
 10
-82.71291
 20
-65.1286
 11
-82.638085
 21
-65.277527
  0
LINE
  8
型材断面
  6
CONTINUOUS
 10
-103.18443
 20
-74.574802
 11
-103.406733
 21
-75.246055
  0
LINE
  8
型材断面
  6
CONTINUOUS
 10
-103.406733
 20
-75.246055
 11
-103.10743
 21
-75.84176
  0
LINE
  8
型材断面
  6
CONTINUOUS
 10
-103.10743
 20
-75.84176
 11
-102.436178
 21
-76.064063
  0
LINE
  8
型材断面
  6
CONTINUOUS
 10
-82.751772
 20
-64.308785
 11
-82.080518
 21
-64.531088
  0
LINE
  8
型材断面
  6
CONTINUOUS
 10
-82.080518
 20
-64.531088
 11
-81.781215
 21
-65.126793
  0
LINE
  8
型材断面
  6
CONTINUOUS
 10
-81.781215
 20
-65.126793
 11
-82.00352
 21
-65.798045
  0
LINE
  8
型材断面
  6
CONTINUOUS
 10
-103.18443
 20
-74.574802
 11
-82.751772
 21
-64.308785
  0
LINE
  8
型材断面
  6
CONTINUOUS
 10
-102.436178
 20
-76.064063
 11
-82.00352
 21
-65.798045
  0
CIRCLE
  8
ボルト／ビス
  6
CONTINUOUS
 10
-102.512453
 20
-75.16978
 40
0.250185
  0
CIRCLE
  8
ボルト／ビス
  6
CONTINUOUS
 10
-102.512453
 20
-75.16978
 40
0.301025
  0
LINE
  8
ボルト／ビス
  6
CONTINUOUS
 62
    64
 10
-102.762218
 20
-75.155278
 11
-102.624773
 21
-74.946227
  0
LINE
  8
ボルト／ビス
  6
CONTINUOUS
 62
    64
 10
-102.375008
 20
-74.96073
 11
-102.624773
 21
-74.946227
  0
LINE
  8
ボルト／ビス
  6
CONTINUOUS
 62
    64
 10
-102.649898
 20
-75.37883
 11
-102.400133
 21
-75.393333
  0
LINE
  8
ボルト／ビス
  6
CONTINUOUS
 62
    64
 10
-102.262688
 20
-75.184282
 11
-102.400133
 21
-75.393333
  0
LINE
  8
ボルト／ビス
  6
CONTINUOUS
 62
    64
 10
-102.762218
 20
-75.155278
 11
-102.649898
 21
-75.37883
  0
LINE
  8
ボルト／ビス
  6
CONTINUOUS
 62
    64
 10
-102.375008
 20
-74.96073
 11
-102.262688
 21
-75.184282
  0
CIRCLE
  8
ボルト／ビス
  6
CONTINUOUS
 62
    64
 10
-102.512453
 20
-75.16978
 40
0.216668
  0
CIRCLE
  8
ボルト／ビス
  6
CONTINUOUS
 10
-92.593975
 20
-70.186423
 40
0.250185
  0
CIRCLE
  8
ボルト／ビス
  6
CONTINUOUS
 10
-92.593975
 20
-70.186423
 40
0.301025
  0
LINE
  8
ボルト／ビス
  6
CONTINUOUS
 62
    64
 10
-92.84374
 20
-70.171918
 11
-92.706295
 21
-69.962867
  0
LINE
  8
ボルト／ビス
  6
CONTINUOUS
 62
    64
 10
-92.45653
 20
-69.97737
 11
-92.706295
 21
-69.962867
  0
LINE
  8
ボルト／ビス
  6
CONTINUOUS
 62
    64
 10
-92.73142
 20
-70.395472
 11
-92.481653
 21
-70.409977
  0
LINE
  8
ボルト／ビス
  6
CONTINUOUS
 62
    64
 10
-92.34421
 20
-70.200928
 11
-92.481653
 21
-70.409977
  0
LINE
  8
ボルト／ビス
  6
CONTINUOUS
 62
    64
 10
-92.84374
 20
-70.171918
 11
-92.73142
 21
-70.395472
  0
LINE
  8
ボルト／ビス
  6
CONTINUOUS
 62
    64
 10
-92.45653
 20
-69.97737
 11
-92.34421
 21
-70.200928
  0
CIRCLE
  8
ボルト／ビス
  6
CONTINUOUS
 62
    64
 10
-92.593975
 20
-70.186423
 40
0.216668
  0
CIRCLE
  8
ボルト／ビス
  6
CONTINUOUS
 10
-82.675497
 20
-65.203065
 40
0.250185
  0
CIRCLE
  8
ボルト／ビス
  6
CONTINUOUS
 10
-82.675497
 20
-65.203065
 40
0.301025
  0
LINE
  8
ボルト／ビス
  6
CONTINUOUS
 62
    64
 10
-82.538052
 20
-64.994015
 11
-82.787817
 21
-64.979512
  0
LINE
  8
ボルト／ビス
  6
CONTINUOUS
 62
    64
 10
-82.925263
 20
-65.188562
 11
-82.787817
 21
-64.979512
  0
LINE
  8
ボルト／ビス
  6
CONTINUOUS
 62
    64
 10
-82.425732
 20
-65.21757
 11
-82.563175
 21
-65.426617
  0
LINE
  8
ボルト／ビス
  6
CONTINUOUS
 62
    64
 10
-82.812943
 20
-65.412115
 11
-82.563175
 21
-65.426617
  0
LINE
  8
ボルト／ビス
  6
CONTINUOUS
 62
    64
 10
-82.538052
 20
-64.994015
 11
-82.425732
 21
-65.21757
  0
LINE
  8
ボルト／ビス
  6
CONTINUOUS
 62
    64
 10
-82.925263
 20
-65.188562
 11
-82.812943
 21
-65.412115
  0
CIRCLE
  8
ボルト／ビス
  6
CONTINUOUS
 62
    64
 10
-82.675497
 20
-65.203065
 40
0.216668
  0
ENDBLK
  0
BLOCK
  2
*GRP_0014
 70
    65
 10
0.0
 20
0.0
  0
LINE
  8
補助線
  6
BYBLOCK
 62
    64
 10
-82.74996
 20
-75.132367
 11
-82.601035
 21
-75.207193
  0
LINE
  8
補助線
  6
BYBLOCK
 62
    64
 10
-82.638085
 20
-75.095315
 11
-82.71291
 21
-75.244243
  0
LINE
  8
補助線
  6
BYBLOCK
 62
    64
 10
-92.66844
 20
-70.14901
 11
-92.519513
 21
-70.223835
  0
LINE
  8
補助線
  6
BYBLOCK
 62
    64
 10
-92.556563
 20
-70.111957
 11
-92.631387
 21
-70.260885
  0
LINE
  8
補助線
  6
BYBLOCK
 62
    64
 10
-102.43799
 20
-65.240477
 11
-102.586917
 21
-65.165653
  0
LINE
  8
補助線
  6
BYBLOCK
 62
    64
 10
-102.47504
 20
-65.1286
 11
-102.549865
 21
-65.277527
  0
LINE
  8
型材断面
  6
CONTINUOUS
 10
-82.00352
 20
-74.574802
 11
-81.781217
 21
-75.246055
  0
LINE
  8
型材断面
  6
CONTINUOUS
 10
-81.781217
 20
-75.246055
 11
-82.08052
 21
-75.84176
  0
LINE
  8
型材断面
  6
CONTINUOUS
 10
-82.08052
 20
-75.84176
 11
-82.751772
 21
-76.064063
  0
LINE
  8
型材断面
  6
CONTINUOUS
 10
-102.436178
 20
-64.308785
 11
-103.107432
 21
-64.531088
  0
LINE
  8
型材断面
  6
CONTINUOUS
 10
-103.107432
 20
-64.531088
 11
-103.406735
 21
-65.126793
  0
LINE
  8
型材断面
  6
CONTINUOUS
 10
-103.406735
 20
-65.126793
 11
-103.18443
 21
-65.798045
  0
LINE
  8
型材断面
  6
CONTINUOUS
 10
-82.00352
 20
-74.574802
 11
-102.436178
 21
-64.308785
  0
LINE
  8
型材断面
  6
CONTINUOUS
 10
-82.751772
 20
-76.064063
 11
-103.18443
 21
-65.798045
  0
CIRCLE
  8
ボルト／ビス
  6
CONTINUOUS
 10
-82.675497
 20
-75.16978
 40
0.250185
  0
CIRCLE
  8
ボルト／ビス
  6
CONTINUOUS
 10
-82.675497
 20
-75.16978
 40
0.301025
  0
LINE
  8
ボルト／ビス
  6
CONTINUOUS
 62
    64
 10
-82.425732
 20
-75.155278
 11
-82.563177
 21
-74.946227
  0
LINE
  8
ボルト／ビス
  6
CONTINUOUS
 62
    64
 10
-82.812943
 20
-74.96073
 11
-82.563177
 21
-74.946227
  0
LINE
  8
ボルト／ビス
  6
CONTINUOUS
 62
    64
 10
-82.538052
 20
-75.37883
 11
-82.787817
 21
-75.393333
  0
LINE
  8
ボルト／ビス
  6
CONTINUOUS
 62
    64
 10
-82.925263
 20
-75.184282
 11
-82.787817
 21
-75.393333
  0
LINE
  8
ボルト／ビス
  6
CONTINUOUS
 62
    64
 10
-82.425732
 20
-75.155278
 11
-82.538052
 21
-75.37883
  0
LINE
  8
ボルト／ビス
  6
CONTINUOUS
 62
    64
 10
-82.812943
 20
-74.96073
 11
-82.925263
 21
-75.184282
  0
CIRCLE
  8
ボルト／ビス
  6
CONTINUOUS
 62
    64
 10
-82.675497
 20
-75.16978
 40
0.216668
  0
CIRCLE
  8
ボルト／ビス
  6
CONTINUOUS
 10
-92.593975
 20
-70.186423
 40
0.250185
  0
CIRCLE
  8
ボルト／ビス
  6
CONTINUOUS
 10
-92.593975
 20
-70.186423
 40
0.301025
  0
LINE
  8
ボルト／ビス
  6
CONTINUOUS
 62
    64
 10
-92.34421
 20
-70.171918
 11
-92.481655
 21
-69.962867
  0
LINE
  8
ボルト／ビス
  6
CONTINUOUS
 62
    64
 10
-92.73142
 20
-69.97737
 11
-92.481655
 21
-69.962867
  0
LINE
  8
ボルト／ビス
  6
CONTINUOUS
 62
    64
 10
-92.45653
 20
-70.395472
 11
-92.706297
 21
-70.409977
  0
LINE
  8
ボルト／ビス
  6
CONTINUOUS
 62
    64
 10
-92.84374
 20
-70.200928
 11
-92.706297
 21
-70.409977
  0
LINE
  8
ボルト／ビス
  6
CONTINUOUS
 62
    64
 10
-92.34421
 20
-70.171918
 11
-92.45653
 21
-70.395472
  0
LINE
  8
ボルト／ビス
  6
CONTINUOUS
 62
    64
 10
-92.73142
 20
-69.97737
 11
-92.84374
 21
-70.200928
  0
CIRCLE
  8
ボルト／ビス
  6
CONTINUOUS
 62
    64
 10
-92.593975
 20
-70.186423
 40
0.216668
  0
CIRCLE
  8
ボルト／ビス
  6
CONTINUOUS
 10
-102.512453
 20
-65.203065
 40
0.250185
  0
CIRCLE
  8
ボルト／ビス
  6
CONTINUOUS
 10
-102.512453
 20
-65.203065
 40
0.301025
  0
LINE
  8
ボルト／ビス
  6
CONTINUOUS
 62
    64
 10
-102.649898
 20
-64.994015
 11
-102.400133
 21
-64.979512
  0
LINE
  8
ボルト／ビス
  6
CONTINUOUS
 62
    64
 10
-102.262688
 20
-65.188562
 11
-102.400133
 21
-64.979512
  0
LINE
  8
ボルト／ビス
  6
CONTINUOUS
 62
    64
 10
-102.762218
 20
-65.21757
 11
-102.624775
 21
-65.426617
  0
LINE
  8
ボルト／ビス
  6
CONTINUOUS
 62
    64
 10
-102.375008
 20
-65.412115
 11
-102.624775
 21
-65.426617
  0
LINE
  8
ボルト／ビス
  6
CONTINUOUS
 62
    64
 10
-102.649898
 20
-64.994015
 11
-102.762218
 21
-65.21757
  0
LINE
  8
ボルト／ビス
  6
CONTINUOUS
 62
    64
 10
-102.262688
 20
-65.188562
 11
-102.375008
 21
-65.412115
  0
CIRCLE
  8
ボルト／ビス
  6
CONTINUOUS
 62
    64
 10
-102.512453
 20
-65.203065
 40
0.216668
  0
ENDBLK
  0
BLOCK
  2
*GRP_0015
 70
    65
 10
0.0
 20
0.0
  0
LINE
  8
補助線
  6
BYBLOCK
 62
    64
 10
57.41309
 20
-75.132367
 11
57.562015
 21
-75.207193
  0
LINE
  8
補助線
  6
BYBLOCK
 62
    64
 10
57.524965
 20
-75.095315
 11
57.45014
 21
-75.244243
  0
LINE
  8
補助線
  6
BYBLOCK
 62
    64
 10
47.49461
 20
-70.14901
 11
47.643537
 21
-70.223835
  0
LINE
  8
補助線
  6
BYBLOCK
 62
    64
 10
47.606488
 20
-70.111957
 11
47.531662
 21
-70.260885
  0
LINE
  8
補助線
  6
BYBLOCK
 62
    64
 10
37.72506
 20
-65.240477
 11
37.576132
 21
-65.165653
  0
LINE
  8
補助線
  6
BYBLOCK
 62
    64
 10
37.68801
 20
-65.1286
 11
37.613185
 21
-65.277527
  0
LINE
  8
型材断面
  6
CONTINUOUS
 10
58.15953
 20
-74.574802
 11
58.381833
 21
-75.246055
  0
LINE
  8
型材断面
  6
CONTINUOUS
 10
58.381833
 20
-75.246055
 11
58.08253
 21
-75.84176
  0
LINE
  8
型材断面
  6
CONTINUOUS
 10
58.08253
 20
-75.84176
 11
57.411277
 21
-76.064063
  0
LINE
  8
型材断面
  6
CONTINUOUS
 10
37.726872
 20
-64.308785
 11
37.055617
 21
-64.531088
  0
LINE
  8
型材断面
  6
CONTINUOUS
 10
37.055617
 20
-64.531088
 11
36.756315
 21
-65.126793
  0
LINE
  8
型材断面
  6
CONTINUOUS
 10
36.756315
 20
-65.126793
 11
36.97862
 21
-65.798045
  0
LINE
  8
型材断面
  6
CONTINUOUS
 10
58.15953
 20
-74.574802
 11
37.726872
 21
-64.308785
  0
LINE
  8
型材断面
  6
CONTINUOUS
 10
57.411277
 20
-76.064063
 11
36.97862
 21
-65.798045
  0
CIRCLE
  8
ボルト／ビス
  6
CONTINUOUS
 10
57.487552
 20
-75.16978
 40
0.250185
  0
CIRCLE
  8
ボルト／ビス
  6
CONTINUOUS
 10
57.487552
 20
-75.16978
 40
0.301025
  0
LINE
  8
ボルト／ビス
  6
CONTINUOUS
 62
    64
 10
57.737318
 20
-75.155278
 11
57.599872
 21
-74.946227
  0
LINE
  8
ボルト／ビス
  6
CONTINUOUS
 62
    64
 10
57.350108
 20
-74.96073
 11
57.599872
 21
-74.946227
  0
LINE
  8
ボルト／ビス
  6
CONTINUOUS
 62
    64
 10
57.624998
 20
-75.37883
 11
57.375232
 21
-75.393333
  0
LINE
  8
ボルト／ビス
  6
CONTINUOUS
 62
    64
 10
57.237788
 20
-75.184282
 11
57.375232
 21
-75.393333
  0
LINE
  8
ボルト／ビス
  6
CONTINUOUS
 62
    64
 10
57.737318
 20
-75.155278
 11
57.624998
 21
-75.37883
  0
LINE
  8
ボルト／ビス
  6
CONTINUOUS
 62
    64
 10
57.350108
 20
-74.96073
 11
57.237788
 21
-75.184282
  0
CIRCLE
  8
ボルト／ビス
  6
CONTINUOUS
 62
    64
 10
57.487552
 20
-75.16978
 40
0.216668
  0
CIRCLE
  8
ボルト／ビス
  6
CONTINUOUS
 10
47.569075
 20
-70.186423
 40
0.250185
  0
CIRCLE
  8
ボルト／ビス
  6
CONTINUOUS
 10
47.569075
 20
-70.186423
 40
0.301025
  0
LINE
  8
ボルト／ビス
  6
CONTINUOUS
 62
    64
 10
47.81884
 20
-70.171918
 11
47.681395
 21
-69.962867
  0
LINE
  8
ボルト／ビス
  6
CONTINUOUS
 62
    64
 10
47.43163
 20
-69.97737
 11
47.681395
 21
-69.962867
  0
LINE
  8
ボルト／ビス
  6
CONTINUOUS
 62
    64
 10
47.70652
 20
-70.395472
 11
47.456753
 21
-70.409977
  0
LINE
  8
ボルト／ビス
  6
CONTINUOUS
 62
    64
 10
47.31931
 20
-70.200928
 11
47.456753
 21
-70.409977
  0
LINE
  8
ボルト／ビス
  6
CONTINUOUS
 62
    64
 10
47.81884
 20
-70.171918
 11
47.70652
 21
-70.395472
  0
LINE
  8
ボルト／ビス
  6
CONTINUOUS
 62
    64
 10
47.43163
 20
-69.97737
 11
47.31931
 21
-70.200928
  0
CIRCLE
  8
ボルト／ビス
  6
CONTINUOUS
 62
    64
 10
47.569075
 20
-70.186423
 40
0.216668
  0
CIRCLE
  8
ボルト／ビス
  6
CONTINUOUS
 10
37.650598
 20
-65.203065
 40
0.250185
  0
CIRCLE
  8
ボルト／ビス
  6
CONTINUOUS
 10
37.650598
 20
-65.203065
 40
0.301025
  0
LINE
  8
ボルト／ビス
  6
CONTINUOUS
 62
    64
 10
37.513153
 20
-64.994015
 11
37.762918
 21
-64.979512
  0
LINE
  8
ボルト／ビス
  6
CONTINUOUS
 62
    64
 10
37.900362
 20
-65.188562
 11
37.762918
 21
-64.979512
  0
LINE
  8
ボルト／ビス
  6
CONTINUOUS
 62
    64
 10
37.400833
 20
-65.21757
 11
37.538275
 21
-65.426617
  0
LINE
  8
ボルト／ビス
  6
CONTINUOUS
 62
    64
 10
37.788042
 20
-65.412115
 11
37.538275
 21
-65.426617
  0
LINE
  8
ボルト／ビス
  6
CONTINUOUS
 62
    64
 10
37.513153
 20
-64.994015
 11
37.400833
 21
-65.21757
  0
LINE
  8
ボルト／ビス
  6
CONTINUOUS
 62
    64
 10
37.900362
 20
-65.188562
 11
37.788042
 21
-65.412115
  0
CIRCLE
  8
ボルト／ビス
  6
CONTINUOUS
 62
    64
 10
37.650598
 20
-65.203065
 40
0.216668
  0
ENDBLK
  0
BLOCK
  2
*GRP_0016
 70
    65
 10
0.0
 20
0.0
  0
LINE
  8
補助線
  6
BYBLOCK
 62
    64
 10
37.72506
 20
-75.132367
 11
37.576135
 21
-75.207193
  0
LINE
  8
補助線
  6
BYBLOCK
 62
    64
 10
37.613185
 20
-75.095315
 11
37.68801
 21
-75.244243
  0
LINE
  8
補助線
  6
BYBLOCK
 62
    64
 10
47.64354
 20
-70.14901
 11
47.494613
 21
-70.223835
  0
LINE
  8
補助線
  6
BYBLOCK
 62
    64
 10
47.531662
 20
-70.111957
 11
47.606488
 21
-70.260885
  0
LINE
  8
補助線
  6
BYBLOCK
 62
    64
 10
57.41309
 20
-65.240477
 11
57.562018
 21
-65.165653
  0
LINE
  8
補助線
  6
BYBLOCK
 62
    64
 10
57.45014
 20
-65.1286
 11
57.524965
 21
-65.277527
  0
LINE
  8
型材断面
  6
CONTINUOUS
 10
36.97862
 20
-74.574802
 11
36.756317
 21
-75.246055
  0
LINE
  8
型材断面
  6
CONTINUOUS
 10
36.756317
 20
-75.246055
 11
37.05562
 21
-75.84176
  0
LINE
  8
型材断面
  6
CONTINUOUS
 10
37.05562
 20
-75.84176
 11
37.726872
 21
-76.064063
  0
LINE
  8
型材断面
  6
CONTINUOUS
 10
57.411277
 20
-64.308785
 11
58.082532
 21
-64.531088
  0
LINE
  8
型材断面
  6
CONTINUOUS
 10
58.082532
 20
-64.531088
 11
58.381835
 21
-65.126793
  0
LINE
  8
型材断面
  6
CONTINUOUS
 10
58.381835
 20
-65.126793
 11
58.15953
 21
-65.798045
  0
LINE
  8
型材断面
  6
CONTINUOUS
 10
36.97862
 20
-74.574802
 11
57.411277
 21
-64.308785
  0
LINE
  8
型材断面
  6
CONTINUOUS
 10
37.726872
 20
-76.064063
 11
58.15953
 21
-65.798045
  0
CIRCLE
  8
ボルト／ビス
  6
CONTINUOUS
 10
37.650598
 20
-75.16978
 40
0.250185
  0
CIRCLE
  8
ボルト／ビス
  6
CONTINUOUS
 10
37.650598
 20
-75.16978
 40
0.301025
  0
LINE
  8
ボルト／ビス
  6
CONTINUOUS
 62
    64
 10
37.400833
 20
-75.155278
 11
37.538278
 21
-74.946227
  0
LINE
  8
ボルト／ビス
  6
CONTINUOUS
 62
    64
 10
37.788042
 20
-74.96073
 11
37.538278
 21
-74.946227
  0
LINE
  8
ボルト／ビス
  6
CONTINUOUS
 62
    64
 10
37.513153
 20
-75.37883
 11
37.762918
 21
-75.393333
  0
LINE
  8
ボルト／ビス
  6
CONTINUOUS
 62
    64
 10
37.900362
 20
-75.184282
 11
37.762918
 21
-75.393333
  0
LINE
  8
ボルト／ビス
  6
CONTINUOUS
 62
    64
 10
37.400833
 20
-75.155278
 11
37.513153
 21
-75.37883
  0
LINE
  8
ボルト／ビス
  6
CONTINUOUS
 62
    64
 10
37.788042
 20
-74.96073
 11
37.900362
 21
-75.184282
  0
CIRCLE
  8
ボルト／ビス
  6
CONTINUOUS
 62
    64
 10
37.650598
 20
-75.16978
 40
0.216668
  0
CIRCLE
  8
ボルト／ビス
  6
CONTINUOUS
 10
47.569075
 20
-70.186423
 40
0.250185
  0
CIRCLE
  8
ボルト／ビス
  6
CONTINUOUS
 10
47.569075
 20
-70.186423
 40
0.301025
  0
LINE
  8
ボルト／ビス
  6
CONTINUOUS
 62
    64
 10
47.31931
 20
-70.171918
 11
47.456755
 21
-69.962867
  0
LINE
  8
ボルト／ビス
  6
CONTINUOUS
 62
    64
 10
47.70652
 20
-69.97737
 11
47.456755
 21
-69.962867
  0
LINE
  8
ボルト／ビス
  6
CONTINUOUS
 62
    64
 10
47.43163
 20
-70.395472
 11
47.681397
 21
-70.409977
  0
LINE
  8
ボルト／ビス
  6
CONTINUOUS
 62
    64
 10
47.81884
 20
-70.200928
 11
47.681397
 21
-70.409977
  0
LINE
  8
ボルト／ビス
  6
CONTINUOUS
 62
    64
 10
47.31931
 20
-70.171918
 11
47.43163
 21
-70.395472
  0
LINE
  8
ボルト／ビス
  6
CONTINUOUS
 62
    64
 10
47.70652
 20
-69.97737
 11
47.81884
 21
-70.200928
  0
CIRCLE
  8
ボルト／ビス
  6
CONTINUOUS
 62
    64
 10
47.569075
 20
-70.186423
 40
0.216668
  0
CIRCLE
  8
ボルト／ビス
  6
CONTINUOUS
 10
57.487552
 20
-65.203065
 40
0.250185
  0
CIRCLE
  8
ボルト／ビス
  6
CONTINUOUS
 10
57.487552
 20
-65.203065
 40
0.301025
  0
LINE
  8
ボルト／ビス
  6
CONTINUOUS
 62
    64
 10
57.624998
 20
-64.994015
 11
57.375232
 21
-64.979512
  0
LINE
  8
ボルト／ビス
  6
CONTINUOUS
 62
    64
 10
57.237788
 20
-65.188562
 11
57.375232
 21
-64.979512
  0
LINE
  8
ボルト／ビス
  6
CONTINUOUS
 62
    64
 10
57.737318
 20
-65.21757
 11
57.599875
 21
-65.426617
  0
LINE
  8
ボルト／ビス
  6
CONTINUOUS
 62
    64
 10
57.350108
 20
-65.412115
 11
57.599875
 21
-65.426617
  0
LINE
  8
ボルト／ビス
  6
CONTINUOUS
 62
    64
 10
57.624998
 20
-64.994015
 11
57.737318
 21
-65.21757
  0
LINE
  8
ボルト／ビス
  6
CONTINUOUS
 62
    64
 10
57.237788
 20
-65.188562
 11
57.350108
 21
-65.412115
  0
CIRCLE
  8
ボルト／ビス
  6
CONTINUOUS
 62
    64
 10
57.487552
 20
-65.203065
 40
0.216668
  0
ENDBLK
  0
BLOCK
  2
*DIM_0017
 70
    65
 10
0.0
 20
0.0
  0
LINE
  8
寸法
  6
BYBLOCK
 62
     0
 10
165.3976
 20
44.797367
 11
111.5072
 21
44.797367
  0
LINE
  8
寸法
  6
BYBLOCK
 62
     0
 10
111.5072
 20
42.814033
 11
111.5072
 21
44.797367
  0
POINT
  8
寸法
 62
     0
 10
111.5072
 20
42.814033
  0
POINT
  8
寸法
 62
     0
 10
111.5072
 20
44.797367
  0
TEXT
  7
TextStyle03
  8
寸法
  6
CONTINUOUS
 62
     0
 10
111.075
 20
47.26875
  1
59.5
 40
3.0
 50
90.0
 72
     5
 11
111.075
 21
53.83125
  0
ENDBLK
  0
BLOCK
  2
*DIM_0018
 70
    65
 10
0.0
 20
0.0
  0
LINE
  8
寸法
  6
BYBLOCK
 62
     0
 10
165.3976
 20
20.8307
 11
111.5072
 21
20.8307
  0
LINE
  8
寸法
  6
BYBLOCK
 62
     0
 10
111.5072
 20
22.814033
 11
111.5072
 21
20.8307
  0
POINT
  8
寸法
 62
     0
 10
111.5072
 20
22.814033
  0
POINT
  8
寸法
 62
     0
 10
111.5072
 20
20.8307
  0
TEXT
  7
TextStyle03
  8
寸法
  6
CONTINUOUS
 62
     0
 10
111.075
 20
11.76875
  1
59.5
 40
3.0
 50
90.0
 72
     5
 11
111.075
 21
18.33125
  0
ENDBLK
  0
BLOCK
  2
*DIM_0019
 70
    65
 10
0.0
 20
0.0
  0
LINE
  8
寸法
  6
BYBLOCK
 62
     0
 10
167.020815
 20
47.4807
 11
167.020815
 21
60.666798
  0
LINE
  8
寸法
  6
BYBLOCK
 62
     0
 10
174.054318
 20
47.797367
 11
174.054318
 21
60.666798
  0
LINE
  8
寸法
  6
BYBLOCK
 62
     0
 10
167.020815
 20
60.666798
 11
174.054318
 21
60.666798
  0
POINT
  8
寸法
 62
     0
 10
167.020815
 20
60.666798
  0
POINT
  8
寸法
 62
     0
 10
174.054318
 20
60.666798
  0
TEXT
  7
TextStyle03
  8
寸法
  6
CONTINUOUS
 62
     0
 10
168.0375
 20
61.025
  1
211
 40
3.0
 72
     5
 11
172.9125
 21
61.025
  0
ENDBLK
  0
BLOCK
  2
*DIM_0020
 70
    65
 10
0.0
 20
0.0
  0
LINE
  8
寸法
  6
BYBLOCK
 62
     0
 10
82.154218
 20
-70.209613
 11
93.4572
 21
-70.209613
  0
LINE
  8
寸法
  6
BYBLOCK
 62
     0
 10
82.470885
 20
-77.243115
 11
93.4572
 21
-77.243115
  0
LINE
  8
寸法
  6
BYBLOCK
 62
     0
 10
93.4572
 20
-70.209613
 11
93.4572
 21
-77.243115
  0
POINT
  8
寸法
 62
     0
 10
93.4572
 20
-70.209613
  0
POINT
  8
寸法
 62
     0
 10
93.4572
 20
-77.243115
  0
TEXT
  7
TextStyle03
  8
寸法
  6
CONTINUOUS
 62
     0
 10
93.05
 20
-76.1875
  1
211
 40
3.0
 50
90.0
 72
     5
 11
93.05
 21
-71.3125
  0
ENDBLK
  0
BLOCK
  2
*DIM_0021
 70
    65
 10
0.0
 20
0.0
  0
LINE
  8
寸法
  6
CONTINUOUS
 62
     0
 10
79.470882
 20
-68.586398
 11
79.470882
 21
-13.121378
  0
LINE
  8
寸法
  6
CONTINUOUS
 62
     0
 10
77.48755
 20
-13.121378
 11
79.470882
 21
-13.121378
  0
POINT
  8
寸法
 62
     0
 10
77.48755
 20
-13.121378
  0
POINT
  8
寸法
 62
     0
 10
79.470882
 20
-13.121378
  0
TEXT
  7
TextStyle03
  8
寸法
  6
CONTINUOUS
 62
     0
 10
81.94375
 20
-12.75
  1
59.5
 40
3.0
 72
     5
 11
88.50625
 21
-12.75
  0
ENDBLK
  0
BLOCK
  2
*DIM_0022
 70
    65
 10
0.0
 20
0.0
  0
LINE
  8
寸法
  6
BYBLOCK
 62
     0
 10
-124.495783
 20
-68.586398
 11
-124.495783
 21
-13.121378
  0
LINE
  8
寸法
  6
BYBLOCK
 62
     0
 10
-122.51245
 20
-13.121378
 11
-124.495783
 21
-13.121378
  0
POINT
  8
寸法
 62
     0
 10
-122.51245
 20
-13.121378
  0
POINT
  8
寸法
 62
     0
 10
-124.495783
 20
-13.121378
  0
TEXT
  7
TextStyle03
  8
寸法
  6
CONTINUOUS
 62
     0
 10
-133.55625
 20
-12.75
  1
59.5
 40
3.0
 72
     5
 11
-126.99375
 21
-12.75
  0
ENDBLK
  0
BLOCK
  2
*DIM_0023
 70
    65
 10
0.0
 20
0.0
  0
LINE
  8
寸法
  6
BYBLOCK
 62
     0
 10
-125.51245
 20
39.4807
 11
-138.805288
 21
39.4807
  0
LINE
  8
寸法
  6
BYBLOCK
 62
     0
 10
-125.51245
 20
26.147365
 11
-138.805288
 21
26.147365
  0
LINE
  8
寸法
  6
BYBLOCK
 62
     0
 10
-138.805288
 20
39.4807
 11
-138.805288
 21
26.147365
  0
POINT
  8
寸法
 62
     0
 10
-138.805288
 20
39.4807
  0
POINT
  8
寸法
 62
     0
 10
-138.805288
 20
26.147365
  0
TEXT
  7
TextStyle03
  8
寸法
  6
CONTINUOUS
 62
     0
 10
-139.175
 20
30.3625
  1
400
 40
3.0
 50
90.0
 72
     5
 11
-139.175
 21
35.2375
  0
ENDBLK
  0
BLOCK
  2
*DIM_0024
 70
    65
 10
0.0
 20
0.0
  0
LINE
  8
寸法
  6
BYBLOCK
 62
     0
 10
-115.845783
 20
45.814033
 11
-115.845783
 21
74.922105
  0
LINE
  8
寸法
  6
BYBLOCK
 62
     0
 10
-92.51245
 20
45.814033
 11
-92.51245
 21
74.922105
  0
LINE
  8
寸法
  6
BYBLOCK
 62
     0
 10
-115.845783
 20
74.922105
 11
-92.51245
 21
74.922105
  0
POINT
  8
寸法
 62
     0
 10
-115.845783
 20
74.922105
  0
POINT
  8
寸法
 62
     0
 10
-92.51245
 20
74.922105
  0
TEXT
  7
TextStyle03
  8
寸法
  6
CONTINUOUS
 62
     0
 10
-106.6375
 20
75.3
  1
700
 40
3.0
 72
     5
 11
-101.7625
 21
75.3
  0
ENDBLK
  0
BLOCK
  2
*DIM_0025
 70
    65
 10
0.0
 20
0.0
  0
LINE
  8
寸法
  6
BYBLOCK
 62
     0
 10
-69.179118
 20
45.814033
 11
-69.179118
 21
74.922105
  0
LINE
  8
寸法
  6
BYBLOCK
 62
     0
 10
-92.51245
 20
74.922105
 11
-69.179118
 21
74.922105
  0
POINT
  8
寸法
 62
     0
 10
-69.179118
 20
74.922105
  0
TEXT
  7
TextStyle03
  8
寸法
  6
CONTINUOUS
 62
     0
 10
-83.3125
 20
75.3
  1
700
 40
3.0
 72
     5
 11
-78.4375
 21
75.3
  0
ENDBLK
  0
BLOCK
  2
*DIM_0026
 70
    65
 10
0.0
 20
0.0
  0
LINE
  8
寸法
  6
BYBLOCK
 62
     0
 10
-45.845783
 20
45.814033
 11
-45.845783
 21
74.922105
  0
LINE
  8
寸法
  6
BYBLOCK
 62
     0
 10
-69.179118
 20
74.922105
 11
-45.845783
 21
74.922105
  0
POINT
  8
寸法
 62
     0
 10
-45.845783
 20
74.922105
  0
TEXT
  7
TextStyle03
  8
寸法
  6
CONTINUOUS
 62
     0
 10
-59.9625
 20
75.3
  1
700
 40
3.0
 72
     5
 11
-55.0875
 21
75.3
  0
ENDBLK
  0
BLOCK
  2
*DIM_0027
 70
    65
 10
0.0
 20
0.0
  0
LINE
  8
寸法
  6
BYBLOCK
 62
     0
 10
-22.51245
 20
45.814033
 11
-22.51245
 21
74.922105
  0
LINE
  8
寸法
  6
BYBLOCK
 62
     0
 10
-45.845783
 20
74.922105
 11
-22.51245
 21
74.922105
  0
POINT
  8
寸法
 62
     0
 10
-22.51245
 20
74.922105
  0
TEXT
  7
TextStyle03
  8
寸法
  6
CONTINUOUS
 62
     0
 10
-36.6375
 20
75.3
  1
700
 40
3.0
 72
     5
 11
-31.7625
 21
75.3
  0
ENDBLK
  0
BLOCK
  2
*DIM_0028
 70
    65
 10
0.0
 20
0.0
  0
LINE
  8
寸法
  6
BYBLOCK
 62
     0
 10
0.820882
 20
45.814033
 11
0.820882
 21
74.922105
  0
LINE
  8
寸法
  6
BYBLOCK
 62
     0
 10
-22.51245
 20
74.922105
 11
0.820882
 21
74.922105
  0
POINT
  8
寸法
 62
     0
 10
0.820882
 20
74.922105
  0
TEXT
  7
TextStyle03
  8
寸法
  6
CONTINUOUS
 62
     0
 10
-13.3125
 20
75.3
  1
700
 40
3.0
 72
     5
 11
-8.4375
 21
75.3
  0
ENDBLK
  0
BLOCK
  2
*DIM_0029
 70
    65
 10
0.0
 20
0.0
  0
LINE
  8
寸法
  6
BYBLOCK
 62
     0
 10
24.154218
 20
45.814033
 11
24.154218
 21
74.922105
  0
LINE
  8
寸法
  6
BYBLOCK
 62
     0
 10
0.820882
 20
74.922105
 11
24.154218
 21
74.922105
  0
POINT
  8
寸法
 62
     0
 10
24.154218
 20
74.922105
  0
TEXT
  7
TextStyle03
  8
寸法
  6
CONTINUOUS
 62
     0
 10
10.0375
 20
75.3
  1
700
 40
3.0
 72
     5
 11
14.9125
 21
75.3
  0
ENDBLK
  0
BLOCK
  2
*DIM_0030
 70
    65
 10
0.0
 20
0.0
  0
LINE
  8
寸法
  6
BYBLOCK
 62
     0
 10
47.48755
 20
45.814033
 11
47.48755
 21
74.922105
  0
LINE
  8
寸法
  6
BYBLOCK
 62
     0
 10
24.154218
 20
74.922105
 11
47.48755
 21
74.922105
  0
POINT
  8
寸法
 62
     0
 10
47.48755
 20
74.922105
  0
TEXT
  7
TextStyle03
  8
寸法
  6
CONTINUOUS
 62
     0
 10
33.3625
 20
75.3
  1
700
 40
3.0
 72
     5
 11
38.2375
 21
75.3
  0
ENDBLK
  0
BLOCK
  2
*DIM_0031
 70
    65
 10
0.0
 20
0.0
  0
LINE
  8
寸法
  6
BYBLOCK
 62
     0
 10
70.820882
 20
45.814033
 11
70.820882
 21
74.922105
  0
LINE
  8
寸法
  6
BYBLOCK
 62
     0
 10
47.48755
 20
74.922105
 11
70.820882
 21
74.922105
  0
POINT
  8
寸法
 62
     0
 10
70.820882
 20
74.922105
  0
TEXT
  7
TextStyle03
  8
寸法
  6
CONTINUOUS
 62
     0
 10
56.6875
 20
75.3
  1
700
 40
3.0
 72
     5
 11
61.5625
 21
75.3
  0
ENDBLK
  0
BLOCK
  2
*GRP_0033
 70
    65
 10
0.0
 20
0.0
  0
LINE
  8
ボルト／ビス
  6
CONTINUOUS
 10
167.020815
 20
22.147365
 11
166.55415
 21
22.147365
  0
LINE
  8
ボルト／ビス
  6
CONTINUOUS
 10
167.020815
 20
21.780697
 11
166.95415
 21
21.780697
  0
LINE
  8
ボルト／ビス
  6
CONTINUOUS
 10
166.95415
 20
21.780697
 11
166.95415
 21
22.51403
  0
LINE
  8
ボルト／ビス
  6
CONTINUOUS
 10
166.95415
 20
22.51403
 11
167.020815
 21
22.51403
  0
LINE
  8
ボルト／ビス
  6
CONTINUOUS
 10
167.020815
 20
21.780697
 11
167.020815
 21
22.51403
  0
LINE
  8
ボルト／ビス
  6
CONTINUOUS
 10
166.920815
 20
21.847365
 11
166.95415
 21
21.847365
  0
LINE
  8
ボルト／ビス
  6
CONTINUOUS
 10
166.920815
 20
21.847365
 11
166.920815
 21
22.447365
  0
LINE
  8
ボルト／ビス
  6
CONTINUOUS
 10
166.920815
 20
22.447365
 11
166.95415
 21
22.447365
  0
LINE
  8
ボルト／ビス
  6
CONTINUOUS
 62
    64
 10
166.720815
 20
21.98699
 11
166.73249
 21
21.954915
  0
ARC
  8
ボルト／ビス
  6
CONTINUOUS
 62
    64
 10
166.825796
 20
22.003029
 40
0.104978
 50
152.721967
 51
180.0
  0
ARC
  8
ボルト／ビス
  6
CONTINUOUS
 62
    64
 10
167.12322
 20
22.147366
 40
0.402402
 50
166.165002
 51
193.834985
  0
LINE
  8
ボルト／ビス
  6
CONTINUOUS
 62
    64
 10
166.720815
 20
22.30774
 11
166.73249
 21
22.339815
  0
ARC
  8
ボルト／ビス
  6
CONTINUOUS
 62
    64
 10
166.825796
 20
22.291704
 40
0.104978
 50
180.0
 51
207.278033
  0
LINE
  8
ボルト／ビス
  6
CONTINUOUS
 62
    64
 10
166.720815
 20
21.98699
 11
166.720815
 21
22.30774
  0
LINE
  8
ボルト／ビス
  6
CONTINUOUS
 62
    64
 10
166.73249
 20
22.339815
 11
166.85415
 21
22.339815
  0
LINE
  8
ボルト／ビス
  6
CONTINUOUS
 62
    64
 10
166.73249
 20
22.24359
 11
166.85415
 21
22.24359
  0
LINE
  8
ボルト／ビス
  6
CONTINUOUS
 62
    64
 10
166.73249
 20
21.954915
 11
166.85415
 21
21.954915
  0
LINE
  8
ボルト／ビス
  6
CONTINUOUS
 62
    64
 10
166.73249
 20
22.05114
 11
166.85415
 21
22.05114
  0
LINE
  8
ボルト／ビス
  6
CONTINUOUS
 10
166.85415
 20
21.954915
 11
166.85415
 21
22.339815
  0
LINE
  8
ボルト／ビス
  6
CONTINUOUS
 10
166.85415
 20
21.947365
 11
166.920815
 21
21.947365
  0
LINE
  8
ボルト／ビス
  6
CONTINUOUS
 10
166.85415
 20
21.947365
 11
166.85415
 21
22.347365
  0
LINE
  8
ボルト／ビス
  6
CONTINUOUS
 10
166.85415
 20
22.347365
 11
166.920815
 21
22.347365
  0
ENDBLK
  0
BLOCK
  2
*GRP_0034
 70
    65
 10
0.0
 20
0.0
  0
LINE
  8
ボルト／ビス
  6
CONTINUOUS
 10
167.020815
 20
43.4807
 11
166.55415
 21
43.4807
  0
LINE
  8
ボルト／ビス
  6
CONTINUOUS
 10
167.020815
 20
43.114033
 11
166.95415
 21
43.114033
  0
LINE
  8
ボルト／ビス
  6
CONTINUOUS
 10
166.95415
 20
43.114033
 11
166.95415
 21
43.847365
  0
LINE
  8
ボルト／ビス
  6
CONTINUOUS
 10
166.95415
 20
43.847365
 11
167.020815
 21
43.847365
  0
LINE
  8
ボルト／ビス
  6
CONTINUOUS
 10
167.020815
 20
43.114033
 11
167.020815
 21
43.847365
  0
LINE
  8
ボルト／ビス
  6
CONTINUOUS
 10
166.920815
 20
43.1807
 11
166.95415
 21
43.1807
  0
LINE
  8
ボルト／ビス
  6
CONTINUOUS
 10
166.920815
 20
43.1807
 11
166.920815
 21
43.7807
  0
LINE
  8
ボルト／ビス
  6
CONTINUOUS
 10
166.920815
 20
43.7807
 11
166.95415
 21
43.7807
  0
LINE
  8
ボルト／ビス
  6
CONTINUOUS
 62
    64
 10
166.720815
 20
43.320325
 11
166.73249
 21
43.28825
  0
ARC
  8
ボルト／ビス
  6
CONTINUOUS
 62
    64
 10
166.825796
 20
43.336364
 40
0.104978
 50
152.721967
 51
180.0
  0
ARC
  8
ボルト／ビス
  6
CONTINUOUS
 62
    64
 10
167.12322
 20
43.480701
 40
0.402402
 50
166.165002
 51
193.834985
  0
LINE
  8
ボルト／ビス
  6
CONTINUOUS
 62
    64
 10
166.720815
 20
43.641075
 11
166.73249
 21
43.67315
  0
ARC
  8
ボルト／ビス
  6
CONTINUOUS
 62
    64
 10
166.825796
 20
43.625039
 40
0.104978
 50
180.0
 51
207.278033
  0
LINE
  8
ボルト／ビス
  6
CONTINUOUS
 62
    64
 10
166.720815
 20
43.320325
 11
166.720815
 21
43.641075
  0
LINE
  8
ボルト／ビス
  6
CONTINUOUS
 62
    64
 10
166.73249
 20
43.67315
 11
166.85415
 21
43.67315
  0
LINE
  8
ボルト／ビス
  6
CONTINUOUS
 62
    64
 10
166.73249
 20
43.576925
 11
166.85415
 21
43.576925
  0
LINE
  8
ボルト／ビス
  6
CONTINUOUS
 62
    64
 10
166.73249
 20
43.28825
 11
166.85415
 21
43.28825
  0
LINE
  8
ボルト／ビス
  6
CONTINUOUS
 62
    64
 10
166.73249
 20
43.384475
 11
166.85415
 21
43.384475
  0
LINE
  8
ボルト／ビス
  6
CONTINUOUS
 10
166.85415
 20
43.28825
 11
166.85415
 21
43.67315
  0
LINE
  8
ボルト／ビス
  6
CONTINUOUS
 10
166.85415
 20
43.2807
 11
166.920815
 21
43.2807
  0
LINE
  8
ボルト／ビス
  6
CONTINUOUS
 10
166.85415
 20
43.2807
 11
166.85415
 21
43.6807
  0
LINE
  8
ボルト／ビス
  6
CONTINUOUS
 10
166.85415
 20
43.6807
 11
166.920815
 21
43.6807
  0
ENDBLK
  0
BLOCK
  2
*GRP_0035
 70
    65
 10
0.0
 20
0.0
  0
LINE
  8
ボルト／ビス
  6
CONTINUOUS
 10
78.154218
 20
-70.209613
 11
78.154218
 21
-69.742947
  0
LINE
  8
ボルト／ビス
  6
CONTINUOUS
 10
77.78755
 20
-70.209613
 11
77.78755
 21
-70.142947
  0
LINE
  8
ボルト／ビス
  6
CONTINUOUS
 10
77.78755
 20
-70.142947
 11
78.520882
 21
-70.142947
  0
LINE
  8
ボルト／ビス
  6
CONTINUOUS
 10
78.520882
 20
-70.142947
 11
78.520882
 21
-70.209613
  0
LINE
  8
ボルト／ビス
  6
CONTINUOUS
 10
77.78755
 20
-70.209613
 11
78.520882
 21
-70.209613
  0
LINE
  8
ボルト／ビス
  6
CONTINUOUS
 10
77.854218
 20
-70.109612
 11
77.854218
 21
-70.142947
  0
LINE
  8
ボルト／ビス
  6
CONTINUOUS
 10
77.854218
 20
-70.109612
 11
78.454218
 21
-70.109612
  0
LINE
  8
ボルト／ビス
  6
CONTINUOUS
 10
78.454218
 20
-70.109612
 11
78.454218
 21
-70.142947
  0
LINE
  8
ボルト／ビス
  6
CONTINUOUS
 62
    64
 10
77.993843
 20
-69.909613
 11
77.961767
 21
-69.921288
  0
ARC
  8
ボルト／ビス
  6
CONTINUOUS
 62
    64
 10
78.009879
 20
-70.014594
 40
0.104978
 50
62.721967
 51
90.0
  0
ARC
  8
ボルト／ビス
  6
CONTINUOUS
 62
    64
 10
78.154216
 20
-70.312018
 40
0.402402
 50
76.165002
 51
103.834985
  0
LINE
  8
ボルト／ビス
  6
CONTINUOUS
 62
    64
 10
78.314593
 20
-69.909613
 11
78.346667
 21
-69.921288
  0
ARC
  8
ボルト／ビス
  6
CONTINUOUS
 62
    64
 10
78.298554
 20
-70.014594
 40
0.104978
 50
90.0
 51
117.278033
  0
LINE
  8
ボルト／ビス
  6
CONTINUOUS
 62
    64
 10
77.993843
 20
-69.909613
 11
78.314593
 21
-69.909613
  0
LINE
  8
ボルト／ビス
  6
CONTINUOUS
 62
    64
 10
78.346667
 20
-69.921288
 11
78.346667
 21
-70.042947
  0
LINE
  8
ボルト／ビス
  6
CONTINUOUS
 62
    64
 10
78.250442
 20
-69.921288
 11
78.250442
 21
-70.042947
  0
LINE
  8
ボルト／ビス
  6
CONTINUOUS
 62
    64
 10
77.961767
 20
-69.921288
 11
77.961767
 21
-70.042947
  0
LINE
  8
ボルト／ビス
  6
CONTINUOUS
 62
    64
 10
78.057992
 20
-69.921288
 11
78.057992
 21
-70.042947
  0
LINE
  8
ボルト／ビス
  6
CONTINUOUS
 10
77.961767
 20
-70.042947
 11
78.346667
 21
-70.042947
  0
LINE
  8
ボルト／ビス
  6
CONTINUOUS
 10
77.954218
 20
-70.042947
 11
77.954218
 21
-70.109612
  0
LINE
  8
ボルト／ビス
  6
CONTINUOUS
 10
77.954218
 20
-70.042947
 11
78.354218
 21
-70.042947
  0
LINE
  8
ボルト／ビス
  6
CONTINUOUS
 10
78.354218
 20
-70.042947
 11
78.354218
 21
-70.109612
  0
ENDBLK
  0
BLOCK
  2
*GRP_0036
 70
    65
 10
0.0
 20
0.0
  0
LINE
  8
ボルト／ビス
  6
DOT
 10
78.154218
 20
-62.87628
 11
78.154218
 21
-62.409615
  0
LINE
  8
ボルト／ビス
  6
DOT
 10
77.78755
 20
-62.87628
 11
77.78755
 21
-62.809615
  0
LINE
  8
ボルト／ビス
  6
DOT
 10
77.78755
 20
-62.809615
 11
78.520882
 21
-62.809615
  0
LINE
  8
ボルト／ビス
  6
DOT
 10
78.520882
 20
-62.809615
 11
78.520882
 21
-62.87628
  0
LINE
  8
ボルト／ビス
  6
DOT
 10
77.78755
 20
-62.87628
 11
78.520882
 21
-62.87628
  0
LINE
  8
ボルト／ビス
  6
DOT
 10
77.854218
 20
-62.77628
 11
77.854218
 21
-62.809615
  0
LINE
  8
ボルト／ビス
  6
DOT
 10
77.854218
 20
-62.77628
 11
78.454218
 21
-62.77628
  0
LINE
  8
ボルト／ビス
  6
DOT
 10
78.454218
 20
-62.77628
 11
78.454218
 21
-62.809615
  0
LINE
  8
ボルト／ビス
  6
DOT
 62
    64
 10
77.993843
 20
-62.57628
 11
77.961767
 21
-62.587955
  0
ARC
  8
ボルト／ビス
  6
DOT
 62
    64
 10
78.009878
 20
-62.681261
 40
0.104978
 50
62.721967
 51
90.0
  0
ARC
  8
ボルト／ビス
  6
DOT
 62
    64
 10
78.154216
 20
-62.978685
 40
0.402402
 50
76.165002
 51
103.834985
  0
LINE
  8
ボルト／ビス
  6
DOT
 62
    64
 10
78.314593
 20
-62.57628
 11
78.346667
 21
-62.587955
  0
ARC
  8
ボルト／ビス
  6
DOT
 62
    64
 10
78.298553
 20
-62.681261
 40
0.104978
 50
90.0
 51
117.278033
  0
LINE
  8
ボルト／ビス
  6
DOT
 62
    64
 10
77.993843
 20
-62.57628
 11
78.314593
 21
-62.57628
  0
LINE
  8
ボルト／ビス
  6
DOT
 62
    64
 10
78.346667
 20
-62.587955
 11
78.346667
 21
-62.709615
  0
LINE
  8
ボルト／ビス
  6
DOT
 62
    64
 10
78.250442
 20
-62.587955
 11
78.250442
 21
-62.709615
  0
LINE
  8
ボルト／ビス
  6
DOT
 62
    64
 10
77.961767
 20
-62.587955
 11
77.961767
 21
-62.709615
  0
LINE
  8
ボルト／ビス
  6
DOT
 62
    64
 10
78.057992
 20
-62.587955
 11
78.057992
 21
-62.709615
  0
LINE
  8
ボルト／ビス
  6
DOT
 10
77.961767
 20
-62.709615
 11
78.346667
 21
-62.709615
  0
LINE
  8
ボルト／ビス
  6
DOT
 10
77.954218
 20
-62.709615
 11
77.954218
 21
-62.77628
  0
LINE
  8
ボルト／ビス
  6
DOT
 10
77.954218
 20
-62.709615
 11
78.354218
 21
-62.709615
  0
LINE
  8
ボルト／ビス
  6
DOT
 10
78.354218
 20
-62.709615
 11
78.354218
 21
-62.77628
  0
ENDBLK
  0
BLOCK
  2
*GRP_0037
 70
    65
 10
0.0
 20
0.0
  0
LINE
  8
ボルト／ビス
  6
CONTINUOUS
 10
-123.179118
 20
-70.209613
 11
-123.179118
 21
-69.742947
  0
LINE
  8
ボルト／ビス
  6
CONTINUOUS
 10
-122.81245
 20
-70.209613
 11
-122.81245
 21
-70.142947
  0
LINE
  8
ボルト／ビス
  6
CONTINUOUS
 10
-122.81245
 20
-70.142947
 11
-123.545783
 21
-70.142947
  0
LINE
  8
ボルト／ビス
  6
CONTINUOUS
 10
-123.545783
 20
-70.142947
 11
-123.545783
 21
-70.209613
  0
LINE
  8
ボルト／ビス
  6
CONTINUOUS
 10
-122.81245
 20
-70.209613
 11
-123.545783
 21
-70.209613
  0
LINE
  8
ボルト／ビス
  6
CONTINUOUS
 10
-122.879118
 20
-70.109612
 11
-122.879118
 21
-70.142947
  0
LINE
  8
ボルト／ビス
  6
CONTINUOUS
 10
-122.879118
 20
-70.109612
 11
-123.479118
 21
-70.109612
  0
LINE
  8
ボルト／ビス
  6
CONTINUOUS
 10
-123.479118
 20
-70.109612
 11
-123.479118
 21
-70.142947
  0
LINE
  8
ボルト／ビス
  6
CONTINUOUS
 62
    64
 10
-123.018743
 20
-69.909613
 11
-122.986668
 21
-69.921288
  0
ARC
  8
ボルト／ビス
  6
CONTINUOUS
 62
    64
 10
-123.034779
 20
-70.014594
 40
0.104978
 50
90.0
 51
117.278033
  0
ARC
  8
ボルト／ビス
  6
CONTINUOUS
 62
    64
 10
-123.179116
 20
-70.312018
 40
0.402402
 50
76.165015
 51
103.834998
  0
LINE
  8
ボルト／ビス
  6
CONTINUOUS
 62
    64
 10
-123.339492
 20
-69.909613
 11
-123.371568
 21
-69.921288
  0
ARC
  8
ボルト／ビス
  6
CONTINUOUS
 62
    64
 10
-123.323454
 20
-70.014594
 40
0.104978
 50
62.721967
 51
90.0
  0
LINE
  8
ボルト／ビス
  6
CONTINUOUS
 62
    64
 10
-123.018743
 20
-69.909613
 11
-123.339492
 21
-69.909613
  0
LINE
  8
ボルト／ビス
  6
CONTINUOUS
 62
    64
 10
-123.371568
 20
-69.921288
 11
-123.371568
 21
-70.042947
  0
LINE
  8
ボルト／ビス
  6
CONTINUOUS
 62
    64
 10
-123.275342
 20
-69.921288
 11
-123.275342
 21
-70.042947
  0
LINE
  8
ボルト／ビス
  6
CONTINUOUS
 62
    64
 10
-122.986668
 20
-69.921288
 11
-122.986668
 21
-70.042947
  0
LINE
  8
ボルト／ビス
  6
CONTINUOUS
 62
    64
 10
-123.082892
 20
-69.921288
 11
-123.082892
 21
-70.042947
  0
LINE
  8
ボルト／ビス
  6
CONTINUOUS
 10
-122.986668
 20
-70.042947
 11
-123.371568
 21
-70.042947
  0
LINE
  8
ボルト／ビス
  6
CONTINUOUS
 10
-122.979118
 20
-70.042947
 11
-122.979118
 21
-70.109612
  0
LINE
  8
ボルト／ビス
  6
CONTINUOUS
 10
-122.979118
 20
-70.042947
 11
-123.379118
 21
-70.042947
  0
LINE
  8
ボルト／ビス
  6
CONTINUOUS
 10
-123.379118
 20
-70.042947
 11
-123.379118
 21
-70.109612
  0
ENDBLK
  0
BLOCK
  2
*GRP_0038
 70
    65
 10
0.0
 20
0.0
  0
LINE
  8
ボルト／ビス
  6
DOT
 10
-123.179118
 20
-62.87628
 11
-123.179118
 21
-62.409615
  0
LINE
  8
ボルト／ビス
  6
DOT
 10
-122.81245
 20
-62.87628
 11
-122.81245
 21
-62.809615
  0
LINE
  8
ボルト／ビス
  6
DOT
 10
-122.81245
 20
-62.809615
 11
-123.545783
 21
-62.809615
  0
LINE
  8
ボルト／ビス
  6
DOT
 10
-123.545783
 20
-62.809615
 11
-123.545783
 21
-62.87628
  0
LINE
  8
ボルト／ビス
  6
DOT
 10
-122.81245
 20
-62.87628
 11
-123.545783
 21
-62.87628
  0
LINE
  8
ボルト／ビス
  6
DOT
 10
-122.879118
 20
-62.77628
 11
-122.879118
 21
-62.809615
  0
LINE
  8
ボルト／ビス
  6
DOT
 10
-122.879118
 20
-62.77628
 11
-123.479118
 21
-62.77628
  0
LINE
  8
ボルト／ビス
  6
DOT
 10
-123.479118
 20
-62.77628
 11
-123.479118
 21
-62.809615
  0
LINE
  8
ボルト／ビス
  6
DOT
 62
    64
 10
-123.018743
 20
-62.57628
 11
-122.986668
 21
-62.587955
  0
ARC
  8
ボルト／ビス
  6
DOT
 62
    64
 10
-123.034778
 20
-62.681261
 40
0.104978
 50
90.0
 51
117.278033
  0
ARC
  8
ボルト／ビス
  6
DOT
 62
    64
 10
-123.179116
 20
-62.978685
 40
0.402402
 50
76.165015
 51
103.834998
  0
LINE
  8
ボルト／ビス
  6
DOT
 62
    64
 10
-123.339492
 20
-62.57628
 11
-123.371568
 21
-62.587955
  0
ARC
  8
ボルト／ビス
  6
DOT
 62
    64
 10
-123.323453
 20
-62.681261
 40
0.104978
 50
62.721967
 51
90.0
  0
LINE
  8
ボルト／ビス
  6
DOT
 62
    64
 10
-123.018743
 20
-62.57628
 11
-123.339492
 21
-62.57628
  0
LINE
  8
ボルト／ビス
  6
DOT
 62
    64
 10
-123.371568
 20
-62.587955
 11
-123.371568
 21
-62.709615
  0
LINE
  8
ボルト／ビス
  6
DOT
 62
    64
 10
-123.275342
 20
-62.587955
 11
-123.275342
 21
-62.709615
  0
LINE
  8
ボルト／ビス
  6
DOT
 62
    64
 10
-122.986668
 20
-62.587955
 11
-122.986668
 21
-62.709615
  0
LINE
  8
ボルト／ビス
  6
DOT
 62
    64
 10
-123.082892
 20
-62.587955
 11
-123.082892
 21
-62.709615
  0
LINE
  8
ボルト／ビス
  6
DOT
 10
-122.986668
 20
-62.709615
 11
-123.371568
 21
-62.709615
  0
LINE
  8
ボルト／ビス
  6
DOT
 10
-122.979118
 20
-62.709615
 11
-122.979118
 21
-62.77628
  0
LINE
  8
ボルト／ビス
  6
DOT
 10
-122.979118
 20
-62.709615
 11
-123.379118
 21
-62.709615
  0
LINE
  8
ボルト／ビス
  6
DOT
 10
-123.379118
 20
-62.709615
 11
-123.379118
 21
-62.77628
  0
ENDBLK
  0
BLOCK
  2
*DIM_0039
 70
    65
 10
0.0
 20
0.0
  0
LINE
  8
寸法
  6
BYBLOCK
 62
     0
 10
70.48755
 20
-57.542947
 11
93.4572
 21
-57.542947
  0
LINE
  8
寸法
  6
BYBLOCK
 62
     0
 10
93.4572
 20
-64.87628
 11
93.4572
 21
-57.542947
  0
POINT
  8
寸法
 62
     0
 10
93.4572
 20
-64.87628
  0
POINT
  8
寸法
 62
     0
 10
93.4572
 20
-57.542947
  0
TEXT
  7
TextStyle03
  8
寸法
  6
CONTINUOUS
 62
     0
 10
93.5
 20
-55.5375
  1
上昇高さ220
 40
3.0
 50
90.0
 72
     5
 11
93.5
 21
-37.1625
  0
ENDBLK
  0
ENDSEC
  0
SECTION
  2
ENTITIES
  0
POLYLINE
  8
通り芯
  6
CONTINUOUS
 66
     1
 70
     1
  0
VERTEX
  8
通り芯
 10
-210.0
 20
-148.5
  0
VERTEX
  8
通り芯
 10
210.0
 20
-148.5
  0
VERTEX
  8
通り芯
 10
210.0
 20
148.5
  0
VERTEX
  8
通り芯
 10
-210.0
 20
148.5
  0
SEQEND
  0
INSERT
  2
*GRP_0001
  8
型材断面
  6
CONTINUOUS
 10
0.0
 20
0.0
  0
LINE
  8
型材断面
  6
DASHDOT
 10
175.164313
 20
22.814033
 11
-122.51245
 21
22.814033
  0
POLYLINE
  8
型材断面
  6
CONTINUOUS
 66
     1
 70
     1
  0
VERTEX
  8
型材断面
 10
-12.741788
 20
13.03811
  0
VERTEX
  8
型材断面
 10
-31.513717
 20
13.03811
  0
VERTEX
  8
型材断面
 10
-31.513717
 20
8.301267
  0
VERTEX
  8
型材断面
 10
-12.741788
 20
8.301267
  0
SEQEND
  0
LINE
  8
型材断面
  6
DASHDOT
 10
175.164313
 20
32.814033
 11
-122.51245
 21
32.814033
  0
LINE
  8
型材断面
  6
DASHDOT
 10
175.164313
 20
42.814033
 11
-122.51245
 21
42.814033
  0
LINE
  8
型材断面
  6
DOT
 10
-90.56245
 20
22.814033
 11
-90.56245
 21
42.814033
  0
LINE
  8
型材断面
  6
DASHDOT
 10
-89.31245
 20
22.814033
 11
-89.31245
 21
42.814033
  0
LINE
  8
型材断面
  6
DOT
 10
-88.06245
 20
22.814033
 11
-88.06245
 21
42.814033
  0
LINE
  8
型材断面
  6
DOT
 10
-57.16245
 20
22.814033
 11
-57.16245
 21
42.814033
  0
LINE
  8
型材断面
  6
DOT
 10
-54.66245
 20
22.814033
 11
-54.66245
 21
42.814033
  0
LINE
  8
型材断面
  6
DASHDOT
 10
-55.91245
 20
22.814033
 11
-55.91245
 21
42.814033
  0
LINE
  8
型材断面
  6
DOT
 10
9.63755
 20
22.814033
 11
9.63755
 21
42.814033
  0
LINE
  8
型材断面
  6
DASHDOT
 10
10.88755
 20
22.814033
 11
10.88755
 21
42.814033
  0
LINE
  8
型材断面
  6
DOT
 10
12.13755
 20
22.814033
 11
12.13755
 21
42.814033
  0
LINE
  8
型材断面
  6
DOT
 10
43.03755
 20
22.814033
 11
43.03755
 21
42.814033
  0
LINE
  8
型材断面
  6
DASHDOT
 10
44.28755
 20
22.814033
 11
44.28755
 21
42.814033
  0
LINE
  8
型材断面
  6
DOT
 10
45.53755
 20
22.814033
 11
45.53755
 21
42.814033
  0
LINE
  8
型材断面
  6
DOT
 10
-23.76245
 20
22.814033
 11
-23.76245
 21
42.814033
  0
LINE
  8
型材断面
  6
DOT
 10
-21.26245
 20
22.814033
 11
-21.26245
 21
42.814033
  0
LINE
  8
型材断面
  6
DASHDOT
 10
-22.51245
 20
-77.836442
 11
-22.51245
 21
42.814033
  0
LINE
  8
型材断面
  6
DASHDOT
 10
-122.51245
 20
-77.836442
 11
-122.51245
 21
42.814033
  0
LINE
  8
型材断面
  6
DASHDOT
 10
77.48755
 20
-77.836442
 11
77.48755
 21
42.814033
  0
POLYLINE
  8
型材断面
  6
CONTINUOUS
 66
     1
 70
     1
  0
VERTEX
  8
型材断面
 10
-12.741788
 20
52.589955
  0
VERTEX
  8
型材断面
 10
-31.513717
 20
52.589955
  0
VERTEX
  8
型材断面
 10
-31.513717
 20
57.326798
  0
VERTEX
  8
型材断面
 10
-12.741788
 20
57.326798
  0
SEQEND
  0
LINE
  8
型材断面
  6
CONTINUOUS
 10
-105.845783
 20
45.444162
 11
-107.341413
 21
48.03467
  0
LINE
  8
型材断面
  6
CONTINUOUS
 10
-105.845783
 20
45.444162
 11
-104.350152
 21
48.03467
  0
LINE
  8
型材断面
  6
CONTINUOUS
 10
-104.350152
 20
48.03467
 11
-107.341413
 21
48.03467
  0
LINE
  8
型材断面
  6
CONTINUOUS
 10
-163.364657
 20
80.791505
 11
-162.768602
 21
78.200998
  0
LINE
  8
型材断面
  6
CONTINUOUS
 10
-163.364657
 20
80.791505
 11
-163.960715
 21
78.200998
  0
LINE
  8
型材断面
  6
CONTINUOUS
 10
-163.960715
 20
78.200998
 11
-162.768602
 21
78.200998
  0
LINE
  8
型材断面
  6
CONTINUOUS
 10
-169.387245
 20
74.922105
 11
-123.145468
 21
74.922105
  0
LINE
  8
型材断面
  6
CONTINUOUS
 10
-163.364657
 20
87.32138
 11
-164.860287
 21
84.730873
  0
LINE
  8
型材断面
  6
CONTINUOUS
 10
-163.364657
 20
87.32138
 11
-161.869027
 21
84.730873
  0
LINE
  8
型材断面
  6
CONTINUOUS
 10
-161.869027
 20
84.730873
 11
-164.860287
 21
84.730873
  0
LINE
  8
型材断面
  6
CONTINUOUS
 10
-169.387245
 20
83.792277
 11
-123.145468
 21
83.792277
  0
LINE
  8
型材断面
  6
CONTINUOUS
 10
-169.387245
 20
69.134073
 11
-123.145468
 21
69.134073
  0
LINE
  8
型材断面
  6
CONTINUOUS
 10
60.820882
 20
45.444162
 11
62.316512
 21
48.03467
  0
LINE
  8
型材断面
  6
CONTINUOUS
 10
60.820882
 20
45.444162
 11
59.325252
 21
48.03467
  0
LINE
  8
型材断面
  6
CONTINUOUS
 10
59.325252
 20
48.03467
 11
62.316512
 21
48.03467
  0
LINE
  8
型材断面
  6
CONTINUOUS
 10
-125.14258
 20
32.814033
 11
-127.733087
 21
34.309663
  0
LINE
  8
型材断面
  6
CONTINUOUS
 10
-125.14258
 20
32.814033
 11
-127.733087
 21
31.318403
  0
LINE
  8
型材断面
  6
CONTINUOUS
 10
-127.733087
 20
31.318403
 11
-127.733087
 21
34.309663
  0
LINE
  8
型材断面
  6
CONTINUOUS
 10
-22.51245
 20
45.44416
 11
-24.00808
 21
48.034668
  0
LINE
  8
型材断面
  6
CONTINUOUS
 10
-22.51245
 20
45.44416
 11
-21.01682
 21
48.034668
  0
LINE
  8
型材断面
  6
CONTINUOUS
 10
-21.01682
 20
48.034668
 11
-24.00808
 21
48.034668
  0
LINE
  8
型材断面
  6
CONTINUOUS
 10
-105.845783
 20
20.183902
 11
-107.341413
 21
17.593395
  0
LINE
  8
型材断面
  6
CONTINUOUS
 10
-105.845783
 20
20.183902
 11
-104.350152
 21
17.593395
  0
LINE
  8
型材断面
  6
CONTINUOUS
 10
-104.350152
 20
17.593395
 11
-107.341413
 21
17.593395
  0
LINE
  8
型材断面
  6
CONTINUOUS
 10
60.820882
 20
20.183902
 11
62.316512
 21
17.593395
  0
LINE
  8
型材断面
  6
CONTINUOUS
 10
60.820882
 20
20.183902
 11
59.325252
 21
17.593395
  0
LINE
  8
型材断面
  6
CONTINUOUS
 10
59.325252
 20
17.593395
 11
62.316512
 21
17.593395
  0
LINE
  8
型材断面
  6
CONTINUOUS
 10
-22.51245
 20
20.183905
 11
-24.00808
 21
17.593397
  0
LINE
  8
型材断面
  6
CONTINUOUS
 10
-22.51245
 20
20.183905
 11
-21.01682
 21
17.593397
  0
LINE
  8
型材断面
  6
CONTINUOUS
 10
-21.01682
 20
17.593397
 11
-24.00808
 21
17.593397
  0
LINE
  8
型材断面
  6
CONTINUOUS
 10
80.11768
 20
32.814033
 11
82.708187
 21
34.309663
  0
LINE
  8
型材断面
  6
CONTINUOUS
 10
80.11768
 20
32.814033
 11
82.708187
 21
31.318403
  0
LINE
  8
型材断面
  6
CONTINUOUS
 10
82.708187
 20
31.318403
 11
82.708187
 21
34.309663
  0
LINE
  8
型材断面
  6
CONTINUOUS
 10
80.11768
 20
39.114035
 11
82.70819
 21
38.517982
  0
LINE
  8
型材断面
  6
CONTINUOUS
 10
80.11768
 20
39.114035
 11
82.708187
 21
39.710095
  0
LINE
  8
型材断面
  6
CONTINUOUS
 10
82.708187
 20
39.710095
 11
82.70819
 21
38.517982
  0
LINE
  8
型材断面
  6
CONTINUOUS
 10
80.11768
 20
26.51403
 11
82.70819
 21
27.110082
  0
LINE
  8
型材断面
  6
CONTINUOUS
 10
80.11768
 20
26.51403
 11
82.708187
 21
25.91797
  0
LINE
  8
型材断面
  6
CONTINUOUS
 10
82.708187
 20
25.91797
 11
82.70819
 21
27.110082
  0
LINE
  8
型材断面
  6
CONTINUOUS
 10
-125.14258
 20
39.114035
 11
-127.73309
 21
38.517982
  0
LINE
  8
型材断面
  6
CONTINUOUS
 10
-125.14258
 20
39.114035
 11
-127.733087
 21
39.710095
  0
LINE
  8
型材断面
  6
CONTINUOUS
 10
-127.733087
 20
39.710095
 11
-127.73309
 21
38.517982
  0
LINE
  8
型材断面
  6
CONTINUOUS
 10
-125.14258
 20
26.51403
 11
-127.73309
 21
27.110082
  0
LINE
  8
型材断面
  6
CONTINUOUS
 10
-125.14258
 20
26.51403
 11
-127.733087
 21
25.91797
  0
LINE
  8
型材断面
  6
CONTINUOUS
 10
-127.733087
 20
25.91797
 11
-127.73309
 21
27.110082
  0
INSERT
  2
*GRP_0013
  8
型材断面
  6
CONTINUOUS
 10
0.0
 20
0.0
  0
INSERT
  2
*GRP_0014
  8
型材断面
  6
CONTINUOUS
 10
0.0
 20
0.0
  0
INSERT
  2
*GRP_0015
  8
型材断面
  6
CONTINUOUS
 10
0.0
 20
0.0
  0
INSERT
  2
*GRP_0016
  8
型材断面
  6
CONTINUOUS
 10
0.0
 20
0.0
  0
LINE
  8
型材断面
  6
CONTINUOUS
 62
    47
 10
174.554318
 20
21.3307
 11
174.554318
 21
32.814033
  0
LINE
  8
型材断面
  6
CONTINUOUS
 62
    47
 10
174.554318
 20
21.3307
 11
174.054318
 21
21.3307
  0
LINE
  8
型材断面
  6
CONTINUOUS
 62
    47
 10
174.054318
 20
32.814033
 11
174.054318
 21
20.8307
  0
LINE
  8
型材断面
  6
CONTINUOUS
 62
    47
 10
174.054318
 20
20.8307
 11
170.73765
 21
20.8307
  0
LINE
  8
型材断面
  6
CONTINUOUS
 62
    47
 10
170.737628
 20
32.814033
 11
170.73765
 21
20.8307
  0
LINE
  8
型材断面
  6
CONTINUOUS
 62
    47
 10
170.570932
 20
32.814033
 11
170.570932
 21
20.8307
  0
LINE
  8
型材断面
  6
CONTINUOUS
 62
    47
 10
168.3976
 20
32.814033
 11
168.3976
 21
20.8307
  0
LINE
  8
型材断面
  6
CONTINUOUS
 62
    47
 10
168.3976
 20
20.8307
 11
170.570932
 21
20.8307
  0
LINE
  8
型材断面
  6
CONTINUOUS
 62
    47
 10
168.3976
 20
21.714033
 11
168.020815
 21
21.714033
  0
LINE
  8
型材断面
  6
CONTINUOUS
 62
    47
 10
174.554318
 20
44.297367
 11
174.554318
 21
32.814033
  0
LINE
  8
型材断面
  6
CONTINUOUS
 62
    47
 10
174.554318
 20
44.297367
 11
174.054318
 21
44.297367
  0
LINE
  8
型材断面
  6
CONTINUOUS
 62
    47
 10
174.054318
 20
32.814033
 11
174.054318
 21
44.797367
  0
LINE
  8
型材断面
  6
CONTINUOUS
 62
    47
 10
174.054318
 20
44.797367
 11
170.73765
 21
44.797367
  0
LINE
  8
型材断面
  6
CONTINUOUS
 62
    47
 10
170.737628
 20
32.814033
 11
170.73765
 21
44.797367
  0
LINE
  8
型材断面
  6
CONTINUOUS
 62
    47
 10
170.570932
 20
32.814033
 11
170.570932
 21
44.797367
  0
LINE
  8
型材断面
  6
CONTINUOUS
 62
    47
 10
168.3976
 20
32.814033
 11
168.3976
 21
44.797367
  0
LINE
  8
型材断面
  6
CONTINUOUS
 62
    47
 10
168.3976
 20
44.797367
 11
170.570932
 21
44.797367
  0
LINE
  8
型材断面
  6
CONTINUOUS
 62
    47
 10
168.3976
 20
43.914033
 11
168.020815
 21
43.914033
  0
LINE
  8
型材断面
  6
CONTINUOUS
 62
    47
 10
78.970882
 20
-77.743115
 11
78.970882
 21
-77.243115
  0
LINE
  8
型材断面
  6
CONTINUOUS
 62
    47
 10
79.470882
 20
-77.243115
 11
79.470882
 21
-73.926447
  0
LINE
  8
型材断面
  6
CONTINUOUS
 62
    47
 10
79.470882
 20
-71.586398
 11
79.470882
 21
-73.75973
  0
LINE
  8
型材断面
  6
CONTINUOUS
 62
    47
 10
78.58755
 20
-71.586398
 11
78.58755
 21
-71.209613
  0
LINE
  8
型材断面
  6
CONTINUOUS
 62
    47
 10
78.970882
 20
-77.743115
 11
-22.51245
 21
-77.743115
  0
LINE
  8
型材断面
  6
CONTINUOUS
 62
    47
 10
79.470882
 20
-77.243115
 11
-22.51245
 21
-77.243115
  0
LINE
  8
型材断面
  6
CONTINUOUS
 62
    47
 10
79.470882
 20
-73.926447
 11
-22.51245
 21
-73.926257
  0
LINE
  8
型材断面
  6
CONTINUOUS
 62
    47
 10
79.470882
 20
-73.75973
 11
-22.51245
 21
-73.75973
  0
LINE
  8
型材断面
  6
CONTINUOUS
 62
    47
 10
79.470882
 20
-71.586398
 11
-22.51245
 21
-71.586398
  0
LINE
  8
型材断面
  6
CONTINUOUS
 62
    47
 10
-123.995783
 20
-77.743115
 11
-123.995783
 21
-77.243115
  0
LINE
  8
型材断面
  6
CONTINUOUS
 62
    47
 10
-124.495783
 20
-77.243115
 11
-124.495783
 21
-73.926447
  0
LINE
  8
型材断面
  6
CONTINUOUS
 62
    47
 10
-124.495783
 20
-71.586398
 11
-124.495783
 21
-73.75973
  0
LINE
  8
型材断面
  6
CONTINUOUS
 62
    47
 10
-123.61245
 20
-71.586398
 11
-123.61245
 21
-71.209613
  0
LINE
  8
型材断面
  6
CONTINUOUS
 62
    47
 10
-123.995783
 20
-77.743115
 11
-22.51245
 21
-77.743115
  0
LINE
  8
型材断面
  6
CONTINUOUS
 62
    47
 10
-124.495783
 20
-77.243115
 11
-22.51245
 21
-77.243115
  0
LINE
  8
型材断面
  6
CONTINUOUS
 62
    47
 10
-124.495783
 20
-73.926447
 11
-22.51245
 21
-73.926257
  0
LINE
  8
型材断面
  6
CONTINUOUS
 62
    47
 10
-124.495783
 20
-73.75973
 11
-22.51245
 21
-73.75973
  0
LINE
  8
型材断面
  6
CONTINUOUS
 62
    47
 10
-124.495783
 20
-71.586398
 11
-22.51245
 21
-71.586398
  0
LINE
  8
型材断面
  6
CONTINUOUS
 10
-169.387245
 20
63.34604
 11
-123.145468
 21
63.34604
  0
TEXT
  7
TextStyle03
  8
文字
  6
CONTINUOUS
 10
154.025
 20
-76.7
  1
網入り6.8t
 40
3.0
 72
     5
 11
170.7125
 21
-76.7
  0
TEXT
  7
TextStyle03
  8
文字
  6
CONTINUOUS
 10
-30.45
 20
9.325
  1
可動装置側
 40
3.0
 72
     5
 11
-13.95
 21
9.325
  0
TEXT
  7
TextStyle03
  8
文字
  6
CONTINUOUS
 10
160.7
 20
-81.375
  1
×６枚
 40
3.0
 72
     5
 11
170.45
 21
-81.375
  0
TEXT
  7
TextStyle03
  8
文字
  6
CONTINUOUS
 10
-30.45
 20
53.3
  1
可動装置側
 40
3.0
 72
     5
 11
-13.95
 21
53.3
  0
TEXT
  7
TextStyle03
  8
文字
  6
CONTINUOUS
 10
-160.55
 20
79.425
  1
はケーシング位置を示す
 40
3.0
 72
     5
 11
-123.8
 21
79.425
  0
TEXT
  7
TextStyle03
  8
文字
  6
CONTINUOUS
 10
-160.55
 20
76.05
  1
４ヶ所中1ヶ所に設定
 40
3.0
 72
     5
 11
-128.8625
 21
76.05
  0
TEXT
  7
TextStyle03
  8
文字
  6
CONTINUOUS
 10
-160.55
 20
84.95
  1
は排水穴位置を示す
 40
3.0
 72
     5
 11
-130.55
 21
84.95
  0
TEXT
  7
TextStyle03
  8
文字
  6
CONTINUOUS
 10
-143.525
 20
11.275
  1
アンカーピッチ
 40
3.0
 50
90.0
 72
     5
 11
-143.525
 21
34.525
  0
TEXT
  7
TextStyle03
  8
文字
  6
CONTINUOUS
 10
-109.075
 20
79.975
  1
アンカーピッチ
 40
3.0
 72
     5
 11
-85.825
 21
79.975
  0
TEXT
  7
TextStyle03
  8
文字
  6
CONTINUOUS
 10
-164.325
 20
64.3
  1
アームユニット数　４～６ヶ所
 40
3.0
 72
     5
 11
-117.45
 21
64.3
  0
TEXT
  7
TextStyle03
  8
文字
  6
CONTINUOUS
 10
-169.25
 20
59.35
  1
※重量に依るのでご相談ください
 40
3.0
 72
     5
 11
-119.0
 21
59.35
  0
TEXT
  7
TextStyle03
  8
文字
  6
CONTINUOUS
 10
-164.275
 20
70.075
  1
アンカー数量　２２ヶ所
 40
3.0
 72
     5
 11
-127.525
 21
70.075
  0
TEXT
  7
TextStyle03
  8
文字
  6
CONTINUOUS
 10
78.1
 20
125.25
  1
シリーズ：ＴＤ２Ｌ
 40
5.0
 72
     5
 11
128.1
 21
125.25
  0
TEXT
  7
TextStyle03
  8
文字
  6
CONTINUOUS
 10
78.1
 20
119.625
  1
　　　　　（上下可動）600×6000タイプ
 40
5.0
 72
     5
 11
181.5375
 21
119.625
  0
TEXT
  7
TextStyle03
  8
文字
  6
CONTINUOUS
 10
78.1
 20
114.0
  1
図面名　：外観姿図
 40
5.0
 72
     5
 11
128.1
 21
114.0
  0
TEXT
  7
TextStyle03
  8
文字
  6
CONTINUOUS
 10
78.1
 20
108.375
  1
　　　　　　
 40
5.0
 72
     5
 11
111.225
 21
108.375
  0
TEXT
  7
TextStyle03
  8
文字
  6
CONTINUOUS
 10
79.15
 20
102.675
  1
ＮＳコード：ＮＳＤＺＬ
 40
5.0
 72
     5
 11
140.4
 21
102.675
  0
INSERT
  2
*DIM_0002
  8
寸法
  6
CONTINUOUS
 10
0.0
 20
0.0
  0
INSERT
  2
*DIM_0003
  8
寸法
  6
CONTINUOUS
 10
0.0
 20
0.0
  0
INSERT
  2
*DIM_0004
  8
寸法
  6
CONTINUOUS
 10
0.0
 20
0.0
  0
INSERT
  2
*DIM_0005
  8
寸法
  6
CONTINUOUS
 10
0.0
 20
0.0
  0
INSERT
  2
*DIM_0006
  8
寸法
  6
CONTINUOUS
 10
0.0
 20
0.0
  0
INSERT
  2
*DIM_0007
  8
寸法
  6
CONTINUOUS
 10
0.0
 20
0.0
  0
INSERT
  2
*DIM_0008
  8
寸法
  6
CONTINUOUS
 10
0.0
 20
0.0
  0
INSERT
  2
*DIM_0009
  8
寸法
  6
CONTINUOUS
 10
0.0
 20
0.0
  0
INSERT
  2
*DIM_0010
  8
寸法
  6
CONTINUOUS
 10
0.0
 20
0.0
  0
INSERT
  2
*DIM_0011
  8
寸法
  6
CONTINUOUS
 10
0.0
 20
0.0
  0
INSERT
  2
*DIM_0017
  8
寸法
  6
CONTINUOUS
 10
0.0
 20
0.0
  0
INSERT
  2
*DIM_0018
  8
寸法
  6
CONTINUOUS
 10
0.0
 20
0.0
  0
INSERT
  2
*DIM_0019
  8
寸法
  6
CONTINUOUS
 10
0.0
 20
0.0
  0
INSERT
  2
*DIM_0020
  8
寸法
  6
CONTINUOUS
 10
0.0
 20
0.0
  0
INSERT
  2
*DIM_0021
  8
寸法
  6
CONTINUOUS
 10
0.0
 20
0.0
  0
INSERT
  2
*DIM_0022
  8
寸法
  6
CONTINUOUS
 10
0.0
 20
0.0
  0
INSERT
  2
*DIM_0023
  8
寸法
  6
CONTINUOUS
 10
0.0
 20
0.0
  0
INSERT
  2
*DIM_0024
  8
寸法
  6
CONTINUOUS
 10
0.0
 20
0.0
  0
INSERT
  2
*DIM_0025
  8
寸法
  6
CONTINUOUS
 10
0.0
 20
0.0
  0
INSERT
  2
*DIM_0026
  8
寸法
  6
CONTINUOUS
 10
0.0
 20
0.0
  0
INSERT
  2
*DIM_0027
  8
寸法
  6
CONTINUOUS
 10
0.0
 20
0.0
  0
INSERT
  2
*DIM_0028
  8
寸法
  6
CONTINUOUS
 10
0.0
 20
0.0
  0
INSERT
  2
*DIM_0029
  8
寸法
  6
CONTINUOUS
 10
0.0
 20
0.0
  0
INSERT
  2
*DIM_0030
  8
寸法
  6
CONTINUOUS
 10
0.0
 20
0.0
  0
INSERT
  2
*DIM_0031
  8
寸法
  6
CONTINUOUS
 10
0.0
 20
0.0
  0
INSERT
  2
*DIM_0039
  8
寸法
  6
CONTINUOUS
 10
0.0
 20
0.0
  0
LINE
  8
別途部材
  6
CONTINUOUS
 10
79.554218
 20
20.747365
 11
79.154218
 21
21.147365
  0
LINE
  8
別途部材
  6
CONTINUOUS
 10
77.48755
 20
22.814033
 11
69.428295
 21
30.87329
  0
LINE
  8
別途部材
  6
CONTINUOUS
 62
    96
 10
167.020815
 20
21.147365
 11
168.020815
 21
20.747365
  0
LINE
  8
別途部材
  6
CONTINUOUS
 10
79.154218
 20
21.147365
 11
-22.51245
 21
21.147365
  0
LINE
  8
別途部材
  6
CONTINUOUS
 10
79.554218
 20
20.747365
 11
-22.51245
 21
20.747365
  0
LINE
  8
別途部材
  6
CONTINUOUS
 10
-124.579118
 20
20.747365
 11
-124.179118
 21
21.147365
  0
LINE
  8
別途部材
  6
CONTINUOUS
 10
-122.51245
 20
22.814033
 11
-114.453195
 21
30.87329
  0
LINE
  8
別途部材
  6
CONTINUOUS
 10
-124.179118
 20
21.147365
 11
-22.51245
 21
21.147365
  0
LINE
  8
別途部材
  6
CONTINUOUS
 10
-124.579118
 20
20.747365
 11
-22.51245
 21
20.747365
  0
LINE
  8
別途部材
  6
CONTINUOUS
 62
    96
 10
167.020815
 20
21.147365
 11
167.020815
 21
32.814033
  0
LINE
  8
別途部材
  6
CONTINUOUS
 10
168.020815
 20
20.747365
 11
168.020815
 21
32.814033
  0
LINE
  8
別途部材
  6
CONTINUOUS
 62
    96
 10
167.020815
 20
44.4807
 11
168.020815
 21
44.8807
  0
LINE
  8
別途部材
  6
CONTINUOUS
 62
    96
 10
167.020815
 20
44.4807
 11
167.020815
 21
32.814033
  0
LINE
  8
別途部材
  6
CONTINUOUS
 10
168.020815
 20
44.8807
 11
168.020815
 21
32.814033
  0
ARC
  8
別途部材
  6
CONTINUOUS
 10
173.72915
 20
32.814033
 40
12.041667
 50
123.855033
 51
236.144967
  0
LINE
  8
別途部材
  6
CONTINUOUS
 10
79.154218
 20
21.147365
 11
79.154218
 21
32.814033
  0
LINE
  8
別途部材
  6
CONTINUOUS
 10
79.554218
 20
20.747365
 11
79.554218
 21
32.814033
  0
LINE
  8
別途部材
  6
CONTINUOUS
 10
-124.579118
 20
20.747365
 11
-124.579118
 21
32.814033
  0
LINE
  8
別途部材
  6
CONTINUOUS
 10
-124.179118
 20
21.147365
 11
-124.179118
 21
32.814033
  0
LINE
  8
別途部材
  6
CONTINUOUS
 10
79.554218
 20
44.8807
 11
79.154218
 21
44.4807
  0
LINE
  8
別途部材
  6
CONTINUOUS
 10
77.48755
 20
42.814033
 11
69.428295
 21
34.754775
  0
LINE
  8
別途部材
  6
CONTINUOUS
 10
79.154218
 20
44.4807
 11
-22.51245
 21
44.4807
  0
LINE
  8
別途部材
  6
CONTINUOUS
 10
79.554218
 20
44.8807
 11
-22.51245
 21
44.8807
  0
LINE
  8
別途部材
  6
CONTINUOUS
 10
-124.579118
 20
44.8807
 11
-124.179118
 21
44.4807
  0
LINE
  8
別途部材
  6
CONTINUOUS
 10
-122.51245
 20
42.814033
 11
-114.453195
 21
34.754775
  0
LINE
  8
別途部材
  6
CONTINUOUS
 10
-124.179118
 20
44.4807
 11
-22.51245
 21
44.4807
  0
LINE
  8
別途部材
  6
CONTINUOUS
 10
-124.579118
 20
44.8807
 11
-22.51245
 21
44.8807
  0
LINE
  8
別途部材
  6
CONTINUOUS
 10
79.154218
 20
44.4807
 11
79.154218
 21
32.814033
  0
LINE
  8
別途部材
  6
CONTINUOUS
 10
79.554218
 20
44.8807
 11
79.554218
 21
32.814033
  0
LINE
  8
別途部材
  6
CONTINUOUS
 10
-124.579118
 20
44.8807
 11
-124.579118
 21
32.814033
  0
LINE
  8
別途部材
  6
CONTINUOUS
 10
-124.179118
 20
44.4807
 11
-124.179118
 21
32.814033
  0
LINE
  8
別途部材
  6
DOT
 62
    96
 10
79.154218
 20
-62.87628
 11
79.554218
 21
-63.87628
  0
LINE
  8
別途部材
  6
DOT
 62
    96
 10
79.154218
 20
-62.87628
 11
-22.51245
 21
-62.87628
  0
LINE
  8
別途部材
  6
DOT
 10
79.554218
 20
-63.87628
 11
-22.51245
 21
-63.87628
  0
LINE
  8
別途部材
  6
DOT
 62
    96
 10
-124.179118
 20
-62.87628
 11
-124.579118
 21
-63.87628
  0
LINE
  8
別途部材
  6
DOT
 62
    96
 10
-124.179118
 20
-62.87628
 11
-22.51245
 21
-62.87628
  0
LINE
  8
別途部材
  6
DOT
 10
-124.579118
 20
-63.87628
 11
-22.51245
 21
-63.87628
  0
ARC
  8
別途部材
  6
DOT
 10
-112.51245
 20
-69.584615
 40
12.041667
 50
90.0
 51
146.144967
  0
LINE
  8
別途部材
  6
DOT
 10
-22.51245
 20
-57.542947
 11
-112.51245
 21
-57.542947
  0
ARC
  8
別途部材
  6
DOT
 10
67.48755
 20
-69.584615
 40
12.041667
 50
33.855033
 51
90.0
  0
LINE
  8
別途部材
  6
DOT
 10
-22.51245
 20
-57.542947
 11
67.48755
 21
-57.542947
  0
INSERT
  2
*GRP_0012
  8
別途部材
  6
CONTINUOUS
 10
0.0
 20
0.0
  0
INSERT
  2
*GRP_0033
  8
別途部材
  6
DOT
 10
0.0
 20
0.0
  0
INSERT
  2
*GRP_0034
  8
別途部材
  6
DOT
 10
0.0
 20
0.0
  0
INSERT
  2
*GRP_0035
  8
別途部材
  6
DOT
 10
0.0
 20
0.0
  0
INSERT
  2
*GRP_0036
  8
別途部材
  6
DOT
 10
0.0
 20
0.0
  0
INSERT
  2
*GRP_0037
  8
別途部材
  6
DOT
 10
0.0
 20
0.0
  0
INSERT
  2
*GRP_0038
  8
別途部材
  6
DOT
 10
0.0
 20
0.0
  0
LINE
  8
曲げ物
  6
CONTINUOUS
 10
172.574105
 20
-83.118728
 11
140.240772
 21
-83.118728
  0
LINE
  8
曲げ物
  6
CONTINUOUS
 10
172.574105
 20
-63.785395
 11
140.240772
 21
-63.785395
  0
LINE
  8
曲げ物
  6
CONTINUOUS
 10
140.240772
 20
-83.118728
 11
140.240772
 21
-63.785395
  0
LINE
  8
曲げ物
  6
CONTINUOUS
 10
172.574105
 20
-83.118728
 11
172.574105
 21
-63.785395
  0
ENDSEC
  0
EOF
