  0
SECTION
  2
HEADER
  9
$EXTMIN
 10
-210.0
 20
-148.5
  9
$EXTMAX
 10
210.0
 20
148.5
  9
$PDMODE
 70
    32
  9
$PDSIZE
 40
1.5
  9
$LTSCALE
 40
10.0
  0
ENDSEC
  0
SECTION
  2
TABLES
  0
TABLE
  2
LTYPE
 70
    15
  0
LTYPE
  2
CONTINUOUS
 70
    64
  3
実線
 72
    65
 73
     0
 40
0.0
  0
LTYPE
  2
DASHED
 70
    64
  3
破線A
 72
    65
 73
     2
 40
0.6
 49
0.4
 49
-0.2
  0
LTYPE
  2
DASHEDX2
 70
    64
  3
破線B
 72
    65
 73
     2
 40
1.3
 49
0.9
 49
-0.4
  0
LTYPE
  2
DASHDOT
 70
    64
  3
１点鎖線A
 72
    65
 73
     4
 40
0.5375
 49
0.375
 49
-0.05
 49
0.0625
 49
-0.05
  0
LTYPE
  2
DASHDOTX2
 70
    64
  3
１点鎖線B
 72
    65
 73
     4
 40
1.075
 49
0.75
 49
-0.1
 49
0.125
 49
-0.1
  0
LTYPE
  2
DIVIDE2
 70
    64
  3
２点鎖線A
 72
    65
 73
     6
 40
0.5125
 49
0.3
 49
-0.0375
 49
0.05
 49
-0.0375
 49
0.05
 49
-0.0375
  0
LTYPE
  2
DIVIDE
 70
    64
  3
２点鎖線B
 72
    65
 73
     6
 40
1.05
 49
0.55
 49
-0.1
 49
0.1
 49
-0.1
 49
0.1
 49
-0.1
  0
LTYPE
  2
DOT
 70
    64
  3
点線A
 72
    65
 73
     2
 40
0.1125
 49
0.0625
 49
-0.05
  0
LTYPE
  2
DOTX2
 70
    64
  3
点線B
 72
    65
 73
     2
 40
0.275
 49
0.15
 49
-0.125
  0
LTYPE
  2
CONTINUOUS
 70
    64
  3
実線
 72
    65
 73
     0
 40
0.0
  0
LTYPE
  2
CONTINUOUS
 70
    64
  3
実線
 72
    65
 73
     0
 40
0.0
  0
LTYPE
  2
CONTINUOUS
 70
    64
  3
実線
 72
    65
 73
     0
 40
0.0
  0
LTYPE
  2
CONTINUOUS
 70
    64
  3
実線
 72
    65
 73
     0
 40
0.0
  0
LTYPE
  2
CONTINUOUS
 70
    64
  3
実線
 72
    65
 73
     0
 40
0.0
  0
LTYPE
  2
CONTINUOUS
 70
    64
  3
実線
 72
    65
 73
     0
 40
0.0
  0
ENDTAB
  0
TABLE
  2
LAYER
 70
    34
  0
LAYER
  2
通り芯
 70
     0
 62
    15
  6
CONTINUOUS
  0
LAYER
  2
補助線
 70
     0
 62
    16
  6
DOT
  0
LAYER
  2
躯体
 70
     0
 62
    31
  6
CONTINUOUS
  0
LAYER
  2
型材
 70
     0
 62
    32
  6
CONTINUOUS
  0
LAYER
  2
型材断面
 70
     0
 62
    47
  6
CONTINUOUS
  0
LAYER
  2
ガラス
 70
     0
 62
    48
  6
CONTINUOUS
  0
LAYER
  2
ゴム等
 70
     0
 62
    63
  6
CONTINUOUS
  0
LAYER
  2
ボルト／ビス
 70
     0
 62
    64
  6
CONTINUOUS
  0
LAYER
  2
文字
 70
     0
 62
    79
  6
CONTINUOUS
  0
LAYER
  2
寸法
 70
     0
 62
    80
  6
CONTINUOUS
  0
LAYER
  2
ﾊｯﾁﾝｸﾞ
 70
     0
 62
    95
  6
CONTINUOUS
  0
LAYER
  2
別途部材
 70
     0
 62
    96
  6
CONTINUOUS
  0
LAYER
  2
曲げ物
 70
     0
 62
   111
  6
CONTINUOUS
  0
LAYER
  2
鉄骨等
 70
     0
 62
   112
  6
CONTINUOUS
  0
LAYER
  2
St
 70
     0
 62
   127
  6
CONTINUOUS
  0
LAYER
  2
その他部品等
 70
     0
 62
   128
  6
CONTINUOUS
  0
LAYER
  2
ｶﾞｽｹｯﾄ
 70
     0
 62
   143
  6
CONTINUOUS
  0
LAYER
  2
ｽｹｯﾁ
 70
     0
 62
    14
  6
CONTINUOUS
  0
LAYER
  2
0
 70
     0
 62
    17
  6
CONTINUOUS
  0
LAYER
  2
1
 70
     0
 62
    30
  6
CONTINUOUS
  0
LAYER
  2
4
 70
     0
 62
    33
  6
CONTINUOUS
  0
LAYER
  2
ﾚｲﾔ3
 70
     0
 62
    46
  6
CONTINUOUS
  0
LAYER
  2
外形線
 70
     0
 62
    49
  6
CONTINUOUS
  0
LAYER
  2
部品
 70
     0
 62
    14
  6
CONTINUOUS
  0
LAYER
  2
サッシ芯
 70
     0
 62
    17
  6
DASHDOTX2
  0
LAYER
  2
寸法線
 70
     0
 62
    62
  6
CONTINUOUS
  0
LAYER
  2
姿図外形線
 70
     0
 62
    65
  6
CONTINUOUS
  0
LAYER
  2
姿補助線
 70
     0
 62
    30
  6
CONTINUOUS
  0
LAYER
  2
透視線
 70
     0
 62
    78
  6
DOT
  0
LAYER
  2
用紙
 70
     0
 62
    81
  6
CONTINUOUS
  0
LAYER
  2
実線図枠
 70
     0
 62
    94
  6
CONTINUOUS
  0
LAYER
  2
補助図枠
 70
     0
 62
    97
  6
CONTINUOUS
  0
LAYER
  2
建具記号
 70
     0
 62
   110
  6
CONTINUOUS
  0
LAYER
  2
補助文字
 70
     0
 62
   113
  6
CONTINUOUS
  0
ENDTAB
  0
TABLE
  2
STYLE
 70
    10
  0
STYLE
  2
STANDARD
 70
     0
 40
1.0
 41
1.0
 42
1.0
 50
0.0
 71
     0
  3
TXT
  4
BIGFONT
  0
STYLE
  2
TATE
 70
     4
 40
1.0
 41
1.0
 42
1.0
 50
0.0
 71
     0
  3
TXT
  4
BIGFONT
  0
STYLE
  2
TextStyle03
 70
     0
 40
1.0
 41
1.0
 42
1.0
 50
0.0
 71
     0
  3
MONOTXT
  4
BIGFONT
  0
STYLE
  2
TextStyle04
 70
     0
 40
1.0
 41
1.0
 42
1.0
 50
0.0
 71
     0
  3
MONOTXT
  4
BIGFONT
  0
STYLE
  2
TextStyle05
 70
     0
 40
1.0
 41
1.0
 42
1.0
 50
0.0
 71
     0
  3
MONOTXT
  4
BIGFONT
  0
STYLE
  2
TextStyle06
 70
     0
 40
1.0
 41
1.0
 42
1.0
 50
0.0
 71
     0
  3
MONOTXT
  4
BIGFONT
  0
STYLE
  2
TextStyle07
 70
     0
 40
1.0
 41
1.0
 42
1.0
 50
0.0
 71
     0
  3
MONOTXT
  4
BIGFONT
  0
STYLE
  2
TextStyle08
 70
     0
 40
1.0
 41
1.0
 42
1.0
 50
0.0
 71
     0
  3
MONOTXT
  4
BIGFONT
  0
STYLE
  2
TextStyle09
 70
     0
 40
1.0
 41
1.0
 42
1.0
 50
0.0
 71
     0
  3
MONOTXT
  4
BIGFONT
  0
STYLE
  2
TextStyle10
 70
     0
 40
1.0
 41
1.0
 42
1.0
 50
0.0
 71
     0
  3
MONOTXT
  4
BIGFONT
  0
ENDTAB
  0
ENDSEC
  0
SECTION
  2
BLOCKS
  0
BLOCK
  2
*GRP_0001
 70
    65
 10
0.0
 20
0.0
  0
LINE
  8
型材断面
  6
CONTINUOUS
 10
195.0
 20
133.5
 11
195.0
 21
-133.5
  0
LINE
  8
型材断面
  6
CONTINUOUS
 10
195.0
 20
-133.5
 11
-185.0
 21
-133.5
  0
LINE
  8
型材断面
  6
CONTINUOUS
 10
-185.0
 20
-133.5
 11
-185.0
 21
133.5
  0
LINE
  8
型材断面
  6
CONTINUOUS
 10
195.0
 20
133.5
 11
-185.0
 21
133.5
  0
LINE
  8
型材断面
  6
CONTINUOUS
 10
145.0
 20
-133.5
 11
145.0
 21
-118.5
  0
LINE
  8
型材断面
  6
CONTINUOUS
 10
195.0
 20
-118.5
 11
145.0
 21
-118.5
  0
ENDBLK
  0
BLOCK
  2
*DIM_0002
 70
    65
 10
0.0
 20
0.0
  0
LINE
  8
寸法
  6
BYBLOCK
 62
     0
 10
57.089525
 20
-64.87628
 11
82.059175
 21
-64.87628
  0
LINE
  8
寸法
  6
BYBLOCK
 62
     0
 10
82.059175
 20
-70.209613
 11
82.059175
 21
-64.87628
  0
POINT
  8
寸法
 62
     0
 10
82.059175
 20
-70.209613
  0
POINT
  8
寸法
 62
     0
 10
82.059175
 20
-64.87628
  0
TEXT
  7
TextStyle03
  8
寸法
  6
CONTINUOUS
 62
     0
 10
81.65
 20
-69.9875
  1
160
 40
3.0
 50
90.0
 72
     5
 11
81.65
 21
-65.1125
  0
ENDBLK
  0
BLOCK
  2
*DIM_0003
 70
    65
 10
0.0
 20
0.0
  0
LINE
  8
寸法
  6
BYBLOCK
 62
     0
 10
100.109175
 20
22.814033
 11
100.109175
 21
42.814033
  0
POINT
  8
寸法
 62
     0
 10
100.109175
 20
22.814033
  0
POINT
  8
寸法
 62
     0
 10
100.109175
 20
42.814033
  0
TEXT
  7
TextStyle03
  8
寸法
  6
CONTINUOUS
 62
     0
 10
99.7
 20
21.925
  1
呼称寸法　600
 40
3.0
 50
90.0
 72
     5
 11
99.7
 21
43.675
  0
ENDBLK
  0
BLOCK
  2
*DIM_0004
 70
    65
 10
0.0
 20
0.0
  0
LINE
  8
寸法
  6
BYBLOCK
 62
     0
 10
150.289458
 20
33.814033
 11
150.289458
 21
60.666798
  0
LINE
  8
寸法
  6
BYBLOCK
 62
     0
 10
155.62279
 20
60.666798
 11
150.289458
 21
60.666798
  0
POINT
  8
寸法
 62
     0
 10
155.62279
 20
60.666798
  0
POINT
  8
寸法
 62
     0
 10
150.289458
 20
60.666798
  0
TEXT
  7
TextStyle03
  8
寸法
  6
CONTINUOUS
 62
     0
 10
150.4875
 20
61.025
  1
160
 40
3.0
 72
     5
 11
155.3625
 21
61.025
  0
ENDBLK
  0
BLOCK
  2
*DIM_0005
 70
    65
 10
0.0
 20
0.0
  0
LINE
  8
寸法
  6
BYBLOCK
 62
     0
 10
162.17608
 20
-63.785395
 11
170.28761
 21
-63.785395
  0
LINE
  8
寸法
  6
BYBLOCK
 62
     0
 10
162.17608
 20
-83.118728
 11
170.28761
 21
-83.118728
  0
LINE
  8
寸法
  6
BYBLOCK
 62
     0
 10
170.28761
 20
-63.785395
 11
170.28761
 21
-83.118728
  0
POINT
  8
寸法
 62
     0
 10
170.28761
 20
-63.785395
  0
POINT
  8
寸法
 62
     0
 10
170.28761
 20
-83.118728
  0
TEXT
  7
TextStyle03
  8
寸法
  6
CONTINUOUS
 62
     0
 10
169.875
 20
-75.9125
  1
580
 40
3.0
 50
90.0
 72
     5
 11
169.875
 21
-71.0375
  0
ENDBLK
  0
BLOCK
  2
*DIM_0006
 70
    65
 10
0.0
 20
0.0
  0
LINE
  8
寸法
  6
BYBLOCK
 62
     0
 10
-117.243808
 20
-16.511205
 11
-117.243808
 21
-13.121378
  0
LINE
  8
寸法
  6
BYBLOCK
 62
     0
 10
66.089525
 20
-13.121378
 11
-117.243808
 21
-13.121378
  0
POINT
  8
寸法
 62
     0
 10
66.089525
 20
-13.121378
  0
POINT
  8
寸法
 62
     0
 10
-117.243808
 20
-13.121378
  0
TEXT
  7
TextStyle03
  8
寸法
  6
CONTINUOUS
 62
     0
 10
-37.31875
 20
-12.75
  1
呼称寸法　5500
 40
3.0
 72
     5
 11
-13.88125
 21
-12.75
  0
ENDBLK
  0
BLOCK
  2
*DIM_0007
 70
    65
 10
0.0
 20
0.0
  0
LINE
  8
寸法
  6
BYBLOCK
 62
     0
 10
161.17608
 20
-62.785395
 11
161.17608
 21
-53.539192
  0
LINE
  8
寸法
  6
BYBLOCK
 62
     0
 10
125.49608
 20
-62.785395
 11
125.49608
 21
-53.539192
  0
LINE
  8
寸法
  6
BYBLOCK
 62
     0
 10
161.17608
 20
-53.539192
 11
125.49608
 21
-53.539192
  0
POINT
  8
寸法
 62
     0
 10
161.17608
 20
-53.539192
  0
POINT
  8
寸法
 62
     0
 10
125.49608
 20
-53.539192
  0
TEXT
  7
TextStyle03
  8
寸法
  6
CONTINUOUS
 62
     0
 10
138.33125
 20
-53.175
  1
1070.4
 40
3.0
 72
     5
 11
148.26875
 21
-53.175
  0
ENDBLK
  0
BLOCK
  2
*DIM_0008
 70
    65
 10
0.0
 20
0.0
  0
LINE
  8
寸法
  6
BYBLOCK
 62
     0
 10
-100.57714
 20
19.183902
 11
-100.57714
 21
13.885527
  0
LINE
  8
寸法
  6
BYBLOCK
 62
     0
 10
-25.577142
 20
19.183905
 11
-25.577142
 21
13.885527
  0
LINE
  8
寸法
  6
BYBLOCK
 62
     0
 10
-100.57714
 20
13.885527
 11
-25.577142
 21
13.885527
  0
POINT
  8
寸法
 62
     0
 10
-100.57714
 20
13.885527
  0
POINT
  8
寸法
 62
     0
 10
-25.577142
 20
13.885527
  0
TEXT
  7
TextStyle03
  8
寸法
  6
CONTINUOUS
 62
     0
 10
-66.38125
 20
14.25
  1
2250
 40
3.0
 72
     5
 11
-59.81875
 21
14.25
  0
ENDBLK
  0
BLOCK
  2
*DIM_0009
 70
    65
 10
0.0
 20
0.0
  0
LINE
  8
寸法
  6
BYBLOCK
 62
     0
 10
49.422855
 20
19.183902
 11
49.422855
 21
13.885527
  0
LINE
  8
寸法
  6
BYBLOCK
 62
     0
 10
-25.577142
 20
13.885527
 11
49.422855
 21
13.885527
  0
POINT
  8
寸法
 62
     0
 10
49.422855
 20
13.885527
  0
TEXT
  7
TextStyle03
  8
寸法
  6
CONTINUOUS
 62
     0
 10
8.61875
 20
14.25
  1
2250
 40
3.0
 72
     5
 11
15.18125
 21
14.25
  0
ENDBLK
  0
BLOCK
  2
*DIM_0010
 70
    65
 10
0.0
 20
0.0
  0
LINE
  8
寸法
  6
BYBLOCK
 62
     0
 10
67.089525
 20
42.814035
 11
76.813808
 21
42.814035
  0
LINE
  8
寸法
  6
BYBLOCK
 62
     0
 10
69.719655
 20
39.114035
 11
76.813808
 21
39.114035
  0
LINE
  8
寸法
  6
BYBLOCK
 62
     0
 10
76.813808
 20
42.814035
 11
76.813808
 21
39.114035
  0
POINT
  8
寸法
 62
     0
 10
76.813808
 20
42.814035
  0
POINT
  8
寸法
 62
     0
 10
76.813808
 20
39.114035
  0
TEXT
  7
TextStyle03
  8
寸法
  6
CONTINUOUS
 62
     0
 10
76.5
 20
43.8125
  1
111
 40
3.0
 50
90.0
 72
     5
 11
76.5
 21
48.6875
  0
ENDBLK
  0
BLOCK
  2
*DIM_0011
 70
    65
 10
0.0
 20
0.0
  0
LINE
  8
寸法
  6
BYBLOCK
 62
     0
 10
67.089525
 20
22.81403
 11
76.813808
 21
22.814027
  0
LINE
  8
寸法
  6
BYBLOCK
 62
     0
 10
69.719655
 20
26.51403
 11
76.813808
 21
26.514027
  0
LINE
  8
寸法
  6
BYBLOCK
 62
     0
 10
76.813808
 20
22.814027
 11
76.813808
 21
26.514027
  0
POINT
  8
寸法
 62
     0
 10
76.813808
 20
22.814027
  0
POINT
  8
寸法
 62
     0
 10
76.813808
 20
26.514027
  0
TEXT
  7
TextStyle03
  8
寸法
  6
CONTINUOUS
 62
     0
 10
76.825
 20
16.5625
  1
111
 40
3.0
 50
90.0
 72
     5
 11
76.825
 21
21.4375
  0
ENDBLK
  0
BLOCK
  2
*GRP_0012
 70
    65
 10
0.0
 20
0.0
  0
LINE
  8
別途部材
  6
CONTINUOUS
 62
    96
 10
-118.910475
 20
-70.209613
 11
-119.310475
 21
-71.209613
  0
ARC
  8
別途部材
  6
CONTINUOUS
 10
-107.243809
 20
-76.917943
 40
12.041668
 50
90.0
 51
146.144967
  0
LINE
  8
別途部材
  6
CONTINUOUS
 10
-119.310475
 20
-71.209613
 11
-25.57714
 21
-71.209613
  0
LINE
  8
別途部材
  6
CONTINUOUS
 62
    96
 10
-118.910475
 20
-70.209613
 11
-25.57714
 21
-70.209613
  0
LINE
  8
別途部材
  6
CONTINUOUS
 10
-26.07714
 20
-63.87628
 11
-27.07714
 21
-64.87628
  0
LINE
  8
別途部材
  6
CONTINUOUS
 10
-28.07714
 20
-64.87628
 11
-29.07714
 21
-63.87628
  0
LINE
  8
別途部材
  6
CONTINUOUS
 10
-30.07714
 20
-63.87628
 11
-31.07714
 21
-64.87628
  0
LINE
  8
別途部材
  6
CONTINUOUS
 10
-29.07714
 20
-63.87628
 11
-30.07714
 21
-63.87628
  0
LINE
  8
別途部材
  6
CONTINUOUS
 10
-26.07714
 20
-63.87628
 11
-25.57714
 21
-63.87628
  0
LINE
  8
別途部材
  6
CONTINUOUS
 10
-32.07714
 20
-64.87628
 11
-33.07714
 21
-63.87628
  0
LINE
  8
別途部材
  6
CONTINUOUS
 10
-34.07714
 20
-63.87628
 11
-35.07714
 21
-64.87628
  0
LINE
  8
別途部材
  6
CONTINUOUS
 10
-33.07714
 20
-63.87628
 11
-34.07714
 21
-63.87628
  0
LINE
  8
別途部材
  6
CONTINUOUS
 10
-36.07714
 20
-64.87628
 11
-37.07714
 21
-63.87628
  0
LINE
  8
別途部材
  6
CONTINUOUS
 10
-38.07714
 20
-63.87628
 11
-39.07714
 21
-64.87628
  0
LINE
  8
別途部材
  6
CONTINUOUS
 10
-37.07714
 20
-63.87628
 11
-38.07714
 21
-63.87628
  0
LINE
  8
別途部材
  6
CONTINUOUS
 10
-40.07714
 20
-64.87628
 11
-41.07714
 21
-63.87628
  0
LINE
  8
別途部材
  6
CONTINUOUS
 10
-42.07714
 20
-63.87628
 11
-43.07714
 21
-64.87628
  0
LINE
  8
別途部材
  6
CONTINUOUS
 10
-41.07714
 20
-63.87628
 11
-42.07714
 21
-63.87628
  0
LINE
  8
別途部材
  6
CONTINUOUS
 10
-44.07714
 20
-64.87628
 11
-45.07714
 21
-63.87628
  0
LINE
  8
別途部材
  6
CONTINUOUS
 10
-46.07714
 20
-63.87628
 11
-47.07714
 21
-64.87628
  0
LINE
  8
別途部材
  6
CONTINUOUS
 10
-45.07714
 20
-63.87628
 11
-46.07714
 21
-63.87628
  0
LINE
  8
別途部材
  6
CONTINUOUS
 10
-48.07714
 20
-64.87628
 11
-49.07714
 21
-63.87628
  0
LINE
  8
別途部材
  6
CONTINUOUS
 10
-50.07714
 20
-63.87628
 11
-51.07714
 21
-64.87628
  0
LINE
  8
別途部材
  6
CONTINUOUS
 10
-49.07714
 20
-63.87628
 11
-50.07714
 21
-63.87628
  0
LINE
  8
別途部材
  6
CONTINUOUS
 10
-52.07714
 20
-64.87628
 11
-53.07714
 21
-63.87628
  0
LINE
  8
別途部材
  6
CONTINUOUS
 10
-54.07714
 20
-63.87628
 11
-55.07714
 21
-64.87628
  0
LINE
  8
別途部材
  6
CONTINUOUS
 10
-53.07714
 20
-63.87628
 11
-54.07714
 21
-63.87628
  0
LINE
  8
別途部材
  6
CONTINUOUS
 10
-56.07714
 20
-64.87628
 11
-57.07714
 21
-63.87628
  0
LINE
  8
別途部材
  6
CONTINUOUS
 10
-58.07714
 20
-63.87628
 11
-59.07714
 21
-64.87628
  0
LINE
  8
別途部材
  6
CONTINUOUS
 10
-57.07714
 20
-63.87628
 11
-58.07714
 21
-63.87628
  0
LINE
  8
別途部材
  6
CONTINUOUS
 10
-60.07714
 20
-64.87628
 11
-61.07714
 21
-63.87628
  0
LINE
  8
別途部材
  6
CONTINUOUS
 10
-62.07714
 20
-63.87628
 11
-63.07714
 21
-64.87628
  0
LINE
  8
別途部材
  6
CONTINUOUS
 10
-61.07714
 20
-63.87628
 11
-62.07714
 21
-63.87628
  0
LINE
  8
別途部材
  6
CONTINUOUS
 10
-64.07714
 20
-64.87628
 11
-65.07714
 21
-63.87628
  0
LINE
  8
別途部材
  6
CONTINUOUS
 10
-66.07714
 20
-63.87628
 11
-67.07714
 21
-64.87628
  0
LINE
  8
別途部材
  6
CONTINUOUS
 10
-65.07714
 20
-63.87628
 11
-66.07714
 21
-63.87628
  0
LINE
  8
別途部材
  6
CONTINUOUS
 10
-68.07714
 20
-64.87628
 11
-69.07714
 21
-63.87628
  0
LINE
  8
別途部材
  6
CONTINUOUS
 10
-70.07714
 20
-63.87628
 11
-71.07714
 21
-64.87628
  0
LINE
  8
別途部材
  6
CONTINUOUS
 10
-69.07714
 20
-63.87628
 11
-70.07714
 21
-63.87628
  0
LINE
  8
別途部材
  6
CONTINUOUS
 10
-67.07714
 20
-64.87628
 11
-68.07714
 21
-64.87628
  0
LINE
  8
別途部材
  6
CONTINUOUS
 10
-63.07714
 20
-64.87628
 11
-64.07714
 21
-64.87628
  0
LINE
  8
別途部材
  6
CONTINUOUS
 10
-59.07714
 20
-64.87628
 11
-60.07714
 21
-64.87628
  0
LINE
  8
別途部材
  6
CONTINUOUS
 10
-55.07714
 20
-64.87628
 11
-56.07714
 21
-64.87628
  0
LINE
  8
別途部材
  6
CONTINUOUS
 10
-51.07714
 20
-64.87628
 11
-52.07714
 21
-64.87628
  0
LINE
  8
別途部材
  6
CONTINUOUS
 10
-47.07714
 20
-64.87628
 11
-48.07714
 21
-64.87628
  0
LINE
  8
別途部材
  6
CONTINUOUS
 10
-43.07714
 20
-64.87628
 11
-44.07714
 21
-64.87628
  0
LINE
  8
別途部材
  6
CONTINUOUS
 10
-39.07714
 20
-64.87628
 11
-40.07714
 21
-64.87628
  0
LINE
  8
別途部材
  6
CONTINUOUS
 10
-35.07714
 20
-64.87628
 11
-36.07714
 21
-64.87628
  0
LINE
  8
別途部材
  6
CONTINUOUS
 10
-31.07714
 20
-64.87628
 11
-32.07714
 21
-64.87628
  0
LINE
  8
別途部材
  6
CONTINUOUS
 10
-28.07714
 20
-64.87628
 11
-27.07714
 21
-64.87628
  0
LINE
  8
別途部材
  6
CONTINUOUS
 10
-72.07714
 20
-64.87628
 11
-73.07714
 21
-63.87628
  0
LINE
  8
別途部材
  6
CONTINUOUS
 10
-74.07714
 20
-63.87628
 11
-75.07714
 21
-64.87628
  0
LINE
  8
別途部材
  6
CONTINUOUS
 10
-73.07714
 20
-63.87628
 11
-74.07714
 21
-63.87628
  0
LINE
  8
別途部材
  6
CONTINUOUS
 10
-76.07714
 20
-64.87628
 11
-77.07714
 21
-63.87628
  0
LINE
  8
別途部材
  6
CONTINUOUS
 10
-78.07714
 20
-63.87628
 11
-79.07714
 21
-64.87628
  0
LINE
  8
別途部材
  6
CONTINUOUS
 10
-77.07714
 20
-63.87628
 11
-78.07714
 21
-63.87628
  0
LINE
  8
別途部材
  6
CONTINUOUS
 10
-80.07714
 20
-64.87628
 11
-81.07714
 21
-63.87628
  0
LINE
  8
別途部材
  6
CONTINUOUS
 10
-82.07714
 20
-63.87628
 11
-83.07714
 21
-64.87628
  0
LINE
  8
別途部材
  6
CONTINUOUS
 10
-81.07714
 20
-63.87628
 11
-82.07714
 21
-63.87628
  0
LINE
  8
別途部材
  6
CONTINUOUS
 10
-84.07714
 20
-64.87628
 11
-85.07714
 21
-63.87628
  0
LINE
  8
別途部材
  6
CONTINUOUS
 10
-86.07714
 20
-63.87628
 11
-87.07714
 21
-64.87628
  0
LINE
  8
別途部材
  6
CONTINUOUS
 10
-85.07714
 20
-63.87628
 11
-86.07714
 21
-63.87628
  0
LINE
  8
別途部材
  6
CONTINUOUS
 10
-88.07714
 20
-64.87628
 11
-89.07714
 21
-63.87628
  0
LINE
  8
別途部材
  6
CONTINUOUS
 10
-90.07714
 20
-63.87628
 11
-91.07714
 21
-64.87628
  0
LINE
  8
別途部材
  6
CONTINUOUS
 10
-89.07714
 20
-63.87628
 11
-90.07714
 21
-63.87628
  0
LINE
  8
別途部材
  6
CONTINUOUS
 10
-92.07714
 20
-64.87628
 11
-93.07714
 21
-63.87628
  0
LINE
  8
別途部材
  6
CONTINUOUS
 10
-94.07714
 20
-63.87628
 11
-95.07714
 21
-64.87628
  0
LINE
  8
別途部材
  6
CONTINUOUS
 10
-93.07714
 20
-63.87628
 11
-94.07714
 21
-63.87628
  0
LINE
  8
別途部材
  6
CONTINUOUS
 10
-96.07714
 20
-64.87628
 11
-97.07714
 21
-63.87628
  0
LINE
  8
別途部材
  6
CONTINUOUS
 10
-98.07714
 20
-63.87628
 11
-99.07714
 21
-64.87628
  0
LINE
  8
別途部材
  6
CONTINUOUS
 10
-97.07714
 20
-63.87628
 11
-98.07714
 21
-63.87628
  0
LINE
  8
別途部材
  6
CONTINUOUS
 10
-100.07714
 20
-64.87628
 11
-101.07714
 21
-63.87628
  0
LINE
  8
別途部材
  6
CONTINUOUS
 10
-102.07714
 20
-63.87628
 11
-103.07714
 21
-64.87628
  0
LINE
  8
別途部材
  6
CONTINUOUS
 10
-101.07714
 20
-63.87628
 11
-102.07714
 21
-63.87628
  0
LINE
  8
別途部材
  6
CONTINUOUS
 10
-99.07714
 20
-64.87628
 11
-100.07714
 21
-64.87628
  0
LINE
  8
別途部材
  6
CONTINUOUS
 10
-95.07714
 20
-64.87628
 11
-96.07714
 21
-64.87628
  0
LINE
  8
別途部材
  6
CONTINUOUS
 10
-91.07714
 20
-64.87628
 11
-92.07714
 21
-64.87628
  0
LINE
  8
別途部材
  6
CONTINUOUS
 10
-87.07714
 20
-64.87628
 11
-88.07714
 21
-64.87628
  0
LINE
  8
別途部材
  6
CONTINUOUS
 10
-83.07714
 20
-64.87628
 11
-84.07714
 21
-64.87628
  0
LINE
  8
別途部材
  6
CONTINUOUS
 10
-79.07714
 20
-64.87628
 11
-80.07714
 21
-64.87628
  0
LINE
  8
別途部材
  6
CONTINUOUS
 10
-75.07714
 20
-64.87628
 11
-76.07714
 21
-64.87628
  0
LINE
  8
別途部材
  6
CONTINUOUS
 10
-71.07714
 20
-64.87628
 11
-72.07714
 21
-64.87628
  0
LINE
  8
別途部材
  6
CONTINUOUS
 10
-104.07714
 20
-64.87628
 11
-105.07714
 21
-63.87628
  0
LINE
  8
別途部材
  6
CONTINUOUS
 10
-106.07714
 20
-63.87628
 11
-107.07714
 21
-64.87628
  0
LINE
  8
別途部材
  6
CONTINUOUS
 10
-105.07714
 20
-63.87628
 11
-106.07714
 21
-63.87628
  0
LINE
  8
別途部材
  6
CONTINUOUS
 10
-103.07714
 20
-64.87628
 11
-104.07714
 21
-64.87628
  0
LINE
  8
別途部材
  6
CONTINUOUS
 10
-107.07714
 20
-64.87628
 11
-107.07714
 21
-70.209613
  0
LINE
  8
別途部材
  6
CONTINUOUS
 10
-106.07714
 20
-63.87628
 11
-106.07714
 21
-70.209613
  0
LINE
  8
別途部材
  6
CONTINUOUS
 10
-105.07714
 20
-63.87628
 11
-105.07714
 21
-70.209613
  0
LINE
  8
別途部材
  6
CONTINUOUS
 10
-103.07714
 20
-64.87628
 11
-103.07714
 21
-70.209613
  0
LINE
  8
別途部材
  6
CONTINUOUS
 10
-101.07714
 20
-63.87628
 11
-101.07714
 21
-70.209613
  0
LINE
  8
別途部材
  6
CONTINUOUS
 10
-100.07714
 20
-64.87628
 11
-100.07714
 21
-70.209613
  0
LINE
  8
別途部材
  6
CONTINUOUS
 10
-102.07714
 20
-63.87628
 11
-102.07714
 21
-70.209613
  0
LINE
  8
別途部材
  6
CONTINUOUS
 10
-104.07714
 20
-64.87628
 11
-104.07714
 21
-70.209613
  0
LINE
  8
別途部材
  6
CONTINUOUS
 10
-99.07714
 20
-64.87628
 11
-99.07714
 21
-70.209613
  0
LINE
  8
別途部材
  6
CONTINUOUS
 10
-98.07714
 20
-63.87628
 11
-98.07714
 21
-70.209613
  0
LINE
  8
別途部材
  6
CONTINUOUS
 10
-96.07714
 20
-64.87628
 11
-96.07714
 21
-70.209613
  0
LINE
  8
別途部材
  6
CONTINUOUS
 10
-97.07714
 20
-63.87628
 11
-97.07714
 21
-70.209613
  0
LINE
  8
別途部材
  6
CONTINUOUS
 10
-94.07714
 20
-63.87628
 11
-94.07714
 21
-70.209613
  0
LINE
  8
別途部材
  6
CONTINUOUS
 10
-95.07714
 20
-64.87628
 11
-95.07714
 21
-70.209613
  0
LINE
  8
別途部材
  6
CONTINUOUS
 10
-93.07714
 20
-63.87628
 11
-93.07714
 21
-70.209613
  0
LINE
  8
別途部材
  6
CONTINUOUS
 10
-92.07714
 20
-64.87628
 11
-92.07714
 21
-70.209613
  0
LINE
  8
別途部材
  6
CONTINUOUS
 10
-90.07714
 20
-63.87628
 11
-90.07714
 21
-70.209613
  0
LINE
  8
別途部材
  6
CONTINUOUS
 10
-91.07714
 20
-64.87628
 11
-91.07714
 21
-70.209613
  0
LINE
  8
別途部材
  6
CONTINUOUS
 10
-88.07714
 20
-64.87628
 11
-88.07714
 21
-70.209613
  0
LINE
  8
別途部材
  6
CONTINUOUS
 10
-89.07714
 20
-63.87628
 11
-89.07714
 21
-70.209613
  0
LINE
  8
別途部材
  6
CONTINUOUS
 10
-87.07714
 20
-64.87628
 11
-87.07714
 21
-70.209613
  0
LINE
  8
別途部材
  6
CONTINUOUS
 10
-85.07714
 20
-63.87628
 11
-85.07714
 21
-70.209613
  0
LINE
  8
別途部材
  6
CONTINUOUS
 10
-86.07714
 20
-63.87628
 11
-86.07714
 21
-70.209613
  0
LINE
  8
別途部材
  6
CONTINUOUS
 10
-84.07714
 20
-64.87628
 11
-84.07714
 21
-70.209613
  0
LINE
  8
別途部材
  6
CONTINUOUS
 10
-83.07714
 20
-64.87628
 11
-83.07714
 21
-70.209613
  0
LINE
  8
別途部材
  6
CONTINUOUS
 10
-82.07714
 20
-63.87628
 11
-82.07714
 21
-70.209613
  0
LINE
  8
別途部材
  6
CONTINUOUS
 10
-81.07714
 20
-63.87628
 11
-81.07714
 21
-70.209613
  0
LINE
  8
別途部材
  6
CONTINUOUS
 10
-78.07714
 20
-63.87628
 11
-78.07714
 21
-70.209613
  0
LINE
  8
別途部材
  6
CONTINUOUS
 10
-76.07714
 20
-64.87628
 11
-76.07714
 21
-70.209613
  0
LINE
  8
別途部材
  6
CONTINUOUS
 10
-77.07714
 20
-63.87628
 11
-77.07714
 21
-70.209613
  0
LINE
  8
別途部材
  6
CONTINUOUS
 10
-79.07714
 20
-64.87628
 11
-79.07714
 21
-70.209613
  0
LINE
  8
別途部材
  6
CONTINUOUS
 10
-80.07714
 20
-64.87628
 11
-80.07714
 21
-70.209613
  0
LINE
  8
別途部材
  6
CONTINUOUS
 10
-75.07714
 20
-64.87628
 11
-75.07714
 21
-70.209613
  0
LINE
  8
別途部材
  6
CONTINUOUS
 10
-73.07714
 20
-63.87628
 11
-73.07714
 21
-70.209613
  0
LINE
  8
別途部材
  6
CONTINUOUS
 10
-74.07714
 20
-63.87628
 11
-74.07714
 21
-70.209613
  0
LINE
  8
別途部材
  6
CONTINUOUS
 10
-72.07714
 20
-64.87628
 11
-72.07714
 21
-70.209613
  0
LINE
  8
別途部材
  6
CONTINUOUS
 10
-70.07714
 20
-63.87628
 11
-70.07714
 21
-70.209613
  0
LINE
  8
別途部材
  6
CONTINUOUS
 10
-71.07714
 20
-64.87628
 11
-71.07714
 21
-70.209613
  0
LINE
  8
別途部材
  6
CONTINUOUS
 10
-69.07714
 20
-63.87628
 11
-69.07714
 21
-70.209613
  0
LINE
  8
別途部材
  6
CONTINUOUS
 10
-68.07714
 20
-64.87628
 11
-68.07714
 21
-70.209613
  0
LINE
  8
別途部材
  6
CONTINUOUS
 10
-66.07714
 20
-63.87628
 11
-66.07714
 21
-70.209613
  0
LINE
  8
別途部材
  6
CONTINUOUS
 10
-67.07714
 20
-64.87628
 11
-67.07714
 21
-70.209613
  0
LINE
  8
別途部材
  6
CONTINUOUS
 10
-63.07714
 20
-64.87628
 11
-63.07714
 21
-70.209613
  0
LINE
  8
別途部材
  6
CONTINUOUS
 10
-64.07714
 20
-64.87628
 11
-64.07714
 21
-70.209613
  0
LINE
  8
別途部材
  6
CONTINUOUS
 10
-65.07714
 20
-63.87628
 11
-65.07714
 21
-70.209613
  0
LINE
  8
別途部材
  6
CONTINUOUS
 10
-62.07714
 20
-63.87628
 11
-62.07714
 21
-70.209613
  0
LINE
  8
別途部材
  6
CONTINUOUS
 10
-61.07714
 20
-63.87628
 11
-61.07714
 21
-70.209613
  0
LINE
  8
別途部材
  6
CONTINUOUS
 10
-60.07714
 20
-64.87628
 11
-60.07714
 21
-70.209613
  0
LINE
  8
別途部材
  6
CONTINUOUS
 10
-58.07714
 20
-63.87628
 11
-58.07714
 21
-70.209613
  0
LINE
  8
別途部材
  6
CONTINUOUS
 10
-54.07714
 20
-63.87628
 11
-54.07714
 21
-70.209613
  0
LINE
  8
別途部材
  6
CONTINUOUS
 10
-55.07714
 20
-64.87628
 11
-55.07714
 21
-70.209613
  0
LINE
  8
別途部材
  6
CONTINUOUS
 10
-56.07714
 20
-64.87628
 11
-56.07714
 21
-70.209613
  0
LINE
  8
別途部材
  6
CONTINUOUS
 10
-57.07714
 20
-63.87628
 11
-57.07714
 21
-70.209613
  0
LINE
  8
別途部材
  6
CONTINUOUS
 10
-59.07714
 20
-64.87628
 11
-59.07714
 21
-70.209613
  0
LINE
  8
別途部材
  6
CONTINUOUS
 10
-52.07714
 20
-64.87628
 11
-52.07714
 21
-70.209613
  0
LINE
  8
別途部材
  6
CONTINUOUS
 10
-53.07714
 20
-63.87628
 11
-53.07714
 21
-70.209613
  0
LINE
  8
別途部材
  6
CONTINUOUS
 10
-51.07714
 20
-64.87628
 11
-51.07714
 21
-70.209613
  0
LINE
  8
別途部材
  6
CONTINUOUS
 10
-50.07714
 20
-63.87628
 11
-50.07714
 21
-70.209613
  0
LINE
  8
別途部材
  6
CONTINUOUS
 10
-46.07714
 20
-63.87628
 11
-46.07714
 21
-70.209613
  0
LINE
  8
別途部材
  6
CONTINUOUS
 10
-45.07714
 20
-63.87628
 11
-45.07714
 21
-70.209613
  0
LINE
  8
別途部材
  6
CONTINUOUS
 10
-47.07714
 20
-64.87628
 11
-47.07714
 21
-70.209613
  0
LINE
  8
別途部材
  6
CONTINUOUS
 10
-48.07714
 20
-64.87628
 11
-48.07714
 21
-70.209613
  0
LINE
  8
別途部材
  6
CONTINUOUS
 10
-49.07714
 20
-63.87628
 11
-49.07714
 21
-70.209613
  0
LINE
  8
別途部材
  6
CONTINUOUS
 10
-44.07714
 20
-64.87628
 11
-44.07714
 21
-70.209613
  0
LINE
  8
別途部材
  6
CONTINUOUS
 10
-42.07714
 20
-63.87628
 11
-42.07714
 21
-70.209613
  0
LINE
  8
別途部材
  6
CONTINUOUS
 10
-41.07714
 20
-63.87628
 11
-41.07714
 21
-70.209613
  0
LINE
  8
別途部材
  6
CONTINUOUS
 10
-40.07714
 20
-64.87628
 11
-40.07714
 21
-70.209613
  0
LINE
  8
別途部材
  6
CONTINUOUS
 10
-39.07714
 20
-64.87628
 11
-39.07714
 21
-70.209613
  0
LINE
  8
別途部材
  6
CONTINUOUS
 10
-38.07714
 20
-63.87628
 11
-38.07714
 21
-70.209613
  0
LINE
  8
別途部材
  6
CONTINUOUS
 10
-43.07714
 20
-64.87628
 11
-43.07714
 21
-70.209613
  0
LINE
  8
別途部材
  6
CONTINUOUS
 10
-37.07714
 20
-63.87628
 11
-37.07714
 21
-70.209613
  0
LINE
  8
別途部材
  6
CONTINUOUS
 10
-36.07714
 20
-64.87628
 11
-36.07714
 21
-70.209613
  0
LINE
  8
別途部材
  6
CONTINUOUS
 10
-35.07714
 20
-64.87628
 11
-35.07714
 21
-70.209613
  0
LINE
  8
別途部材
  6
CONTINUOUS
 10
-33.07714
 20
-63.87628
 11
-33.07714
 21
-70.209613
  0
LINE
  8
別途部材
  6
CONTINUOUS
 10
-31.07714
 20
-64.87628
 11
-31.07714
 21
-70.209613
  0
LINE
  8
別途部材
  6
CONTINUOUS
 10
-30.07714
 20
-63.87628
 11
-30.07714
 21
-70.209613
  0
LINE
  8
別途部材
  6
CONTINUOUS
 10
-28.07714
 20
-64.87628
 11
-28.07714
 21
-70.209613
  0
LINE
  8
別途部材
  6
CONTINUOUS
 10
-27.07714
 20
-64.87628
 11
-27.07714
 21
-70.209613
  0
LINE
  8
別途部材
  6
CONTINUOUS
 10
-26.07714
 20
-63.87628
 11
-26.07714
 21
-70.209613
  0
LINE
  8
別途部材
  6
CONTINUOUS
 10
-29.07714
 20
-63.87628
 11
-29.07714
 21
-70.209613
  0
LINE
  8
別途部材
  6
CONTINUOUS
 10
-32.07714
 20
-64.87628
 11
-32.07714
 21
-70.209613
  0
LINE
  8
別途部材
  6
CONTINUOUS
 10
-34.07714
 20
-63.87628
 11
-34.07714
 21
-70.209613
  0
LINE
  8
別途部材
  6
CONTINUOUS
 62
    96
 10
67.756192
 20
-70.209613
 11
68.156193
 21
-71.209613
  0
ARC
  8
別途部材
  6
CONTINUOUS
 10
56.089528
 20
-76.917943
 40
12.041668
 50
33.855033
 51
90.0
  0
LINE
  8
別途部材
  6
CONTINUOUS
 10
68.156193
 20
-71.209613
 11
-25.57714
 21
-71.209613
  0
LINE
  8
別途部材
  6
CONTINUOUS
 62
    96
 10
67.756192
 20
-70.209613
 11
-25.57714
 21
-70.209613
  0
LINE
  8
別途部材
  6
CONTINUOUS
 10
-25.07714
 20
-63.87628
 11
-24.07714
 21
-64.87628
  0
LINE
  8
別途部材
  6
CONTINUOUS
 10
-23.07714
 20
-64.87628
 11
-22.07714
 21
-63.87628
  0
LINE
  8
別途部材
  6
CONTINUOUS
 10
-21.07714
 20
-63.87628
 11
-20.07714
 21
-64.87628
  0
LINE
  8
別途部材
  6
CONTINUOUS
 10
-22.07714
 20
-63.87628
 11
-21.07714
 21
-63.87628
  0
LINE
  8
別途部材
  6
CONTINUOUS
 10
-25.07714
 20
-63.87628
 11
-25.57714
 21
-63.87628
  0
LINE
  8
別途部材
  6
CONTINUOUS
 10
-19.07714
 20
-64.87628
 11
-18.07714
 21
-63.87628
  0
LINE
  8
別途部材
  6
CONTINUOUS
 10
-17.07714
 20
-63.87628
 11
-16.07714
 21
-64.87628
  0
LINE
  8
別途部材
  6
CONTINUOUS
 10
-18.07714
 20
-63.87628
 11
-17.07714
 21
-63.87628
  0
LINE
  8
別途部材
  6
CONTINUOUS
 10
-15.07714
 20
-64.87628
 11
-14.07714
 21
-63.87628
  0
LINE
  8
別途部材
  6
CONTINUOUS
 10
-13.07714
 20
-63.87628
 11
-12.07714
 21
-64.87628
  0
LINE
  8
別途部材
  6
CONTINUOUS
 10
-14.07714
 20
-63.87628
 11
-13.07714
 21
-63.87628
  0
LINE
  8
別途部材
  6
CONTINUOUS
 10
-11.07714
 20
-64.87628
 11
-10.07714
 21
-63.87628
  0
LINE
  8
別途部材
  6
CONTINUOUS
 10
-9.07714
 20
-63.87628
 11
-8.07714
 21
-64.87628
  0
LINE
  8
別途部材
  6
CONTINUOUS
 10
-10.07714
 20
-63.87628
 11
-9.07714
 21
-63.87628
  0
LINE
  8
別途部材
  6
CONTINUOUS
 10
-7.07714
 20
-64.87628
 11
-6.07714
 21
-63.87628
  0
LINE
  8
別途部材
  6
CONTINUOUS
 10
-5.07714
 20
-63.87628
 11
-4.07714
 21
-64.87628
  0
LINE
  8
別途部材
  6
CONTINUOUS
 10
-6.07714
 20
-63.87628
 11
-5.07714
 21
-63.87628
  0
LINE
  8
別途部材
  6
CONTINUOUS
 10
-3.07714
 20
-64.87628
 11
-2.07714
 21
-63.87628
  0
LINE
  8
別途部材
  6
CONTINUOUS
 10
-1.07714
 20
-63.87628
 11
-0.07714
 21
-64.87628
  0
LINE
  8
別途部材
  6
CONTINUOUS
 10
-2.07714
 20
-63.87628
 11
-1.07714
 21
-63.87628
  0
LINE
  8
別途部材
  6
CONTINUOUS
 10
0.92286
 20
-64.87628
 11
1.92286
 21
-63.87628
  0
LINE
  8
別途部材
  6
CONTINUOUS
 10
2.92286
 20
-63.87628
 11
3.92286
 21
-64.87628
  0
LINE
  8
別途部材
  6
CONTINUOUS
 10
1.92286
 20
-63.87628
 11
2.92286
 21
-63.87628
  0
LINE
  8
別途部材
  6
CONTINUOUS
 10
4.92286
 20
-64.87628
 11
5.92286
 21
-63.87628
  0
LINE
  8
別途部材
  6
CONTINUOUS
 10
6.92286
 20
-63.87628
 11
7.92286
 21
-64.87628
  0
LINE
  8
別途部材
  6
CONTINUOUS
 10
5.92286
 20
-63.87628
 11
6.92286
 21
-63.87628
  0
LINE
  8
別途部材
  6
CONTINUOUS
 10
8.92286
 20
-64.87628
 11
9.92286
 21
-63.87628
  0
LINE
  8
別途部材
  6
CONTINUOUS
 10
10.92286
 20
-63.87628
 11
11.92286
 21
-64.87628
  0
LINE
  8
別途部材
  6
CONTINUOUS
 10
9.92286
 20
-63.87628
 11
10.92286
 21
-63.87628
  0
LINE
  8
別途部材
  6
CONTINUOUS
 10
12.92286
 20
-64.87628
 11
13.92286
 21
-63.87628
  0
LINE
  8
別途部材
  6
CONTINUOUS
 10
14.92286
 20
-63.87628
 11
15.92286
 21
-64.87628
  0
LINE
  8
別途部材
  6
CONTINUOUS
 10
13.92286
 20
-63.87628
 11
14.92286
 21
-63.87628
  0
LINE
  8
別途部材
  6
CONTINUOUS
 10
16.92286
 20
-64.87628
 11
17.92286
 21
-63.87628
  0
LINE
  8
別途部材
  6
CONTINUOUS
 10
18.92286
 20
-63.87628
 11
19.92286
 21
-64.87628
  0
LINE
  8
別途部材
  6
CONTINUOUS
 10
17.92286
 20
-63.87628
 11
18.92286
 21
-63.87628
  0
LINE
  8
別途部材
  6
CONTINUOUS
 10
15.92286
 20
-64.87628
 11
16.92286
 21
-64.87628
  0
LINE
  8
別途部材
  6
CONTINUOUS
 10
11.92286
 20
-64.87628
 11
12.92286
 21
-64.87628
  0
LINE
  8
別途部材
  6
CONTINUOUS
 10
7.92286
 20
-64.87628
 11
8.92286
 21
-64.87628
  0
LINE
  8
別途部材
  6
CONTINUOUS
 10
3.92286
 20
-64.87628
 11
4.92286
 21
-64.87628
  0
LINE
  8
別途部材
  6
CONTINUOUS
 10
-0.07714
 20
-64.87628
 11
0.92286
 21
-64.87628
  0
LINE
  8
別途部材
  6
CONTINUOUS
 10
-4.07714
 20
-64.87628
 11
-3.07714
 21
-64.87628
  0
LINE
  8
別途部材
  6
CONTINUOUS
 10
-8.07714
 20
-64.87628
 11
-7.07714
 21
-64.87628
  0
LINE
  8
別途部材
  6
CONTINUOUS
 10
-12.07714
 20
-64.87628
 11
-11.07714
 21
-64.87628
  0
LINE
  8
別途部材
  6
CONTINUOUS
 10
-16.07714
 20
-64.87628
 11
-15.07714
 21
-64.87628
  0
LINE
  8
別途部材
  6
CONTINUOUS
 10
-20.07714
 20
-64.87628
 11
-19.07714
 21
-64.87628
  0
LINE
  8
別途部材
  6
CONTINUOUS
 10
-23.07714
 20
-64.87628
 11
-24.07714
 21
-64.87628
  0
LINE
  8
別途部材
  6
CONTINUOUS
 10
20.92286
 20
-64.87628
 11
21.92286
 21
-63.87628
  0
LINE
  8
別途部材
  6
CONTINUOUS
 10
22.92286
 20
-63.87628
 11
23.92286
 21
-64.87628
  0
LINE
  8
別途部材
  6
CONTINUOUS
 10
21.92286
 20
-63.87628
 11
22.92286
 21
-63.87628
  0
LINE
  8
別途部材
  6
CONTINUOUS
 10
24.92286
 20
-64.87628
 11
25.92286
 21
-63.87628
  0
LINE
  8
別途部材
  6
CONTINUOUS
 10
26.92286
 20
-63.87628
 11
27.92286
 21
-64.87628
  0
LINE
  8
別途部材
  6
CONTINUOUS
 10
25.92286
 20
-63.87628
 11
26.92286
 21
-63.87628
  0
LINE
  8
別途部材
  6
CONTINUOUS
 10
28.92286
 20
-64.87628
 11
29.92286
 21
-63.87628
  0
LINE
  8
別途部材
  6
CONTINUOUS
 10
30.92286
 20
-63.87628
 11
31.92286
 21
-64.87628
  0
LINE
  8
別途部材
  6
CONTINUOUS
 10
29.92286
 20
-63.87628
 11
30.92286
 21
-63.87628
  0
LINE
  8
別途部材
  6
CONTINUOUS
 10
32.92286
 20
-64.87628
 11
33.92286
 21
-63.87628
  0
LINE
  8
別途部材
  6
CONTINUOUS
 10
34.92286
 20
-63.87628
 11
35.92286
 21
-64.87628
  0
LINE
  8
別途部材
  6
CONTINUOUS
 10
33.92286
 20
-63.87628
 11
34.92286
 21
-63.87628
  0
LINE
  8
別途部材
  6
CONTINUOUS
 10
36.92286
 20
-64.87628
 11
37.92286
 21
-63.87628
  0
LINE
  8
別途部材
  6
CONTINUOUS
 10
38.92286
 20
-63.87628
 11
39.92286
 21
-64.87628
  0
LINE
  8
別途部材
  6
CONTINUOUS
 10
37.92286
 20
-63.87628
 11
38.92286
 21
-63.87628
  0
LINE
  8
別途部材
  6
CONTINUOUS
 10
40.92286
 20
-64.87628
 11
41.92286
 21
-63.87628
  0
LINE
  8
別途部材
  6
CONTINUOUS
 10
42.92286
 20
-63.87628
 11
43.92286
 21
-64.87628
  0
LINE
  8
別途部材
  6
CONTINUOUS
 10
41.92286
 20
-63.87628
 11
42.92286
 21
-63.87628
  0
LINE
  8
別途部材
  6
CONTINUOUS
 10
44.92286
 20
-64.87628
 11
45.92286
 21
-63.87628
  0
LINE
  8
別途部材
  6
CONTINUOUS
 10
46.92286
 20
-63.87628
 11
47.92286
 21
-64.87628
  0
LINE
  8
別途部材
  6
CONTINUOUS
 10
45.92286
 20
-63.87628
 11
46.92286
 21
-63.87628
  0
LINE
  8
別途部材
  6
CONTINUOUS
 10
48.92286
 20
-64.87628
 11
49.92286
 21
-63.87628
  0
LINE
  8
別途部材
  6
CONTINUOUS
 10
50.92286
 20
-63.87628
 11
51.92286
 21
-64.87628
  0
LINE
  8
別途部材
  6
CONTINUOUS
 10
49.92286
 20
-63.87628
 11
50.92286
 21
-63.87628
  0
LINE
  8
別途部材
  6
CONTINUOUS
 10
47.92286
 20
-64.87628
 11
48.92286
 21
-64.87628
  0
LINE
  8
別途部材
  6
CONTINUOUS
 10
43.92286
 20
-64.87628
 11
44.92286
 21
-64.87628
  0
LINE
  8
別途部材
  6
CONTINUOUS
 10
39.92286
 20
-64.87628
 11
40.92286
 21
-64.87628
  0
LINE
  8
別途部材
  6
CONTINUOUS
 10
35.92286
 20
-64.87628
 11
36.92286
 21
-64.87628
  0
LINE
  8
別途部材
  6
CONTINUOUS
 10
31.92286
 20
-64.87628
 11
32.92286
 21
-64.87628
  0
LINE
  8
別途部材
  6
CONTINUOUS
 10
27.92286
 20
-64.87628
 11
28.92286
 21
-64.87628
  0
LINE
  8
別途部材
  6
CONTINUOUS
 10
23.92286
 20
-64.87628
 11
24.92286
 21
-64.87628
  0
LINE
  8
別途部材
  6
CONTINUOUS
 10
19.92286
 20
-64.87628
 11
20.92286
 21
-64.87628
  0
LINE
  8
別途部材
  6
CONTINUOUS
 10
52.92286
 20
-64.87628
 11
53.92286
 21
-63.87628
  0
LINE
  8
別途部材
  6
CONTINUOUS
 10
54.92286
 20
-63.87628
 11
55.92286
 21
-64.87628
  0
LINE
  8
別途部材
  6
CONTINUOUS
 10
53.92286
 20
-63.87628
 11
54.92286
 21
-63.87628
  0
LINE
  8
別途部材
  6
CONTINUOUS
 10
51.92286
 20
-64.87628
 11
52.92286
 21
-64.87628
  0
LINE
  8
別途部材
  6
CONTINUOUS
 10
55.92286
 20
-64.87628
 11
55.92286
 21
-70.209613
  0
LINE
  8
別途部材
  6
CONTINUOUS
 10
54.92286
 20
-63.87628
 11
54.92286
 21
-70.209613
  0
LINE
  8
別途部材
  6
CONTINUOUS
 10
53.92286
 20
-63.87628
 11
53.92286
 21
-70.209613
  0
LINE
  8
別途部材
  6
CONTINUOUS
 10
51.92286
 20
-64.87628
 11
51.92286
 21
-70.209613
  0
LINE
  8
別途部材
  6
CONTINUOUS
 10
49.92286
 20
-63.87628
 11
49.92286
 21
-70.209613
  0
LINE
  8
別途部材
  6
CONTINUOUS
 10
48.92286
 20
-64.87628
 11
48.92286
 21
-70.209613
  0
LINE
  8
別途部材
  6
CONTINUOUS
 10
50.92286
 20
-63.87628
 11
50.92286
 21
-70.209613
  0
LINE
  8
別途部材
  6
CONTINUOUS
 10
52.92286
 20
-64.87628
 11
52.92286
 21
-70.209613
  0
LINE
  8
別途部材
  6
CONTINUOUS
 10
47.92286
 20
-64.87628
 11
47.92286
 21
-70.209613
  0
LINE
  8
別途部材
  6
CONTINUOUS
 10
46.92286
 20
-63.87628
 11
46.92286
 21
-70.209613
  0
LINE
  8
別途部材
  6
CONTINUOUS
 10
44.92286
 20
-64.87628
 11
44.92286
 21
-70.209613
  0
LINE
  8
別途部材
  6
CONTINUOUS
 10
45.92286
 20
-63.87628
 11
45.92286
 21
-70.209613
  0
LINE
  8
別途部材
  6
CONTINUOUS
 10
42.92286
 20
-63.87628
 11
42.92286
 21
-70.209613
  0
LINE
  8
別途部材
  6
CONTINUOUS
 10
43.92286
 20
-64.87628
 11
43.92286
 21
-70.209613
  0
LINE
  8
別途部材
  6
CONTINUOUS
 10
41.92286
 20
-63.87628
 11
41.92286
 21
-70.209613
  0
LINE
  8
別途部材
  6
CONTINUOUS
 10
40.92286
 20
-64.87628
 11
40.92286
 21
-70.209613
  0
LINE
  8
別途部材
  6
CONTINUOUS
 10
38.92286
 20
-63.87628
 11
38.92286
 21
-70.209613
  0
LINE
  8
別途部材
  6
CONTINUOUS
 10
39.92286
 20
-64.87628
 11
39.92286
 21
-70.209613
  0
LINE
  8
別途部材
  6
CONTINUOUS
 10
36.92286
 20
-64.87628
 11
36.92286
 21
-70.209613
  0
LINE
  8
別途部材
  6
CONTINUOUS
 10
37.92286
 20
-63.87628
 11
37.92286
 21
-70.209613
  0
LINE
  8
別途部材
  6
CONTINUOUS
 10
35.92286
 20
-64.87628
 11
35.92286
 21
-70.209613
  0
LINE
  8
別途部材
  6
CONTINUOUS
 10
33.92286
 20
-63.87628
 11
33.92286
 21
-70.209613
  0
LINE
  8
別途部材
  6
CONTINUOUS
 10
34.92286
 20
-63.87628
 11
34.92286
 21
-70.209613
  0
LINE
  8
別途部材
  6
CONTINUOUS
 10
32.92286
 20
-64.87628
 11
32.92286
 21
-70.209613
  0
LINE
  8
別途部材
  6
CONTINUOUS
 10
31.92286
 20
-64.87628
 11
31.92286
 21
-70.209613
  0
LINE
  8
別途部材
  6
CONTINUOUS
 10
30.92286
 20
-63.87628
 11
30.92286
 21
-70.209613
  0
LINE
  8
別途部材
  6
CONTINUOUS
 10
29.92286
 20
-63.87628
 11
29.92286
 21
-70.209613
  0
LINE
  8
別途部材
  6
CONTINUOUS
 10
26.92286
 20
-63.87628
 11
26.92286
 21
-70.209613
  0
LINE
  8
別途部材
  6
CONTINUOUS
 10
24.92286
 20
-64.87628
 11
24.92286
 21
-70.209613
  0
LINE
  8
別途部材
  6
CONTINUOUS
 10
25.92286
 20
-63.87628
 11
25.92286
 21
-70.209613
  0
LINE
  8
別途部材
  6
CONTINUOUS
 10
27.92286
 20
-64.87628
 11
27.92286
 21
-70.209613
  0
LINE
  8
別途部材
  6
CONTINUOUS
 10
28.92286
 20
-64.87628
 11
28.92286
 21
-70.209613
  0
LINE
  8
別途部材
  6
CONTINUOUS
 10
23.92286
 20
-64.87628
 11
23.92286
 21
-70.209613
  0
LINE
  8
別途部材
  6
CONTINUOUS
 10
21.92286
 20
-63.87628
 11
21.92286
 21
-70.209613
  0
LINE
  8
別途部材
  6
CONTINUOUS
 10
22.92286
 20
-63.87628
 11
22.92286
 21
-70.209613
  0
LINE
  8
別途部材
  6
CONTINUOUS
 10
20.92286
 20
-64.87628
 11
20.92286
 21
-70.209613
  0
LINE
  8
別途部材
  6
CONTINUOUS
 10
18.92286
 20
-63.87628
 11
18.92286
 21
-70.209613
  0
LINE
  8
別途部材
  6
CONTINUOUS
 10
19.92286
 20
-64.87628
 11
19.92286
 21
-70.209613
  0
LINE
  8
別途部材
  6
CONTINUOUS
 10
17.92286
 20
-63.87628
 11
17.92286
 21
-70.209613
  0
LINE
  8
別途部材
  6
CONTINUOUS
 10
16.92286
 20
-64.87628
 11
16.92286
 21
-70.209613
  0
LINE
  8
別途部材
  6
CONTINUOUS
 10
14.92286
 20
-63.87628
 11
14.92286
 21
-70.209613
  0
LINE
  8
別途部材
  6
CONTINUOUS
 10
15.92286
 20
-64.87628
 11
15.92286
 21
-70.209613
  0
LINE
  8
別途部材
  6
CONTINUOUS
 10
11.92286
 20
-64.87628
 11
11.92286
 21
-70.209613
  0
LINE
  8
別途部材
  6
CONTINUOUS
 10
12.92286
 20
-64.87628
 11
12.92286
 21
-70.209613
  0
LINE
  8
別途部材
  6
CONTINUOUS
 10
13.92286
 20
-63.87628
 11
13.92286
 21
-70.209613
  0
LINE
  8
別途部材
  6
CONTINUOUS
 10
10.92286
 20
-63.87628
 11
10.92286
 21
-70.209613
  0
LINE
  8
別途部材
  6
CONTINUOUS
 10
9.92286
 20
-63.87628
 11
9.92286
 21
-70.209613
  0
LINE
  8
別途部材
  6
CONTINUOUS
 10
8.92286
 20
-64.87628
 11
8.92286
 21
-70.209613
  0
LINE
  8
別途部材
  6
CONTINUOUS
 10
6.92286
 20
-63.87628
 11
6.92286
 21
-70.209613
  0
LINE
  8
別途部材
  6
CONTINUOUS
 10
2.92286
 20
-63.87628
 11
2.92286
 21
-70.209613
  0
LINE
  8
別途部材
  6
CONTINUOUS
 10
3.92286
 20
-64.87628
 11
3.92286
 21
-70.209613
  0
LINE
  8
別途部材
  6
CONTINUOUS
 10
4.92286
 20
-64.87628
 11
4.92286
 21
-70.209613
  0
LINE
  8
別途部材
  6
CONTINUOUS
 10
5.92286
 20
-63.87628
 11
5.92286
 21
-70.209613
  0
LINE
  8
別途部材
  6
CONTINUOUS
 10
7.92286
 20
-64.87628
 11
7.92286
 21
-70.209613
  0
LINE
  8
別途部材
  6
CONTINUOUS
 10
0.92286
 20
-64.87628
 11
0.92286
 21
-70.209613
  0
LINE
  8
別途部材
  6
CONTINUOUS
 10
1.92286
 20
-63.87628
 11
1.92286
 21
-70.209613
  0
LINE
  8
別途部材
  6
CONTINUOUS
 10
-0.07714
 20
-64.87628
 11
-0.07714
 21
-70.209613
  0
LINE
  8
別途部材
  6
CONTINUOUS
 10
-1.07714
 20
-63.87628
 11
-1.07714
 21
-70.209613
  0
LINE
  8
別途部材
  6
CONTINUOUS
 10
-5.07714
 20
-63.87628
 11
-5.07714
 21
-70.209613
  0
LINE
  8
別途部材
  6
CONTINUOUS
 10
-6.07714
 20
-63.87628
 11
-6.07714
 21
-70.209613
  0
LINE
  8
別途部材
  6
CONTINUOUS
 10
-4.07714
 20
-64.87628
 11
-4.07714
 21
-70.209613
  0
LINE
  8
別途部材
  6
CONTINUOUS
 10
-3.07714
 20
-64.87628
 11
-3.07714
 21
-70.209613
  0
LINE
  8
別途部材
  6
CONTINUOUS
 10
-2.07714
 20
-63.87628
 11
-2.07714
 21
-70.209613
  0
LINE
  8
別途部材
  6
CONTINUOUS
 10
-7.07714
 20
-64.87628
 11
-7.07714
 21
-70.209613
  0
LINE
  8
別途部材
  6
CONTINUOUS
 10
-9.07714
 20
-63.87628
 11
-9.07714
 21
-70.209613
  0
LINE
  8
別途部材
  6
CONTINUOUS
 10
-10.07714
 20
-63.87628
 11
-10.07714
 21
-70.209613
  0
LINE
  8
別途部材
  6
CONTINUOUS
 10
-11.07714
 20
-64.87628
 11
-11.07714
 21
-70.209613
  0
LINE
  8
別途部材
  6
CONTINUOUS
 10
-12.07714
 20
-64.87628
 11
-12.07714
 21
-70.209613
  0
LINE
  8
別途部材
  6
CONTINUOUS
 10
-13.07714
 20
-63.87628
 11
-13.07714
 21
-70.209613
  0
LINE
  8
別途部材
  6
CONTINUOUS
 10
-8.07714
 20
-64.87628
 11
-8.07714
 21
-70.209613
  0
LINE
  8
別途部材
  6
CONTINUOUS
 10
-14.07714
 20
-63.87628
 11
-14.07714
 21
-70.209613
  0
LINE
  8
別途部材
  6
CONTINUOUS
 10
-15.07714
 20
-64.87628
 11
-15.07714
 21
-70.209613
  0
LINE
  8
別途部材
  6
CONTINUOUS
 10
-16.07714
 20
-64.87628
 11
-16.07714
 21
-70.209613
  0
LINE
  8
別途部材
  6
CONTINUOUS
 10
-18.07714
 20
-63.87628
 11
-18.07714
 21
-70.209613
  0
LINE
  8
別途部材
  6
CONTINUOUS
 10
-20.07714
 20
-64.87628
 11
-20.07714
 21
-70.209613
  0
LINE
  8
別途部材
  6
CONTINUOUS
 10
-21.07714
 20
-63.87628
 11
-21.07714
 21
-70.209613
  0
LINE
  8
別途部材
  6
CONTINUOUS
 10
-23.07714
 20
-64.87628
 11
-23.07714
 21
-70.209613
  0
LINE
  8
別途部材
  6
CONTINUOUS
 10
-24.07714
 20
-64.87628
 11
-24.07714
 21
-70.209613
  0
LINE
  8
別途部材
  6
CONTINUOUS
 10
-25.07714
 20
-63.87628
 11
-25.07714
 21
-70.209613
  0
LINE
  8
別途部材
  6
CONTINUOUS
 10
-22.07714
 20
-63.87628
 11
-22.07714
 21
-70.209613
  0
LINE
  8
別途部材
  6
CONTINUOUS
 10
-19.07714
 20
-64.87628
 11
-19.07714
 21
-70.209613
  0
LINE
  8
別途部材
  6
CONTINUOUS
 10
-17.07714
 20
-63.87628
 11
-17.07714
 21
-70.209613
  0
ENDBLK
  0
BLOCK
  2
*GRP_0013
 70
    65
 10
0.0
 20
0.0
  0
LINE
  8
補助線
  6
BYBLOCK
 62
    64
 10
-97.16935
 20
-75.132358
 11
-97.318275
 21
-75.207183
  0
LINE
  8
補助線
  6
BYBLOCK
 62
    64
 10
-97.281225
 20
-75.095305
 11
-97.2064
 21
-75.244232
  0
LINE
  8
補助線
  6
BYBLOCK
 62
    64
 10
-87.25087
 20
-70.149
 11
-87.399798
 21
-70.223825
  0
LINE
  8
補助線
  6
BYBLOCK
 62
    64
 10
-87.362748
 20
-70.111948
 11
-87.287922
 21
-70.260875
  0
LINE
  8
補助線
  6
BYBLOCK
 62
    64
 10
-77.48132
 20
-65.240467
 11
-77.332392
 21
-65.165643
  0
LINE
  8
補助線
  6
BYBLOCK
 62
    64
 10
-77.44427
 20
-65.12859
 11
-77.369445
 21
-65.277517
  0
LINE
  8
型材断面
  6
CONTINUOUS
 10
-97.91579
 20
-74.574792
 11
-98.138093
 21
-75.246045
  0
LINE
  8
型材断面
  6
CONTINUOUS
 10
-98.138093
 20
-75.246045
 11
-97.83879
 21
-75.84175
  0
LINE
  8
型材断面
  6
CONTINUOUS
 10
-97.83879
 20
-75.84175
 11
-97.167537
 21
-76.064052
  0
LINE
  8
型材断面
  6
CONTINUOUS
 10
-77.483133
 20
-64.308775
 11
-76.811877
 21
-64.531077
  0
LINE
  8
型材断面
  6
CONTINUOUS
 10
-76.811877
 20
-64.531077
 11
-76.512575
 21
-65.126782
  0
LINE
  8
型材断面
  6
CONTINUOUS
 10
-76.512575
 20
-65.126782
 11
-76.73488
 21
-65.798035
  0
LINE
  8
型材断面
  6
CONTINUOUS
 10
-97.91579
 20
-74.574792
 11
-77.483133
 21
-64.308775
  0
LINE
  8
型材断面
  6
CONTINUOUS
 10
-97.167537
 20
-76.064052
 11
-76.73488
 21
-65.798035
  0
CIRCLE
  8
ボルト／ビス
  6
CONTINUOUS
 10
-97.243812
 20
-75.16977
 40
0.250185
  0
CIRCLE
  8
ボルト／ビス
  6
CONTINUOUS
 10
-97.243812
 20
-75.16977
 40
0.301025
  0
LINE
  8
ボルト／ビス
  6
CONTINUOUS
 62
    64
 10
-97.493577
 20
-75.155267
 11
-97.356132
 21
-74.946217
  0
LINE
  8
ボルト／ビス
  6
CONTINUOUS
 62
    64
 10
-97.106368
 20
-74.96072
 11
-97.356132
 21
-74.946217
  0
LINE
  8
ボルト／ビス
  6
CONTINUOUS
 62
    64
 10
-97.381257
 20
-75.37882
 11
-97.131492
 21
-75.393322
  0
LINE
  8
ボルト／ビス
  6
CONTINUOUS
 62
    64
 10
-96.994048
 20
-75.184273
 11
-97.131492
 21
-75.393322
  0
LINE
  8
ボルト／ビス
  6
CONTINUOUS
 62
    64
 10
-97.493577
 20
-75.155267
 11
-97.381257
 21
-75.37882
  0
LINE
  8
ボルト／ビス
  6
CONTINUOUS
 62
    64
 10
-97.106368
 20
-74.96072
 11
-96.994048
 21
-75.184273
  0
CIRCLE
  8
ボルト／ビス
  6
CONTINUOUS
 62
    64
 10
-97.243812
 20
-75.16977
 40
0.216668
  0
CIRCLE
  8
ボルト／ビス
  6
CONTINUOUS
 10
-87.325335
 20
-70.186413
 40
0.250185
  0
CIRCLE
  8
ボルト／ビス
  6
CONTINUOUS
 10
-87.325335
 20
-70.186413
 40
0.301025
  0
LINE
  8
ボルト／ビス
  6
CONTINUOUS
 62
    64
 10
-87.5751
 20
-70.171908
 11
-87.437655
 21
-69.962857
  0
LINE
  8
ボルト／ビス
  6
CONTINUOUS
 62
    64
 10
-87.18789
 20
-69.97736
 11
-87.437655
 21
-69.962857
  0
LINE
  8
ボルト／ビス
  6
CONTINUOUS
 62
    64
 10
-87.46278
 20
-70.395463
 11
-87.213012
 21
-70.409968
  0
LINE
  8
ボルト／ビス
  6
CONTINUOUS
 62
    64
 10
-87.07557
 20
-70.200918
 11
-87.213012
 21
-70.409968
  0
LINE
  8
ボルト／ビス
  6
CONTINUOUS
 62
    64
 10
-87.5751
 20
-70.171908
 11
-87.46278
 21
-70.395463
  0
LINE
  8
ボルト／ビス
  6
CONTINUOUS
 62
    64
 10
-87.18789
 20
-69.97736
 11
-87.07557
 21
-70.200918
  0
CIRCLE
  8
ボルト／ビス
  6
CONTINUOUS
 62
    64
 10
-87.325335
 20
-70.186413
 40
0.216668
  0
CIRCLE
  8
ボルト／ビス
  6
CONTINUOUS
 10
-77.406858
 20
-65.203055
 40
0.250185
  0
CIRCLE
  8
ボルト／ビス
  6
CONTINUOUS
 10
-77.406858
 20
-65.203055
 40
0.301025
  0
LINE
  8
ボルト／ビス
  6
CONTINUOUS
 62
    64
 10
-77.269413
 20
-64.994005
 11
-77.519178
 21
-64.979503
  0
LINE
  8
ボルト／ビス
  6
CONTINUOUS
 62
    64
 10
-77.656622
 20
-65.188552
 11
-77.519178
 21
-64.979503
  0
LINE
  8
ボルト／ビス
  6
CONTINUOUS
 62
    64
 10
-77.157093
 20
-65.21756
 11
-77.294535
 21
-65.426607
  0
LINE
  8
ボルト／ビス
  6
CONTINUOUS
 62
    64
 10
-77.544302
 20
-65.412105
 11
-77.294535
 21
-65.426607
  0
LINE
  8
ボルト／ビス
  6
CONTINUOUS
 62
    64
 10
-77.269413
 20
-64.994005
 11
-77.157093
 21
-65.21756
  0
LINE
  8
ボルト／ビス
  6
CONTINUOUS
 62
    64
 10
-77.656622
 20
-65.188552
 11
-77.544302
 21
-65.412105
  0
CIRCLE
  8
ボルト／ビス
  6
CONTINUOUS
 62
    64
 10
-77.406858
 20
-65.203055
 40
0.216668
  0
ENDBLK
  0
BLOCK
  2
*GRP_0014
 70
    65
 10
0.0
 20
0.0
  0
LINE
  8
補助線
  6
BYBLOCK
 62
    64
 10
-77.48132
 20
-75.132358
 11
-77.332395
 21
-75.207183
  0
LINE
  8
補助線
  6
BYBLOCK
 62
    64
 10
-77.369445
 20
-75.095305
 11
-77.44427
 21
-75.244232
  0
LINE
  8
補助線
  6
BYBLOCK
 62
    64
 10
-87.3998
 20
-70.149
 11
-87.250872
 21
-70.223825
  0
LINE
  8
補助線
  6
BYBLOCK
 62
    64
 10
-87.287922
 20
-70.111948
 11
-87.362748
 21
-70.260875
  0
LINE
  8
補助線
  6
BYBLOCK
 62
    64
 10
-97.16935
 20
-65.240467
 11
-97.318278
 21
-65.165643
  0
LINE
  8
補助線
  6
BYBLOCK
 62
    64
 10
-97.2064
 20
-65.12859
 11
-97.281225
 21
-65.277517
  0
LINE
  8
型材断面
  6
CONTINUOUS
 10
-76.73488
 20
-74.574792
 11
-76.512578
 21
-75.246045
  0
LINE
  8
型材断面
  6
CONTINUOUS
 10
-76.512578
 20
-75.246045
 11
-76.81188
 21
-75.84175
  0
LINE
  8
型材断面
  6
CONTINUOUS
 10
-76.81188
 20
-75.84175
 11
-77.483133
 21
-76.064052
  0
LINE
  8
型材断面
  6
CONTINUOUS
 10
-97.167537
 20
-64.308775
 11
-97.838792
 21
-64.531077
  0
LINE
  8
型材断面
  6
CONTINUOUS
 10
-97.838792
 20
-64.531077
 11
-98.138095
 21
-65.126782
  0
LINE
  8
型材断面
  6
CONTINUOUS
 10
-98.138095
 20
-65.126782
 11
-97.91579
 21
-65.798035
  0
LINE
  8
型材断面
  6
CONTINUOUS
 10
-76.73488
 20
-74.574792
 11
-97.167537
 21
-64.308775
  0
LINE
  8
型材断面
  6
CONTINUOUS
 10
-77.483133
 20
-76.064052
 11
-97.91579
 21
-65.798035
  0
CIRCLE
  8
ボルト／ビス
  6
CONTINUOUS
 10
-77.406858
 20
-75.16977
 40
0.250185
  0
CIRCLE
  8
ボルト／ビス
  6
CONTINUOUS
 10
-77.406858
 20
-75.16977
 40
0.301025
  0
LINE
  8
ボルト／ビス
  6
CONTINUOUS
 62
    64
 10
-77.157093
 20
-75.155267
 11
-77.294538
 21
-74.946217
  0
LINE
  8
ボルト／ビス
  6
CONTINUOUS
 62
    64
 10
-77.544302
 20
-74.96072
 11
-77.294538
 21
-74.946217
  0
LINE
  8
ボルト／ビス
  6
CONTINUOUS
 62
    64
 10
-77.269413
 20
-75.37882
 11
-77.519178
 21
-75.393322
  0
LINE
  8
ボルト／ビス
  6
CONTINUOUS
 62
    64
 10
-77.656622
 20
-75.184273
 11
-77.519178
 21
-75.393322
  0
LINE
  8
ボルト／ビス
  6
CONTINUOUS
 62
    64
 10
-77.157093
 20
-75.155267
 11
-77.269413
 21
-75.37882
  0
LINE
  8
ボルト／ビス
  6
CONTINUOUS
 62
    64
 10
-77.544302
 20
-74.96072
 11
-77.656622
 21
-75.184273
  0
CIRCLE
  8
ボルト／ビス
  6
CONTINUOUS
 62
    64
 10
-77.406858
 20
-75.16977
 40
0.216668
  0
CIRCLE
  8
ボルト／ビス
  6
CONTINUOUS
 10
-87.325335
 20
-70.186413
 40
0.250185
  0
CIRCLE
  8
ボルト／ビス
  6
CONTINUOUS
 10
-87.325335
 20
-70.186413
 40
0.301025
  0
LINE
  8
ボルト／ビス
  6
CONTINUOUS
 62
    64
 10
-87.07557
 20
-70.171908
 11
-87.213015
 21
-69.962857
  0
LINE
  8
ボルト／ビス
  6
CONTINUOUS
 62
    64
 10
-87.46278
 20
-69.97736
 11
-87.213015
 21
-69.962857
  0
LINE
  8
ボルト／ビス
  6
CONTINUOUS
 62
    64
 10
-87.18789
 20
-70.395463
 11
-87.437658
 21
-70.409968
  0
LINE
  8
ボルト／ビス
  6
CONTINUOUS
 62
    64
 10
-87.5751
 20
-70.200918
 11
-87.437658
 21
-70.409968
  0
LINE
  8
ボルト／ビス
  6
CONTINUOUS
 62
    64
 10
-87.07557
 20
-70.171908
 11
-87.18789
 21
-70.395463
  0
LINE
  8
ボルト／ビス
  6
CONTINUOUS
 62
    64
 10
-87.46278
 20
-69.97736
 11
-87.5751
 21
-70.200918
  0
CIRCLE
  8
ボルト／ビス
  6
CONTINUOUS
 62
    64
 10
-87.325335
 20
-70.186413
 40
0.216668
  0
CIRCLE
  8
ボルト／ビス
  6
CONTINUOUS
 10
-97.243812
 20
-65.203055
 40
0.250185
  0
CIRCLE
  8
ボルト／ビス
  6
CONTINUOUS
 10
-97.243812
 20
-65.203055
 40
0.301025
  0
LINE
  8
ボルト／ビス
  6
CONTINUOUS
 62
    64
 10
-97.381257
 20
-64.994005
 11
-97.131492
 21
-64.979503
  0
LINE
  8
ボルト／ビス
  6
CONTINUOUS
 62
    64
 10
-96.994048
 20
-65.188552
 11
-97.131492
 21
-64.979503
  0
LINE
  8
ボルト／ビス
  6
CONTINUOUS
 62
    64
 10
-97.493577
 20
-65.21756
 11
-97.356135
 21
-65.426607
  0
LINE
  8
ボルト／ビス
  6
CONTINUOUS
 62
    64
 10
-97.106368
 20
-65.412105
 11
-97.356135
 21
-65.426607
  0
LINE
  8
ボルト／ビス
  6
CONTINUOUS
 62
    64
 10
-97.381257
 20
-64.994005
 11
-97.493577
 21
-65.21756
  0
LINE
  8
ボルト／ビス
  6
CONTINUOUS
 62
    64
 10
-96.994048
 20
-65.188552
 11
-97.106368
 21
-65.412105
  0
CIRCLE
  8
ボルト／ビス
  6
CONTINUOUS
 62
    64
 10
-97.243812
 20
-65.203055
 40
0.216668
  0
ENDBLK
  0
BLOCK
  2
*GRP_0015
 70
    65
 10
0.0
 20
0.0
  0
LINE
  8
補助線
  6
BYBLOCK
 62
    64
 10
46.015065
 20
-75.132358
 11
46.16399
 21
-75.207183
  0
LINE
  8
補助線
  6
BYBLOCK
 62
    64
 10
46.12694
 20
-75.095305
 11
46.052115
 21
-75.244232
  0
LINE
  8
補助線
  6
BYBLOCK
 62
    64
 10
36.096585
 20
-70.149
 11
36.245513
 21
-70.223825
  0
LINE
  8
補助線
  6
BYBLOCK
 62
    64
 10
36.208462
 20
-70.111948
 11
36.133638
 21
-70.260875
  0
LINE
  8
補助線
  6
BYBLOCK
 62
    64
 10
26.327035
 20
-65.240467
 11
26.178108
 21
-65.165643
  0
LINE
  8
補助線
  6
BYBLOCK
 62
    64
 10
26.289985
 20
-65.12859
 11
26.21516
 21
-65.277517
  0
LINE
  8
型材断面
  6
CONTINUOUS
 10
46.761505
 20
-74.574792
 11
46.983807
 21
-75.246045
  0
LINE
  8
型材断面
  6
CONTINUOUS
 10
46.983807
 20
-75.246045
 11
46.684505
 21
-75.84175
  0
LINE
  8
型材断面
  6
CONTINUOUS
 10
46.684505
 20
-75.84175
 11
46.013253
 21
-76.064052
  0
LINE
  8
型材断面
  6
CONTINUOUS
 10
26.328847
 20
-64.308775
 11
25.657592
 21
-64.531077
  0
LINE
  8
型材断面
  6
CONTINUOUS
 10
25.657592
 20
-64.531077
 11
25.35829
 21
-65.126782
  0
LINE
  8
型材断面
  6
CONTINUOUS
 10
25.35829
 20
-65.126782
 11
25.580595
 21
-65.798035
  0
LINE
  8
型材断面
  6
CONTINUOUS
 10
46.761505
 20
-74.574792
 11
26.328847
 21
-64.308775
  0
LINE
  8
型材断面
  6
CONTINUOUS
 10
46.013253
 20
-76.064052
 11
25.580595
 21
-65.798035
  0
CIRCLE
  8
ボルト／ビス
  6
CONTINUOUS
 10
46.089528
 20
-75.16977
 40
0.250185
  0
CIRCLE
  8
ボルト／ビス
  6
CONTINUOUS
 10
46.089528
 20
-75.16977
 40
0.301025
  0
LINE
  8
ボルト／ビス
  6
CONTINUOUS
 62
    64
 10
46.339293
 20
-75.155267
 11
46.201848
 21
-74.946217
  0
LINE
  8
ボルト／ビス
  6
CONTINUOUS
 62
    64
 10
45.952082
 20
-74.96072
 11
46.201848
 21
-74.946217
  0
LINE
  8
ボルト／ビス
  6
CONTINUOUS
 62
    64
 10
46.226973
 20
-75.37882
 11
45.977208
 21
-75.393322
  0
LINE
  8
ボルト／ビス
  6
CONTINUOUS
 62
    64
 10
45.839762
 20
-75.184273
 11
45.977208
 21
-75.393322
  0
LINE
  8
ボルト／ビス
  6
CONTINUOUS
 62
    64
 10
46.339293
 20
-75.155267
 11
46.226973
 21
-75.37882
  0
LINE
  8
ボルト／ビス
  6
CONTINUOUS
 62
    64
 10
45.952082
 20
-74.96072
 11
45.839762
 21
-75.184273
  0
CIRCLE
  8
ボルト／ビス
  6
CONTINUOUS
 62
    64
 10
46.089528
 20
-75.16977
 40
0.216668
  0
CIRCLE
  8
ボルト／ビス
  6
CONTINUOUS
 10
36.17105
 20
-70.186413
 40
0.250185
  0
CIRCLE
  8
ボルト／ビス
  6
CONTINUOUS
 10
36.17105
 20
-70.186413
 40
0.301025
  0
LINE
  8
ボルト／ビス
  6
CONTINUOUS
 62
    64
 10
36.420815
 20
-70.171908
 11
36.28337
 21
-69.962857
  0
LINE
  8
ボルト／ビス
  6
CONTINUOUS
 62
    64
 10
36.033605
 20
-69.97736
 11
36.28337
 21
-69.962857
  0
LINE
  8
ボルト／ビス
  6
CONTINUOUS
 62
    64
 10
36.308495
 20
-70.395463
 11
36.058727
 21
-70.409968
  0
LINE
  8
ボルト／ビス
  6
CONTINUOUS
 62
    64
 10
35.921285
 20
-70.200918
 11
36.058727
 21
-70.409968
  0
LINE
  8
ボルト／ビス
  6
CONTINUOUS
 62
    64
 10
36.420815
 20
-70.171908
 11
36.308495
 21
-70.395463
  0
LINE
  8
ボルト／ビス
  6
CONTINUOUS
 62
    64
 10
36.033605
 20
-69.97736
 11
35.921285
 21
-70.200918
  0
CIRCLE
  8
ボルト／ビス
  6
CONTINUOUS
 62
    64
 10
36.17105
 20
-70.186413
 40
0.216668
  0
CIRCLE
  8
ボルト／ビス
  6
CONTINUOUS
 10
26.252572
 20
-65.203055
 40
0.250185
  0
CIRCLE
  8
ボルト／ビス
  6
CONTINUOUS
 10
26.252572
 20
-65.203055
 40
0.301025
  0
LINE
  8
ボルト／ビス
  6
CONTINUOUS
 62
    64
 10
26.115128
 20
-64.994005
 11
26.364892
 21
-64.979503
  0
LINE
  8
ボルト／ビス
  6
CONTINUOUS
 62
    64
 10
26.502338
 20
-65.188552
 11
26.364892
 21
-64.979503
  0
LINE
  8
ボルト／ビス
  6
CONTINUOUS
 62
    64
 10
26.002808
 20
-65.21756
 11
26.14025
 21
-65.426607
  0
LINE
  8
ボルト／ビス
  6
CONTINUOUS
 62
    64
 10
26.390018
 20
-65.412105
 11
26.14025
 21
-65.426607
  0
LINE
  8
ボルト／ビス
  6
CONTINUOUS
 62
    64
 10
26.115128
 20
-64.994005
 11
26.002808
 21
-65.21756
  0
LINE
  8
ボルト／ビス
  6
CONTINUOUS
 62
    64
 10
26.502338
 20
-65.188552
 11
26.390018
 21
-65.412105
  0
CIRCLE
  8
ボルト／ビス
  6
CONTINUOUS
 62
    64
 10
26.252572
 20
-65.203055
 40
0.216668
  0
ENDBLK
  0
BLOCK
  2
*GRP_0016
 70
    65
 10
0.0
 20
0.0
  0
LINE
  8
補助線
  6
BYBLOCK
 62
    64
 10
26.327035
 20
-75.132358
 11
26.17811
 21
-75.207183
  0
LINE
  8
補助線
  6
BYBLOCK
 62
    64
 10
26.21516
 20
-75.095305
 11
26.289985
 21
-75.244232
  0
LINE
  8
補助線
  6
BYBLOCK
 62
    64
 10
36.245515
 20
-70.149
 11
36.096587
 21
-70.223825
  0
LINE
  8
補助線
  6
BYBLOCK
 62
    64
 10
36.133638
 20
-70.111948
 11
36.208462
 21
-70.260875
  0
LINE
  8
補助線
  6
BYBLOCK
 62
    64
 10
46.015065
 20
-65.240467
 11
46.163992
 21
-65.165643
  0
LINE
  8
補助線
  6
BYBLOCK
 62
    64
 10
46.052115
 20
-65.12859
 11
46.12694
 21
-65.277517
  0
LINE
  8
型材断面
  6
CONTINUOUS
 10
25.580595
 20
-74.574792
 11
25.358293
 21
-75.246045
  0
LINE
  8
型材断面
  6
CONTINUOUS
 10
25.358293
 20
-75.246045
 11
25.657595
 21
-75.84175
  0
LINE
  8
型材断面
  6
CONTINUOUS
 10
25.657595
 20
-75.84175
 11
26.328847
 21
-76.064052
  0
LINE
  8
型材断面
  6
CONTINUOUS
 10
46.013253
 20
-64.308775
 11
46.684507
 21
-64.531077
  0
LINE
  8
型材断面
  6
CONTINUOUS
 10
46.684507
 20
-64.531077
 11
46.98381
 21
-65.126782
  0
LINE
  8
型材断面
  6
CONTINUOUS
 10
46.98381
 20
-65.126782
 11
46.761505
 21
-65.798035
  0
LINE
  8
型材断面
  6
CONTINUOUS
 10
25.580595
 20
-74.574792
 11
46.013253
 21
-64.308775
  0
LINE
  8
型材断面
  6
CONTINUOUS
 10
26.328847
 20
-76.064052
 11
46.761505
 21
-65.798035
  0
CIRCLE
  8
ボルト／ビス
  6
CONTINUOUS
 10
26.252572
 20
-75.16977
 40
0.250185
  0
CIRCLE
  8
ボルト／ビス
  6
CONTINUOUS
 10
26.252572
 20
-75.16977
 40
0.301025
  0
LINE
  8
ボルト／ビス
  6
CONTINUOUS
 62
    64
 10
26.002808
 20
-75.155267
 11
26.140252
 21
-74.946217
  0
LINE
  8
ボルト／ビス
  6
CONTINUOUS
 62
    64
 10
26.390018
 20
-74.96072
 11
26.140252
 21
-74.946217
  0
LINE
  8
ボルト／ビス
  6
CONTINUOUS
 62
    64
 10
26.115128
 20
-75.37882
 11
26.364892
 21
-75.393322
  0
LINE
  8
ボルト／ビス
  6
CONTINUOUS
 62
    64
 10
26.502338
 20
-75.184273
 11
26.364892
 21
-75.393322
  0
LINE
  8
ボルト／ビス
  6
CONTINUOUS
 62
    64
 10
26.002808
 20
-75.155267
 11
26.115128
 21
-75.37882
  0
LINE
  8
ボルト／ビス
  6
CONTINUOUS
 62
    64
 10
26.390018
 20
-74.96072
 11
26.502338
 21
-75.184273
  0
CIRCLE
  8
ボルト／ビス
  6
CONTINUOUS
 62
    64
 10
26.252572
 20
-75.16977
 40
0.216668
  0
CIRCLE
  8
ボルト／ビス
  6
CONTINUOUS
 10
36.17105
 20
-70.186413
 40
0.250185
  0
CIRCLE
  8
ボルト／ビス
  6
CONTINUOUS
 10
36.17105
 20
-70.186413
 40
0.301025
  0
LINE
  8
ボルト／ビス
  6
CONTINUOUS
 62
    64
 10
35.921285
 20
-70.171908
 11
36.05873
 21
-69.962857
  0
LINE
  8
ボルト／ビス
  6
CONTINUOUS
 62
    64
 10
36.308495
 20
-69.97736
 11
36.05873
 21
-69.962857
  0
LINE
  8
ボルト／ビス
  6
CONTINUOUS
 62
    64
 10
36.033605
 20
-70.395463
 11
36.283373
 21
-70.409968
  0
LINE
  8
ボルト／ビス
  6
CONTINUOUS
 62
    64
 10
36.420815
 20
-70.200918
 11
36.283373
 21
-70.409968
  0
LINE
  8
ボルト／ビス
  6
CONTINUOUS
 62
    64
 10
35.921285
 20
-70.171908
 11
36.033605
 21
-70.395463
  0
LINE
  8
ボルト／ビス
  6
CONTINUOUS
 62
    64
 10
36.308495
 20
-69.97736
 11
36.420815
 21
-70.200918
  0
CIRCLE
  8
ボルト／ビス
  6
CONTINUOUS
 62
    64
 10
36.17105
 20
-70.186413
 40
0.216668
  0
CIRCLE
  8
ボルト／ビス
  6
CONTINUOUS
 10
46.089528
 20
-65.203055
 40
0.250185
  0
CIRCLE
  8
ボルト／ビス
  6
CONTINUOUS
 10
46.089528
 20
-65.203055
 40
0.301025
  0
LINE
  8
ボルト／ビス
  6
CONTINUOUS
 62
    64
 10
46.226973
 20
-64.994005
 11
45.977208
 21
-64.979503
  0
LINE
  8
ボルト／ビス
  6
CONTINUOUS
 62
    64
 10
45.839762
 20
-65.188552
 11
45.977208
 21
-64.979503
  0
LINE
  8
ボルト／ビス
  6
CONTINUOUS
 62
    64
 10
46.339293
 20
-65.21756
 11
46.20185
 21
-65.426607
  0
LINE
  8
ボルト／ビス
  6
CONTINUOUS
 62
    64
 10
45.952082
 20
-65.412105
 11
46.20185
 21
-65.426607
  0
LINE
  8
ボルト／ビス
  6
CONTINUOUS
 62
    64
 10
46.226973
 20
-64.994005
 11
46.339293
 21
-65.21756
  0
LINE
  8
ボルト／ビス
  6
CONTINUOUS
 62
    64
 10
45.839762
 20
-65.188552
 11
45.952082
 21
-65.412105
  0
CIRCLE
  8
ボルト／ビス
  6
CONTINUOUS
 62
    64
 10
46.089528
 20
-65.203055
 40
0.216668
  0
ENDBLK
  0
BLOCK
  2
*DIM_0017
 70
    65
 10
0.0
 20
0.0
  0
LINE
  8
寸法
  6
BYBLOCK
 62
     0
 10
153.999575
 20
44.797367
 11
100.109175
 21
44.797367
  0
LINE
  8
寸法
  6
BYBLOCK
 62
     0
 10
100.109175
 20
42.814033
 11
100.109175
 21
44.797367
  0
POINT
  8
寸法
 62
     0
 10
100.109175
 20
42.814033
  0
POINT
  8
寸法
 62
     0
 10
100.109175
 20
44.797367
  0
TEXT
  7
TextStyle03
  8
寸法
  6
CONTINUOUS
 62
     0
 10
99.7
 20
47.26875
  1
59.5
 40
3.0
 50
90.0
 72
     5
 11
99.7
 21
53.83125
  0
ENDBLK
  0
BLOCK
  2
*DIM_0018
 70
    65
 10
0.0
 20
0.0
  0
LINE
  8
寸法
  6
BYBLOCK
 62
     0
 10
153.999575
 20
20.8307
 11
100.109175
 21
20.8307
  0
LINE
  8
寸法
  6
BYBLOCK
 62
     0
 10
100.109175
 20
22.814033
 11
100.109175
 21
20.8307
  0
POINT
  8
寸法
 62
     0
 10
100.109175
 20
22.814033
  0
POINT
  8
寸法
 62
     0
 10
100.109175
 20
20.8307
  0
TEXT
  7
TextStyle03
  8
寸法
  6
CONTINUOUS
 62
     0
 10
99.7
 20
11.76875
  1
59.5
 40
3.0
 50
90.0
 72
     5
 11
99.7
 21
18.33125
  0
ENDBLK
  0
BLOCK
  2
*DIM_0019
 70
    65
 10
0.0
 20
0.0
  0
LINE
  8
寸法
  6
BYBLOCK
 62
     0
 10
155.62279
 20
47.4807
 11
155.62279
 21
60.666798
  0
LINE
  8
寸法
  6
BYBLOCK
 62
     0
 10
162.656293
 20
47.797367
 11
162.656293
 21
60.666798
  0
LINE
  8
寸法
  6
BYBLOCK
 62
     0
 10
155.62279
 20
60.666798
 11
162.656293
 21
60.666798
  0
POINT
  8
寸法
 62
     0
 10
155.62279
 20
60.666798
  0
POINT
  8
寸法
 62
     0
 10
162.656293
 20
60.666798
  0
TEXT
  7
TextStyle03
  8
寸法
  6
CONTINUOUS
 62
     0
 10
156.6625
 20
61.025
  1
211
 40
3.0
 72
     5
 11
161.5375
 21
61.025
  0
ENDBLK
  0
BLOCK
  2
*DIM_0020
 70
    65
 10
0.0
 20
0.0
  0
LINE
  8
寸法
  6
BYBLOCK
 62
     0
 10
70.756192
 20
-70.209613
 11
82.059175
 21
-70.209613
  0
LINE
  8
寸法
  6
BYBLOCK
 62
     0
 10
71.07286
 20
-77.243115
 11
82.059175
 21
-77.243115
  0
LINE
  8
寸法
  6
BYBLOCK
 62
     0
 10
82.059175
 20
-70.209613
 11
82.059175
 21
-77.243115
  0
POINT
  8
寸法
 62
     0
 10
82.059175
 20
-70.209613
  0
POINT
  8
寸法
 62
     0
 10
82.059175
 20
-77.243115
  0
TEXT
  7
TextStyle03
  8
寸法
  6
CONTINUOUS
 62
     0
 10
81.65
 20
-76.1875
  1
211
 40
3.0
 50
90.0
 72
     5
 11
81.65
 21
-71.3125
  0
ENDBLK
  0
BLOCK
  2
*DIM_0021
 70
    65
 10
0.0
 20
0.0
  0
LINE
  8
寸法
  6
BYBLOCK
 62
     0
 10
68.072857
 20
-68.586398
 11
68.072857
 21
-13.121378
  0
LINE
  8
寸法
  6
BYBLOCK
 62
     0
 10
66.089525
 20
-13.121378
 11
68.072857
 21
-13.121378
  0
POINT
  8
寸法
 62
     0
 10
66.089525
 20
-13.121378
  0
POINT
  8
寸法
 62
     0
 10
68.072857
 20
-13.121378
  0
TEXT
  7
TextStyle03
  8
寸法
  6
CONTINUOUS
 62
     0
 10
70.54375
 20
-12.75
  1
59.5
 40
3.0
 72
     5
 11
77.10625
 21
-12.75
  0
ENDBLK
  0
BLOCK
  2
*DIM_0022
 70
    65
 10
0.0
 20
0.0
  0
LINE
  8
寸法
  6
BYBLOCK
 62
     0
 10
-119.227142
 20
-68.586398
 11
-119.227142
 21
-13.121378
  0
LINE
  8
寸法
  6
BYBLOCK
 62
     0
 10
-117.243808
 20
-13.121378
 11
-119.227142
 21
-13.121378
  0
POINT
  8
寸法
 62
     0
 10
-117.243808
 20
-13.121378
  0
POINT
  8
寸法
 62
     0
 10
-119.227142
 20
-13.121378
  0
TEXT
  7
TextStyle03
  8
寸法
  6
CONTINUOUS
 62
     0
 10
-128.28125
 20
-12.75
  1
59.5
 40
3.0
 72
     5
 11
-121.71875
 21
-12.75
  0
ENDBLK
  0
BLOCK
  2
*DIM_0023
 70
    65
 10
0.0
 20
0.0
  0
LINE
  8
寸法
  6
BYBLOCK
 62
     0
 10
-120.243808
 20
39.4807
 11
-133.536645
 21
39.4807
  0
LINE
  8
寸法
  6
BYBLOCK
 62
     0
 10
-120.243808
 20
26.147365
 11
-133.536645
 21
26.147365
  0
LINE
  8
寸法
  6
BYBLOCK
 62
     0
 10
-133.536645
 20
39.4807
 11
-133.536645
 21
26.147365
  0
POINT
  8
寸法
 62
     0
 10
-133.536645
 20
39.4807
  0
POINT
  8
寸法
 62
     0
 10
-133.536645
 20
26.147365
  0
TEXT
  7
TextStyle03
  8
寸法
  6
CONTINUOUS
 62
     0
 10
-133.925
 20
30.3625
  1
400
 40
3.0
 50
90.0
 72
     5
 11
-133.925
 21
35.2375
  0
ENDBLK
  0
BLOCK
  2
*DIM_0024
 70
    65
 10
0.0
 20
0.0
  0
LINE
  8
寸法
  6
BYBLOCK
 62
     0
 10
-105.577142
 20
45.814033
 11
-105.577142
 21
74.922105
  0
LINE
  8
寸法
  6
BYBLOCK
 62
     0
 10
-78.910475
 20
45.814033
 11
-78.910475
 21
74.922105
  0
LINE
  8
寸法
  6
BYBLOCK
 62
     0
 10
-105.577142
 20
74.922105
 11
-78.910475
 21
74.922105
  0
POINT
  8
寸法
 62
     0
 10
-105.577142
 20
74.922105
  0
POINT
  8
寸法
 62
     0
 10
-78.910475
 20
74.922105
  0
TEXT
  7
TextStyle03
  8
寸法
  6
CONTINUOUS
 62
     0
 10
-94.6875
 20
75.3
  1
800
 40
3.0
 72
     5
 11
-89.8125
 21
75.3
  0
ENDBLK
  0
BLOCK
  2
*DIM_0025
 70
    65
 10
0.0
 20
0.0
  0
LINE
  8
寸法
  6
BYBLOCK
 62
     0
 10
-52.24381
 20
45.814033
 11
-52.24381
 21
74.922105
  0
LINE
  8
寸法
  6
BYBLOCK
 62
     0
 10
-78.910475
 20
74.922105
 11
-52.24381
 21
74.922105
  0
POINT
  8
寸法
 62
     0
 10
-52.24381
 20
74.922105
  0
TEXT
  7
TextStyle03
  8
寸法
  6
CONTINUOUS
 62
     0
 10
-68.0125
 20
75.3
  1
800
 40
3.0
 72
     5
 11
-63.1375
 21
75.3
  0
ENDBLK
  0
BLOCK
  2
*DIM_0026
 70
    65
 10
0.0
 20
0.0
  0
LINE
  8
寸法
  6
BYBLOCK
 62
     0
 10
-25.577142
 20
45.814033
 11
-25.577142
 21
74.922105
  0
LINE
  8
寸法
  6
BYBLOCK
 62
     0
 10
-52.24381
 20
74.922105
 11
-25.577142
 21
74.922105
  0
POINT
  8
寸法
 62
     0
 10
-25.577142
 20
74.922105
  0
TEXT
  7
TextStyle03
  8
寸法
  6
CONTINUOUS
 62
     0
 10
-41.3375
 20
75.3
  1
800
 40
3.0
 72
     5
 11
-36.4625
 21
75.3
  0
ENDBLK
  0
BLOCK
  2
*DIM_0027
 70
    65
 10
0.0
 20
0.0
  0
LINE
  8
寸法
  6
BYBLOCK
 62
     0
 10
1.089525
 20
45.814033
 11
1.089525
 21
74.922105
  0
LINE
  8
寸法
  6
BYBLOCK
 62
     0
 10
-25.577142
 20
74.922105
 11
1.089525
 21
74.922105
  0
POINT
  8
寸法
 62
     0
 10
1.089525
 20
74.922105
  0
TEXT
  7
TextStyle03
  8
寸法
  6
CONTINUOUS
 62
     0
 10
-14.6875
 20
75.3
  1
800
 40
3.0
 72
     5
 11
-9.8125
 21
75.3
  0
ENDBLK
  0
BLOCK
  2
*DIM_0028
 70
    65
 10
0.0
 20
0.0
  0
LINE
  8
寸法
  6
BYBLOCK
 62
     0
 10
27.75619
 20
45.814033
 11
27.75619
 21
74.922105
  0
LINE
  8
寸法
  6
BYBLOCK
 62
     0
 10
1.089525
 20
74.922105
 11
27.75619
 21
74.922105
  0
POINT
  8
寸法
 62
     0
 10
27.75619
 20
74.922105
  0
TEXT
  7
TextStyle03
  8
寸法
  6
CONTINUOUS
 62
     0
 10
11.9875
 20
75.3
  1
800
 40
3.0
 72
     5
 11
16.8625
 21
75.3
  0
ENDBLK
  0
BLOCK
  2
*DIM_0029
 70
    65
 10
0.0
 20
0.0
  0
LINE
  8
寸法
  6
BYBLOCK
 62
     0
 10
54.422857
 20
45.814033
 11
54.422857
 21
74.922105
  0
LINE
  8
寸法
  6
BYBLOCK
 62
     0
 10
27.75619
 20
74.922105
 11
54.422857
 21
74.922105
  0
POINT
  8
寸法
 62
     0
 10
54.422857
 20
74.922105
  0
TEXT
  7
TextStyle03
  8
寸法
  6
CONTINUOUS
 62
     0
 10
38.6625
 20
75.3
  1
800
 40
3.0
 72
     5
 11
43.5375
 21
75.3
  0
ENDBLK
  0
BLOCK
  2
*GRP_0031
 70
    65
 10
0.0
 20
0.0
  0
LINE
  8
ボルト／ビス
  6
CONTINUOUS
 10
155.62279
 20
22.147365
 11
155.156125
 21
22.147365
  0
LINE
  8
ボルト／ビス
  6
CONTINUOUS
 10
155.62279
 20
21.780697
 11
155.556125
 21
21.780697
  0
LINE
  8
ボルト／ビス
  6
CONTINUOUS
 10
155.556125
 20
21.780697
 11
155.556125
 21
22.51403
  0
LINE
  8
ボルト／ビス
  6
CONTINUOUS
 10
155.556125
 20
22.51403
 11
155.62279
 21
22.51403
  0
LINE
  8
ボルト／ビス
  6
CONTINUOUS
 10
155.62279
 20
21.780697
 11
155.62279
 21
22.51403
  0
LINE
  8
ボルト／ビス
  6
CONTINUOUS
 10
155.52279
 20
21.847365
 11
155.556125
 21
21.847365
  0
LINE
  8
ボルト／ビス
  6
CONTINUOUS
 10
155.52279
 20
21.847365
 11
155.52279
 21
22.447365
  0
LINE
  8
ボルト／ビス
  6
CONTINUOUS
 10
155.52279
 20
22.447365
 11
155.556125
 21
22.447365
  0
LINE
  8
ボルト／ビス
  6
CONTINUOUS
 62
    64
 10
155.32279
 20
21.98699
 11
155.334465
 21
21.954915
  0
ARC
  8
ボルト／ビス
  6
CONTINUOUS
 62
    64
 10
155.427771
 20
22.003029
 40
0.104978
 50
152.721967
 51
180.0
  0
ARC
  8
ボルト／ビス
  6
CONTINUOUS
 62
    64
 10
155.725195
 20
22.147366
 40
0.402402
 50
166.165002
 51
193.834985
  0
LINE
  8
ボルト／ビス
  6
CONTINUOUS
 62
    64
 10
155.32279
 20
22.30774
 11
155.334465
 21
22.339815
  0
ARC
  8
ボルト／ビス
  6
CONTINUOUS
 62
    64
 10
155.427771
 20
22.291704
 40
0.104978
 50
180.0
 51
207.278033
  0
LINE
  8
ボルト／ビス
  6
CONTINUOUS
 62
    64
 10
155.32279
 20
21.98699
 11
155.32279
 21
22.30774
  0
LINE
  8
ボルト／ビス
  6
CONTINUOUS
 62
    64
 10
155.334465
 20
22.339815
 11
155.456125
 21
22.339815
  0
LINE
  8
ボルト／ビス
  6
CONTINUOUS
 62
    64
 10
155.334465
 20
22.24359
 11
155.456125
 21
22.24359
  0
LINE
  8
ボルト／ビス
  6
CONTINUOUS
 62
    64
 10
155.334465
 20
21.954915
 11
155.456125
 21
21.954915
  0
LINE
  8
ボルト／ビス
  6
CONTINUOUS
 62
    64
 10
155.334465
 20
22.05114
 11
155.456125
 21
22.05114
  0
LINE
  8
ボルト／ビス
  6
CONTINUOUS
 10
155.456125
 20
21.954915
 11
155.456125
 21
22.339815
  0
LINE
  8
ボルト／ビス
  6
CONTINUOUS
 10
155.456125
 20
21.947365
 11
155.52279
 21
21.947365
  0
LINE
  8
ボルト／ビス
  6
CONTINUOUS
 10
155.456125
 20
21.947365
 11
155.456125
 21
22.347365
  0
LINE
  8
ボルト／ビス
  6
CONTINUOUS
 10
155.456125
 20
22.347365
 11
155.52279
 21
22.347365
  0
ENDBLK
  0
BLOCK
  2
*GRP_0032
 70
    65
 10
0.0
 20
0.0
  0
LINE
  8
ボルト／ビス
  6
CONTINUOUS
 10
155.62279
 20
43.4807
 11
155.156125
 21
43.4807
  0
LINE
  8
ボルト／ビス
  6
CONTINUOUS
 10
155.62279
 20
43.114033
 11
155.556125
 21
43.114033
  0
LINE
  8
ボルト／ビス
  6
CONTINUOUS
 10
155.556125
 20
43.114033
 11
155.556125
 21
43.847365
  0
LINE
  8
ボルト／ビス
  6
CONTINUOUS
 10
155.556125
 20
43.847365
 11
155.62279
 21
43.847365
  0
LINE
  8
ボルト／ビス
  6
CONTINUOUS
 10
155.62279
 20
43.114033
 11
155.62279
 21
43.847365
  0
LINE
  8
ボルト／ビス
  6
CONTINUOUS
 10
155.52279
 20
43.1807
 11
155.556125
 21
43.1807
  0
LINE
  8
ボルト／ビス
  6
CONTINUOUS
 10
155.52279
 20
43.1807
 11
155.52279
 21
43.7807
  0
LINE
  8
ボルト／ビス
  6
CONTINUOUS
 10
155.52279
 20
43.7807
 11
155.556125
 21
43.7807
  0
LINE
  8
ボルト／ビス
  6
CONTINUOUS
 62
    64
 10
155.32279
 20
43.320325
 11
155.334465
 21
43.28825
  0
ARC
  8
ボルト／ビス
  6
CONTINUOUS
 62
    64
 10
155.427771
 20
43.336364
 40
0.104978
 50
152.721967
 51
180.0
  0
ARC
  8
ボルト／ビス
  6
CONTINUOUS
 62
    64
 10
155.725195
 20
43.480701
 40
0.402402
 50
166.165002
 51
193.834985
  0
LINE
  8
ボルト／ビス
  6
CONTINUOUS
 62
    64
 10
155.32279
 20
43.641075
 11
155.334465
 21
43.67315
  0
ARC
  8
ボルト／ビス
  6
CONTINUOUS
 62
    64
 10
155.427771
 20
43.625039
 40
0.104978
 50
180.0
 51
207.278033
  0
LINE
  8
ボルト／ビス
  6
CONTINUOUS
 62
    64
 10
155.32279
 20
43.320325
 11
155.32279
 21
43.641075
  0
LINE
  8
ボルト／ビス
  6
CONTINUOUS
 62
    64
 10
155.334465
 20
43.67315
 11
155.456125
 21
43.67315
  0
LINE
  8
ボルト／ビス
  6
CONTINUOUS
 62
    64
 10
155.334465
 20
43.576925
 11
155.456125
 21
43.576925
  0
LINE
  8
ボルト／ビス
  6
CONTINUOUS
 62
    64
 10
155.334465
 20
43.28825
 11
155.456125
 21
43.28825
  0
LINE
  8
ボルト／ビス
  6
CONTINUOUS
 62
    64
 10
155.334465
 20
43.384475
 11
155.456125
 21
43.384475
  0
LINE
  8
ボルト／ビス
  6
CONTINUOUS
 10
155.456125
 20
43.28825
 11
155.456125
 21
43.67315
  0
LINE
  8
ボルト／ビス
  6
CONTINUOUS
 10
155.456125
 20
43.2807
 11
155.52279
 21
43.2807
  0
LINE
  8
ボルト／ビス
  6
CONTINUOUS
 10
155.456125
 20
43.2807
 11
155.456125
 21
43.6807
  0
LINE
  8
ボルト／ビス
  6
CONTINUOUS
 10
155.456125
 20
43.6807
 11
155.52279
 21
43.6807
  0
ENDBLK
  0
BLOCK
  2
*GRP_0033
 70
    65
 10
0.0
 20
0.0
  0
LINE
  8
ボルト／ビス
  6
CONTINUOUS
 10
66.756192
 20
-70.209613
 11
66.756192
 21
-69.742947
  0
LINE
  8
ボルト／ビス
  6
CONTINUOUS
 10
67.12286
 20
-70.209613
 11
67.12286
 21
-70.142947
  0
LINE
  8
ボルト／ビス
  6
CONTINUOUS
 10
67.12286
 20
-70.142947
 11
66.389528
 21
-70.142947
  0
LINE
  8
ボルト／ビス
  6
CONTINUOUS
 10
66.389528
 20
-70.142947
 11
66.389528
 21
-70.209613
  0
LINE
  8
ボルト／ビス
  6
CONTINUOUS
 10
67.12286
 20
-70.209613
 11
66.389528
 21
-70.209613
  0
LINE
  8
ボルト／ビス
  6
CONTINUOUS
 10
67.056192
 20
-70.109612
 11
67.056192
 21
-70.142947
  0
LINE
  8
ボルト／ビス
  6
CONTINUOUS
 10
67.056192
 20
-70.109612
 11
66.456193
 21
-70.109612
  0
LINE
  8
ボルト／ビス
  6
CONTINUOUS
 10
66.456193
 20
-70.109612
 11
66.456193
 21
-70.142947
  0
LINE
  8
ボルト／ビス
  6
CONTINUOUS
 62
    64
 10
66.916568
 20
-69.909613
 11
66.948642
 21
-69.921288
  0
ARC
  8
ボルト／ビス
  6
CONTINUOUS
 62
    64
 10
66.900531
 20
-70.014594
 40
0.104978
 50
90.0
 51
117.278033
  0
ARC
  8
ボルト／ビス
  6
CONTINUOUS
 62
    64
 10
66.756194
 20
-70.312018
 40
0.402402
 50
76.165015
 51
103.834998
  0
LINE
  8
ボルト／ビス
  6
CONTINUOUS
 62
    64
 10
66.595817
 20
-69.909613
 11
66.563743
 21
-69.921288
  0
ARC
  8
ボルト／ビス
  6
CONTINUOUS
 62
    64
 10
66.611856
 20
-70.014594
 40
0.104978
 50
62.721967
 51
90.0
  0
LINE
  8
ボルト／ビス
  6
CONTINUOUS
 62
    64
 10
66.916568
 20
-69.909613
 11
66.595817
 21
-69.909613
  0
LINE
  8
ボルト／ビス
  6
CONTINUOUS
 62
    64
 10
66.563743
 20
-69.921288
 11
66.563743
 21
-70.042947
  0
LINE
  8
ボルト／ビス
  6
CONTINUOUS
 62
    64
 10
66.659967
 20
-69.921288
 11
66.659967
 21
-70.042947
  0
LINE
  8
ボルト／ビス
  6
CONTINUOUS
 62
    64
 10
66.948642
 20
-69.921288
 11
66.948642
 21
-70.042947
  0
LINE
  8
ボルト／ビス
  6
CONTINUOUS
 62
    64
 10
66.852418
 20
-69.921288
 11
66.852418
 21
-70.042947
  0
LINE
  8
ボルト／ビス
  6
CONTINUOUS
 10
66.948642
 20
-70.042947
 11
66.563743
 21
-70.042947
  0
LINE
  8
ボルト／ビス
  6
CONTINUOUS
 10
66.956193
 20
-70.042947
 11
66.956193
 21
-70.109612
  0
LINE
  8
ボルト／ビス
  6
CONTINUOUS
 10
66.956193
 20
-70.042947
 11
66.556192
 21
-70.042947
  0
LINE
  8
ボルト／ビス
  6
CONTINUOUS
 10
66.556192
 20
-70.042947
 11
66.556192
 21
-70.109612
  0
ENDBLK
  0
BLOCK
  2
*GRP_0034
 70
    65
 10
0.0
 20
0.0
  0
LINE
  8
ボルト／ビス
  6
DOT
 10
66.756192
 20
-62.87628
 11
66.756192
 21
-62.409615
  0
LINE
  8
ボルト／ビス
  6
DOT
 10
67.12286
 20
-62.87628
 11
67.12286
 21
-62.809615
  0
LINE
  8
ボルト／ビス
  6
DOT
 10
67.12286
 20
-62.809615
 11
66.389528
 21
-62.809615
  0
LINE
  8
ボルト／ビス
  6
DOT
 10
66.389528
 20
-62.809615
 11
66.389528
 21
-62.87628
  0
LINE
  8
ボルト／ビス
  6
DOT
 10
67.12286
 20
-62.87628
 11
66.389528
 21
-62.87628
  0
LINE
  8
ボルト／ビス
  6
DOT
 10
67.056192
 20
-62.77628
 11
67.056192
 21
-62.809615
  0
LINE
  8
ボルト／ビス
  6
DOT
 10
67.056192
 20
-62.77628
 11
66.456193
 21
-62.77628
  0
LINE
  8
ボルト／ビス
  6
DOT
 10
66.456193
 20
-62.77628
 11
66.456193
 21
-62.809615
  0
LINE
  8
ボルト／ビス
  6
DOT
 62
    64
 10
66.916568
 20
-62.57628
 11
66.948642
 21
-62.587955
  0
ARC
  8
ボルト／ビス
  6
DOT
 62
    64
 10
66.900532
 20
-62.681261
 40
0.104978
 50
90.0
 51
117.278033
  0
ARC
  8
ボルト／ビス
  6
DOT
 62
    64
 10
66.756194
 20
-62.978685
 40
0.402402
 50
76.165015
 51
103.834998
  0
LINE
  8
ボルト／ビス
  6
DOT
 62
    64
 10
66.595817
 20
-62.57628
 11
66.563743
 21
-62.587955
  0
ARC
  8
ボルト／ビス
  6
DOT
 62
    64
 10
66.611857
 20
-62.681261
 40
0.104978
 50
62.721967
 51
90.0
  0
LINE
  8
ボルト／ビス
  6
DOT
 62
    64
 10
66.916568
 20
-62.57628
 11
66.595817
 21
-62.57628
  0
LINE
  8
ボルト／ビス
  6
DOT
 62
    64
 10
66.563743
 20
-62.587955
 11
66.563743
 21
-62.709615
  0
LINE
  8
ボルト／ビス
  6
DOT
 62
    64
 10
66.659967
 20
-62.587955
 11
66.659967
 21
-62.709615
  0
LINE
  8
ボルト／ビス
  6
DOT
 62
    64
 10
66.948642
 20
-62.587955
 11
66.948642
 21
-62.709615
  0
LINE
  8
ボルト／ビス
  6
DOT
 62
    64
 10
66.852418
 20
-62.587955
 11
66.852418
 21
-62.709615
  0
LINE
  8
ボルト／ビス
  6
DOT
 10
66.948642
 20
-62.709615
 11
66.563743
 21
-62.709615
  0
LINE
  8
ボルト／ビス
  6
DOT
 10
66.956193
 20
-62.709615
 11
66.956193
 21
-62.77628
  0
LINE
  8
ボルト／ビス
  6
DOT
 10
66.956193
 20
-62.709615
 11
66.556192
 21
-62.709615
  0
LINE
  8
ボルト／ビス
  6
DOT
 10
66.556192
 20
-62.709615
 11
66.556192
 21
-62.77628
  0
ENDBLK
  0
BLOCK
  2
*GRP_0035
 70
    65
 10
0.0
 20
0.0
  0
LINE
  8
ボルト／ビス
  6
CONTINUOUS
 10
-117.910477
 20
-70.209613
 11
-117.910477
 21
-69.742947
  0
LINE
  8
ボルト／ビス
  6
CONTINUOUS
 10
-118.277145
 20
-70.209613
 11
-118.277145
 21
-70.142947
  0
LINE
  8
ボルト／ビス
  6
CONTINUOUS
 10
-118.277145
 20
-70.142947
 11
-117.543812
 21
-70.142947
  0
LINE
  8
ボルト／ビス
  6
CONTINUOUS
 10
-117.543812
 20
-70.142947
 11
-117.543812
 21
-70.209613
  0
LINE
  8
ボルト／ビス
  6
CONTINUOUS
 10
-118.277145
 20
-70.209613
 11
-117.543812
 21
-70.209613
  0
LINE
  8
ボルト／ビス
  6
CONTINUOUS
 10
-118.210477
 20
-70.109612
 11
-118.210477
 21
-70.142947
  0
LINE
  8
ボルト／ビス
  6
CONTINUOUS
 10
-118.210477
 20
-70.109612
 11
-117.610477
 21
-70.109612
  0
LINE
  8
ボルト／ビス
  6
CONTINUOUS
 10
-117.610477
 20
-70.109612
 11
-117.610477
 21
-70.142947
  0
LINE
  8
ボルト／ビス
  6
CONTINUOUS
 62
    64
 10
-118.070853
 20
-69.909613
 11
-118.102927
 21
-69.921288
  0
ARC
  8
ボルト／ビス
  6
CONTINUOUS
 62
    64
 10
-118.054816
 20
-70.014594
 40
0.104978
 50
62.721967
 51
90.0
  0
ARC
  8
ボルト／ビス
  6
CONTINUOUS
 62
    64
 10
-117.910479
 20
-70.312018
 40
0.402402
 50
76.165002
 51
103.834985
  0
LINE
  8
ボルト／ビス
  6
CONTINUOUS
 62
    64
 10
-117.750102
 20
-69.909613
 11
-117.718027
 21
-69.921288
  0
ARC
  8
ボルト／ビス
  6
CONTINUOUS
 62
    64
 10
-117.766141
 20
-70.014594
 40
0.104978
 50
90.0
 51
117.278033
  0
LINE
  8
ボルト／ビス
  6
CONTINUOUS
 62
    64
 10
-118.070853
 20
-69.909613
 11
-117.750102
 21
-69.909613
  0
LINE
  8
ボルト／ビス
  6
CONTINUOUS
 62
    64
 10
-117.718027
 20
-69.921288
 11
-117.718027
 21
-70.042947
  0
LINE
  8
ボルト／ビス
  6
CONTINUOUS
 62
    64
 10
-117.814253
 20
-69.921288
 11
-117.814253
 21
-70.042947
  0
LINE
  8
ボルト／ビス
  6
CONTINUOUS
 62
    64
 10
-118.102927
 20
-69.921288
 11
-118.102927
 21
-70.042947
  0
LINE
  8
ボルト／ビス
  6
CONTINUOUS
 62
    64
 10
-118.006703
 20
-69.921288
 11
-118.006703
 21
-70.042947
  0
LINE
  8
ボルト／ビス
  6
CONTINUOUS
 10
-118.102927
 20
-70.042947
 11
-117.718027
 21
-70.042947
  0
LINE
  8
ボルト／ビス
  6
CONTINUOUS
 10
-118.110477
 20
-70.042947
 11
-118.110477
 21
-70.109612
  0
LINE
  8
ボルト／ビス
  6
CONTINUOUS
 10
-118.110477
 20
-70.042947
 11
-117.710477
 21
-70.042947
  0
LINE
  8
ボルト／ビス
  6
CONTINUOUS
 10
-117.710477
 20
-70.042947
 11
-117.710477
 21
-70.109612
  0
ENDBLK
  0
BLOCK
  2
*GRP_0036
 70
    65
 10
0.0
 20
0.0
  0
LINE
  8
ボルト／ビス
  6
DOT
 10
-117.910477
 20
-62.87628
 11
-117.910477
 21
-62.409615
  0
LINE
  8
ボルト／ビス
  6
DOT
 10
-118.277145
 20
-62.87628
 11
-118.277145
 21
-62.809615
  0
LINE
  8
ボルト／ビス
  6
DOT
 10
-118.277145
 20
-62.809615
 11
-117.543812
 21
-62.809615
  0
LINE
  8
ボルト／ビス
  6
DOT
 10
-117.543812
 20
-62.809615
 11
-117.543812
 21
-62.87628
  0
LINE
  8
ボルト／ビス
  6
DOT
 10
-118.277145
 20
-62.87628
 11
-117.543812
 21
-62.87628
  0
LINE
  8
ボルト／ビス
  6
DOT
 10
-118.210477
 20
-62.77628
 11
-118.210477
 21
-62.809615
  0
LINE
  8
ボルト／ビス
  6
DOT
 10
-118.210477
 20
-62.77628
 11
-117.610477
 21
-62.77628
  0
LINE
  8
ボルト／ビス
  6
DOT
 10
-117.610477
 20
-62.77628
 11
-117.610477
 21
-62.809615
  0
LINE
  8
ボルト／ビス
  6
DOT
 62
    64
 10
-118.070853
 20
-62.57628
 11
-118.102927
 21
-62.587955
  0
ARC
  8
ボルト／ビス
  6
DOT
 62
    64
 10
-118.054817
 20
-62.681261
 40
0.104978
 50
62.721967
 51
90.0
  0
ARC
  8
ボルト／ビス
  6
DOT
 62
    64
 10
-117.910479
 20
-62.978685
 40
0.402402
 50
76.165002
 51
103.834985
  0
LINE
  8
ボルト／ビス
  6
DOT
 62
    64
 10
-117.750102
 20
-62.57628
 11
-117.718027
 21
-62.587955
  0
ARC
  8
ボルト／ビス
  6
DOT
 62
    64
 10
-117.766142
 20
-62.681261
 40
0.104978
 50
90.0
 51
117.278033
  0
LINE
  8
ボルト／ビス
  6
DOT
 62
    64
 10
-118.070853
 20
-62.57628
 11
-117.750102
 21
-62.57628
  0
LINE
  8
ボルト／ビス
  6
DOT
 62
    64
 10
-117.718027
 20
-62.587955
 11
-117.718027
 21
-62.709615
  0
LINE
  8
ボルト／ビス
  6
DOT
 62
    64
 10
-117.814253
 20
-62.587955
 11
-117.814253
 21
-62.709615
  0
LINE
  8
ボルト／ビス
  6
DOT
 62
    64
 10
-118.102927
 20
-62.587955
 11
-118.102927
 21
-62.709615
  0
LINE
  8
ボルト／ビス
  6
DOT
 62
    64
 10
-118.006703
 20
-62.587955
 11
-118.006703
 21
-62.709615
  0
LINE
  8
ボルト／ビス
  6
DOT
 10
-118.102927
 20
-62.709615
 11
-117.718027
 21
-62.709615
  0
LINE
  8
ボルト／ビス
  6
DOT
 10
-118.110477
 20
-62.709615
 11
-118.110477
 21
-62.77628
  0
LINE
  8
ボルト／ビス
  6
DOT
 10
-118.110477
 20
-62.709615
 11
-117.710477
 21
-62.709615
  0
LINE
  8
ボルト／ビス
  6
DOT
 10
-117.710477
 20
-62.709615
 11
-117.710477
 21
-62.77628
  0
ENDBLK
  0
BLOCK
  2
*DIM_0037
 70
    65
 10
0.0
 20
0.0
  0
LINE
  8
寸法
  6
BYBLOCK
 62
     0
 10
59.089525
 20
-57.542947
 11
82.059175
 21
-57.542947
  0
LINE
  8
寸法
  6
BYBLOCK
 62
     0
 10
82.059175
 20
-64.87628
 11
82.059175
 21
-57.542947
  0
POINT
  8
寸法
 62
     0
 10
82.059175
 20
-64.87628
  0
POINT
  8
寸法
 62
     0
 10
82.059175
 20
-57.542947
  0
TEXT
  7
TextStyle03
  8
寸法
  6
CONTINUOUS
 62
     0
 10
81.55
 20
-55.7625
  1
上昇高さ220
 40
3.0
 50
90.0
 72
     5
 11
81.55
 21
-37.3875
  0
ENDBLK
  0
ENDSEC
  0
SECTION
  2
ENTITIES
  0
POLYLINE
  8
通り芯
  6
CONTINUOUS
 66
     1
 70
     1
  0
VERTEX
  8
通り芯
 10
-210.0
 20
-148.5
  0
VERTEX
  8
通り芯
 10
210.0
 20
-148.5
  0
VERTEX
  8
通り芯
 10
210.0
 20
148.5
  0
VERTEX
  8
通り芯
 10
-210.0
 20
148.5
  0
SEQEND
  0
INSERT
  2
*GRP_0001
  8
型材断面
  6
CONTINUOUS
 10
0.0
 20
0.0
  0
LINE
  8
型材断面
  6
DASHDOT
 10
66.089525
 20
-77.836442
 11
66.089525
 21
42.814033
  0
LINE
  8
型材断面
  6
DASHDOT
 10
-25.577142
 20
-77.836442
 11
-25.577142
 21
42.814033
  0
LINE
  8
型材断面
  6
DASHDOT
 10
-117.243808
 20
-77.836442
 11
-117.243808
 21
42.814033
  0
LINE
  8
型材断面
  6
DASHDOT
 10
163.766288
 20
22.814033
 11
-117.243808
 21
22.814033
  0
LINE
  8
型材断面
  6
DASHDOT
 10
163.766288
 20
32.814033
 11
-117.243808
 21
32.814033
  0
LINE
  8
型材断面
  6
DASHDOT
 10
163.766288
 20
42.814033
 11
-117.243808
 21
42.814033
  0
LINE
  8
型材断面
  6
DOT
 10
-8.45381
 20
22.814033
 11
-8.45381
 21
42.814033
  0
LINE
  8
型材断面
  6
DASHDOT
 10
-7.20381
 20
22.814033
 11
-7.20381
 21
42.814033
  0
LINE
  8
型材断面
  6
DOT
 10
-5.95381
 20
22.814033
 11
-5.95381
 21
42.814033
  0
LINE
  8
型材断面
  6
DOT
 10
28.292855
 20
22.814033
 11
28.292855
 21
42.814033
  0
LINE
  8
型材断面
  6
DASHDOT
 10
29.542855
 20
22.814033
 11
29.542855
 21
42.814033
  0
LINE
  8
型材断面
  6
DOT
 10
30.792855
 20
22.814033
 11
30.792855
 21
42.814033
  0
LINE
  8
型材断面
  6
DOT
 10
-42.700475
 20
22.814033
 11
-42.700475
 21
42.814033
  0
LINE
  8
型材断面
  6
DASHDOT
 10
-43.950475
 20
22.814033
 11
-43.950475
 21
42.814033
  0
LINE
  8
型材断面
  6
DOT
 10
-45.200475
 20
22.814033
 11
-45.200475
 21
42.814033
  0
LINE
  8
型材断面
  6
DOT
 10
-79.44714
 20
22.814033
 11
-79.44714
 21
42.814033
  0
LINE
  8
型材断面
  6
DASHDOT
 10
-80.69714
 20
22.814033
 11
-80.69714
 21
42.814033
  0
LINE
  8
型材断面
  6
DOT
 10
-81.94714
 20
22.814033
 11
-81.94714
 21
42.814033
  0
POLYLINE
  8
型材断面
  6
CONTINUOUS
 66
     1
 70
     1
  0
VERTEX
  8
型材断面
 10
-15.464005
 20
13.03811
  0
VERTEX
  8
型材断面
 10
-34.235935
 20
13.03811
  0
VERTEX
  8
型材断面
 10
-34.235935
 20
8.301267
  0
VERTEX
  8
型材断面
 10
-15.464005
 20
8.301267
  0
SEQEND
  0
POLYLINE
  8
型材断面
  6
CONTINUOUS
 66
     1
 70
     1
  0
VERTEX
  8
型材断面
 10
-15.464005
 20
52.589955
  0
VERTEX
  8
型材断面
 10
-34.235935
 20
52.589955
  0
VERTEX
  8
型材断面
 10
-34.235935
 20
57.326798
  0
VERTEX
  8
型材断面
 10
-15.464005
 20
57.326798
  0
SEQEND
  0
LINE
  8
型材断面
  6
CONTINUOUS
 10
-100.57714
 20
45.444162
 11
-102.07277
 21
48.03467
  0
LINE
  8
型材断面
  6
CONTINUOUS
 10
-100.57714
 20
45.444162
 11
-99.08151
 21
48.03467
  0
LINE
  8
型材断面
  6
CONTINUOUS
 10
-99.08151
 20
48.03467
 11
-102.07277
 21
48.03467
  0
LINE
  8
型材断面
  6
CONTINUOUS
 10
-158.096015
 20
80.791505
 11
-157.49996
 21
78.200998
  0
LINE
  8
型材断面
  6
CONTINUOUS
 10
-158.096015
 20
80.791505
 11
-158.692072
 21
78.200998
  0
LINE
  8
型材断面
  6
CONTINUOUS
 10
-158.692072
 20
78.200998
 11
-157.49996
 21
78.200998
  0
LINE
  8
型材断面
  6
CONTINUOUS
 10
-164.118603
 20
74.922105
 11
-117.876825
 21
74.922105
  0
LINE
  8
型材断面
  6
CONTINUOUS
 10
-158.096015
 20
87.32138
 11
-159.591645
 21
84.730873
  0
LINE
  8
型材断面
  6
CONTINUOUS
 10
-158.096015
 20
87.32138
 11
-156.600385
 21
84.730873
  0
LINE
  8
型材断面
  6
CONTINUOUS
 10
-156.600385
 20
84.730873
 11
-159.591645
 21
84.730873
  0
LINE
  8
型材断面
  6
CONTINUOUS
 10
-164.118603
 20
83.792277
 11
-117.876825
 21
83.792277
  0
LINE
  8
型材断面
  6
CONTINUOUS
 10
-164.118603
 20
69.134073
 11
-117.876825
 21
69.134073
  0
LINE
  8
型材断面
  6
CONTINUOUS
 10
-119.873938
 20
32.814033
 11
-122.464445
 21
34.309663
  0
LINE
  8
型材断面
  6
CONTINUOUS
 10
-119.873938
 20
32.814033
 11
-122.464445
 21
31.318403
  0
LINE
  8
型材断面
  6
CONTINUOUS
 10
-122.464445
 20
31.318403
 11
-122.464445
 21
34.309663
  0
LINE
  8
型材断面
  6
CONTINUOUS
 10
-100.57714
 20
20.183902
 11
-102.07277
 21
17.593395
  0
LINE
  8
型材断面
  6
CONTINUOUS
 10
-100.57714
 20
20.183902
 11
-99.08151
 21
17.593395
  0
LINE
  8
型材断面
  6
CONTINUOUS
 10
-99.08151
 20
17.593395
 11
-102.07277
 21
17.593395
  0
LINE
  8
型材断面
  6
CONTINUOUS
 10
49.422855
 20
45.444162
 11
50.918485
 21
48.03467
  0
LINE
  8
型材断面
  6
CONTINUOUS
 10
49.422855
 20
45.444162
 11
47.927225
 21
48.03467
  0
LINE
  8
型材断面
  6
CONTINUOUS
 10
47.927225
 20
48.03467
 11
50.918485
 21
48.03467
  0
LINE
  8
型材断面
  6
CONTINUOUS
 10
49.422855
 20
20.183902
 11
50.918485
 21
17.593395
  0
LINE
  8
型材断面
  6
CONTINUOUS
 10
49.422855
 20
20.183902
 11
47.927225
 21
17.593395
  0
LINE
  8
型材断面
  6
CONTINUOUS
 10
47.927225
 20
17.593395
 11
50.918485
 21
17.593395
  0
LINE
  8
型材断面
  6
CONTINUOUS
 10
-25.577142
 20
45.44416
 11
-27.072772
 21
48.034668
  0
LINE
  8
型材断面
  6
CONTINUOUS
 10
-25.577142
 20
45.44416
 11
-24.081513
 21
48.034668
  0
LINE
  8
型材断面
  6
CONTINUOUS
 10
-24.081513
 20
48.034668
 11
-27.072772
 21
48.034668
  0
LINE
  8
型材断面
  6
CONTINUOUS
 10
-25.577142
 20
20.1839
 11
-27.072772
 21
17.593392
  0
LINE
  8
型材断面
  6
CONTINUOUS
 10
-25.577142
 20
20.1839
 11
-24.081513
 21
17.593392
  0
LINE
  8
型材断面
  6
CONTINUOUS
 10
-24.081513
 20
17.593392
 11
-27.072772
 21
17.593392
  0
LINE
  8
型材断面
  6
CONTINUOUS
 10
68.719655
 20
39.114035
 11
71.310165
 21
38.517982
  0
LINE
  8
型材断面
  6
CONTINUOUS
 10
68.719655
 20
39.114035
 11
71.310162
 21
39.710095
  0
LINE
  8
型材断面
  6
CONTINUOUS
 10
71.310162
 20
39.710095
 11
71.310165
 21
38.517982
  0
LINE
  8
型材断面
  6
CONTINUOUS
 10
68.719655
 20
26.51403
 11
71.310165
 21
27.110082
  0
LINE
  8
型材断面
  6
CONTINUOUS
 10
68.719655
 20
26.51403
 11
71.310162
 21
25.91797
  0
LINE
  8
型材断面
  6
CONTINUOUS
 10
71.310162
 20
25.91797
 11
71.310165
 21
27.110082
  0
LINE
  8
型材断面
  6
CONTINUOUS
 10
-119.87394
 20
39.114035
 11
-122.46445
 21
38.517982
  0
LINE
  8
型材断面
  6
CONTINUOUS
 10
-119.87394
 20
39.114035
 11
-122.464448
 21
39.710095
  0
LINE
  8
型材断面
  6
CONTINUOUS
 10
-122.464448
 20
39.710095
 11
-122.46445
 21
38.517982
  0
LINE
  8
型材断面
  6
CONTINUOUS
 10
-119.87394
 20
26.51403
 11
-122.46445
 21
27.110082
  0
LINE
  8
型材断面
  6
CONTINUOUS
 10
-119.87394
 20
26.51403
 11
-122.464448
 21
25.91797
  0
LINE
  8
型材断面
  6
CONTINUOUS
 10
-122.464448
 20
25.91797
 11
-122.46445
 21
27.110082
  0
LINE
  8
型材断面
  6
CONTINUOUS
 10
68.719652
 20
32.814033
 11
71.31016
 21
34.309663
  0
LINE
  8
型材断面
  6
CONTINUOUS
 10
68.719652
 20
32.814033
 11
71.31016
 21
31.318403
  0
LINE
  8
型材断面
  6
CONTINUOUS
 10
71.31016
 20
31.318403
 11
71.31016
 21
34.309663
  0
INSERT
  2
*GRP_0013
  8
型材断面
  6
CONTINUOUS
 10
0.0
 20
0.0
  0
INSERT
  2
*GRP_0014
  8
型材断面
  6
CONTINUOUS
 10
0.0
 20
0.0
  0
INSERT
  2
*GRP_0015
  8
型材断面
  6
CONTINUOUS
 10
0.0
 20
0.0
  0
INSERT
  2
*GRP_0016
  8
型材断面
  6
CONTINUOUS
 10
0.0
 20
0.0
  0
LINE
  8
型材断面
  6
CONTINUOUS
 62
    47
 10
163.156293
 20
21.3307
 11
163.156293
 21
32.814033
  0
LINE
  8
型材断面
  6
CONTINUOUS
 62
    47
 10
163.156293
 20
21.3307
 11
162.656293
 21
21.3307
  0
LINE
  8
型材断面
  6
CONTINUOUS
 62
    47
 10
162.656293
 20
32.814033
 11
162.656293
 21
20.8307
  0
LINE
  8
型材断面
  6
CONTINUOUS
 62
    47
 10
162.656293
 20
20.8307
 11
159.339625
 21
20.8307
  0
LINE
  8
型材断面
  6
CONTINUOUS
 62
    47
 10
159.339603
 20
32.814033
 11
159.339625
 21
20.8307
  0
LINE
  8
型材断面
  6
CONTINUOUS
 62
    47
 10
159.172907
 20
32.814033
 11
159.172907
 21
20.8307
  0
LINE
  8
型材断面
  6
CONTINUOUS
 62
    47
 10
156.999575
 20
32.814033
 11
156.999575
 21
20.8307
  0
LINE
  8
型材断面
  6
CONTINUOUS
 62
    47
 10
156.999575
 20
20.8307
 11
159.172907
 21
20.8307
  0
LINE
  8
型材断面
  6
CONTINUOUS
 62
    47
 10
156.999575
 20
21.714033
 11
156.62279
 21
21.714033
  0
LINE
  8
型材断面
  6
CONTINUOUS
 62
    47
 10
163.156293
 20
44.297367
 11
163.156293
 21
32.814033
  0
LINE
  8
型材断面
  6
CONTINUOUS
 62
    47
 10
163.156293
 20
44.297367
 11
162.656293
 21
44.297367
  0
LINE
  8
型材断面
  6
CONTINUOUS
 62
    47
 10
162.656293
 20
32.814033
 11
162.656293
 21
44.797367
  0
LINE
  8
型材断面
  6
CONTINUOUS
 62
    47
 10
162.656293
 20
44.797367
 11
159.339625
 21
44.797367
  0
LINE
  8
型材断面
  6
CONTINUOUS
 62
    47
 10
159.339603
 20
32.814033
 11
159.339625
 21
44.797367
  0
LINE
  8
型材断面
  6
CONTINUOUS
 62
    47
 10
159.172907
 20
32.814033
 11
159.172907
 21
44.797367
  0
LINE
  8
型材断面
  6
CONTINUOUS
 62
    47
 10
156.999575
 20
32.814033
 11
156.999575
 21
44.797367
  0
LINE
  8
型材断面
  6
CONTINUOUS
 62
    47
 10
156.999575
 20
44.797367
 11
159.172907
 21
44.797367
  0
LINE
  8
型材断面
  6
CONTINUOUS
 62
    47
 10
156.999575
 20
43.914033
 11
156.62279
 21
43.914033
  0
LINE
  8
型材断面
  6
CONTINUOUS
 62
    47
 10
-118.727142
 20
-77.743115
 11
-118.727142
 21
-77.243115
  0
LINE
  8
型材断面
  6
CONTINUOUS
 62
    47
 10
-119.227142
 20
-77.243115
 11
-119.227142
 21
-73.926447
  0
LINE
  8
型材断面
  6
CONTINUOUS
 62
    47
 10
-119.227142
 20
-71.586398
 11
-119.227142
 21
-73.75973
  0
LINE
  8
型材断面
  6
CONTINUOUS
 62
    47
 10
-118.34381
 20
-71.586398
 11
-118.34381
 21
-71.209613
  0
LINE
  8
型材断面
  6
CONTINUOUS
 62
    47
 10
-118.727142
 20
-77.743115
 11
-25.577142
 21
-77.743115
  0
LINE
  8
型材断面
  6
CONTINUOUS
 62
    47
 10
-119.227142
 20
-77.243115
 11
-25.577142
 21
-77.243115
  0
LINE
  8
型材断面
  6
CONTINUOUS
 62
    47
 10
-119.227142
 20
-73.926447
 11
-25.577142
 21
-73.926272
  0
LINE
  8
型材断面
  6
CONTINUOUS
 62
    47
 10
-119.227142
 20
-73.75973
 11
-25.577142
 21
-73.75973
  0
LINE
  8
型材断面
  6
CONTINUOUS
 62
    47
 10
-119.227142
 20
-71.586398
 11
-25.577142
 21
-71.586398
  0
LINE
  8
型材断面
  6
CONTINUOUS
 62
    47
 10
67.572857
 20
-77.743115
 11
67.572857
 21
-77.243115
  0
LINE
  8
型材断面
  6
CONTINUOUS
 62
    47
 10
68.072857
 20
-77.243115
 11
68.072857
 21
-73.926447
  0
LINE
  8
型材断面
  6
CONTINUOUS
 62
    47
 10
68.072857
 20
-71.586398
 11
68.072857
 21
-73.75973
  0
LINE
  8
型材断面
  6
CONTINUOUS
 62
    47
 10
67.189525
 20
-71.586398
 11
67.189525
 21
-71.209613
  0
LINE
  8
型材断面
  6
CONTINUOUS
 62
    47
 10
67.572857
 20
-77.743115
 11
-25.577142
 21
-77.743115
  0
LINE
  8
型材断面
  6
CONTINUOUS
 62
    47
 10
68.072857
 20
-77.243115
 11
-25.577142
 21
-77.243115
  0
LINE
  8
型材断面
  6
CONTINUOUS
 62
    47
 10
68.072857
 20
-73.926447
 11
-25.577142
 21
-73.926272
  0
LINE
  8
型材断面
  6
CONTINUOUS
 62
    47
 10
68.072857
 20
-73.75973
 11
-25.577142
 21
-73.75973
  0
LINE
  8
型材断面
  6
CONTINUOUS
 62
    47
 10
68.072857
 20
-71.586398
 11
-25.577142
 21
-71.586398
  0
LINE
  8
型材断面
  6
CONTINUOUS
 10
-164.118603
 20
63.34604
 11
-117.876825
 21
63.34604
  0
TEXT
  7
TextStyle03
  8
文字
  6
CONTINUOUS
 10
142.625
 20
-76.7
  1
網入り6.8t
 40
3.0
 72
     5
 11
159.3125
 21
-76.7
  0
TEXT
  7
TextStyle03
  8
文字
  6
CONTINUOUS
 10
-33.175
 20
9.325
  1
可動装置側
 40
3.0
 72
     5
 11
-16.675
 21
9.325
  0
TEXT
  7
TextStyle03
  8
文字
  6
CONTINUOUS
 10
149.3
 20
-81.375
  1
×５枚
 40
3.0
 72
     5
 11
159.05
 21
-81.375
  0
TEXT
  7
TextStyle03
  8
文字
  6
CONTINUOUS
 10
-33.175
 20
53.3
  1
可動装置側
 40
3.0
 72
     5
 11
-16.675
 21
53.3
  0
TEXT
  7
TextStyle03
  8
文字
  6
CONTINUOUS
 10
-155.275
 20
79.425
  1
はケーシング位置を示す
 40
3.0
 72
     5
 11
-118.525
 21
79.425
  0
TEXT
  7
TextStyle03
  8
文字
  6
CONTINUOUS
 10
-155.275
 20
76.05
  1
４ヶ所中1ヶ所に設定
 40
3.0
 72
     5
 11
-123.5875
 21
76.05
  0
TEXT
  7
TextStyle03
  8
文字
  6
CONTINUOUS
 10
-155.275
 20
84.95
  1
は排水穴位置を示す
 40
3.0
 72
     5
 11
-125.275
 21
84.95
  0
TEXT
  7
TextStyle03
  8
文字
  6
CONTINUOUS
 10
-138.275
 20
11.275
  1
アンカーピッチ
 40
3.0
 50
90.0
 72
     5
 11
-138.275
 21
34.525
  0
TEXT
  7
TextStyle03
  8
文字
  6
CONTINUOUS
 10
-103.175
 20
79.225
  1
アンカーピッチ
 40
3.0
 72
     5
 11
-79.925
 21
79.225
  0
TEXT
  7
TextStyle03
  8
文字
  6
CONTINUOUS
 10
-159.075
 20
64.3
  1
アームユニット数　４～６ヶ所
 40
3.0
 72
     5
 11
-112.2
 21
64.3
  0
TEXT
  7
TextStyle03
  8
文字
  6
CONTINUOUS
 10
-164.0
 20
59.35
  1
※重量に依るのでご相談ください
 40
3.0
 72
     5
 11
-113.75
 21
59.35
  0
TEXT
  7
TextStyle03
  8
文字
  6
CONTINUOUS
 10
-159.0
 20
70.075
  1
アンカー数量　１８ヶ所
 40
3.0
 72
     5
 11
-122.25
 21
70.075
  0
TEXT
  7
TextStyle03
  8
文字
  6
CONTINUOUS
 10
78.1
 20
125.25
  1
シリーズ：ＴＤ２Ｌ
 40
5.0
 72
     5
 11
128.1
 21
125.25
  0
TEXT
  7
TextStyle03
  8
文字
  6
CONTINUOUS
 10
78.1
 20
119.625
  1
　　　　　（上下可動）600×5500タイプ
 40
5.0
 72
     5
 11
181.5375
 21
119.625
  0
TEXT
  7
TextStyle03
  8
文字
  6
CONTINUOUS
 10
78.1
 20
114.0
  1
図面名　：外観姿図
 40
5.0
 72
     5
 11
128.1
 21
114.0
  0
TEXT
  7
TextStyle03
  8
文字
  6
CONTINUOUS
 10
78.1
 20
108.375
  1
　　　　　　
 40
5.0
 72
     5
 11
111.225
 21
108.375
  0
TEXT
  7
TextStyle03
  8
文字
  6
CONTINUOUS
 10
77.5
 20
105.125
  1
ＮＳコード：ＮＳＤＺＬ
 40
5.0
 72
     5
 11
138.75
 21
105.125
  0
INSERT
  2
*DIM_0002
  8
寸法
  6
CONTINUOUS
 10
0.0
 20
0.0
  0
INSERT
  2
*DIM_0003
  8
寸法
  6
CONTINUOUS
 10
0.0
 20
0.0
  0
INSERT
  2
*DIM_0004
  8
寸法
  6
CONTINUOUS
 10
0.0
 20
0.0
  0
INSERT
  2
*DIM_0005
  8
寸法
  6
CONTINUOUS
 10
0.0
 20
0.0
  0
INSERT
  2
*DIM_0006
  8
寸法
  6
CONTINUOUS
 10
0.0
 20
0.0
  0
INSERT
  2
*DIM_0007
  8
寸法
  6
CONTINUOUS
 10
0.0
 20
0.0
  0
INSERT
  2
*DIM_0008
  8
寸法
  6
CONTINUOUS
 10
0.0
 20
0.0
  0
INSERT
  2
*DIM_0009
  8
寸法
  6
CONTINUOUS
 10
0.0
 20
0.0
  0
INSERT
  2
*DIM_0010
  8
寸法
  6
CONTINUOUS
 10
0.0
 20
0.0
  0
INSERT
  2
*DIM_0011
  8
寸法
  6
CONTINUOUS
 10
0.0
 20
0.0
  0
INSERT
  2
*DIM_0017
  8
寸法
  6
CONTINUOUS
 10
0.0
 20
0.0
  0
INSERT
  2
*DIM_0018
  8
寸法
  6
CONTINUOUS
 10
0.0
 20
0.0
  0
INSERT
  2
*DIM_0019
  8
寸法
  6
CONTINUOUS
 10
0.0
 20
0.0
  0
INSERT
  2
*DIM_0020
  8
寸法
  6
CONTINUOUS
 10
0.0
 20
0.0
  0
INSERT
  2
*DIM_0021
  8
寸法
  6
CONTINUOUS
 10
0.0
 20
0.0
  0
INSERT
  2
*DIM_0022
  8
寸法
  6
CONTINUOUS
 10
0.0
 20
0.0
  0
INSERT
  2
*DIM_0023
  8
寸法
  6
CONTINUOUS
 10
0.0
 20
0.0
  0
INSERT
  2
*DIM_0024
  8
寸法
  6
CONTINUOUS
 10
0.0
 20
0.0
  0
INSERT
  2
*DIM_0025
  8
寸法
  6
CONTINUOUS
 10
0.0
 20
0.0
  0
INSERT
  2
*DIM_0026
  8
寸法
  6
CONTINUOUS
 10
0.0
 20
0.0
  0
INSERT
  2
*DIM_0027
  8
寸法
  6
CONTINUOUS
 10
0.0
 20
0.0
  0
INSERT
  2
*DIM_0028
  8
寸法
  6
CONTINUOUS
 10
0.0
 20
0.0
  0
INSERT
  2
*DIM_0029
  8
寸法
  6
CONTINUOUS
 10
0.0
 20
0.0
  0
INSERT
  2
*DIM_0037
  8
寸法
  6
CONTINUOUS
 10
0.0
 20
0.0
  0
LINE
  8
別途部材
  6
CONTINUOUS
 10
68.156193
 20
20.747365
 11
67.756192
 21
21.147365
  0
LINE
  8
別途部材
  6
CONTINUOUS
 10
66.089525
 20
22.814033
 11
58.03027
 21
30.87329
  0
LINE
  8
別途部材
  6
CONTINUOUS
 62
    96
 10
155.62279
 20
21.147365
 11
156.62279
 21
20.747365
  0
LINE
  8
別途部材
  6
CONTINUOUS
 62
    96
 10
155.62279
 20
21.147365
 11
155.62279
 21
32.814033
  0
LINE
  8
別途部材
  6
CONTINUOUS
 10
156.62279
 20
20.747365
 11
156.62279
 21
32.814033
  0
LINE
  8
別途部材
  6
CONTINUOUS
 62
    96
 10
155.62279
 20
44.4807
 11
156.62279
 21
44.8807
  0
LINE
  8
別途部材
  6
CONTINUOUS
 62
    96
 10
155.62279
 20
44.4807
 11
155.62279
 21
32.814033
  0
LINE
  8
別途部材
  6
CONTINUOUS
 10
156.62279
 20
44.8807
 11
156.62279
 21
32.814033
  0
ARC
  8
別途部材
  6
CONTINUOUS
 10
162.331124
 20
32.814033
 40
12.041667
 50
123.855033
 51
236.144967
  0
LINE
  8
別途部材
  6
CONTINUOUS
 10
67.756192
 20
21.147365
 11
67.756192
 21
32.814033
  0
LINE
  8
別途部材
  6
CONTINUOUS
 10
68.156193
 20
20.747365
 11
68.156193
 21
32.814033
  0
LINE
  8
別途部材
  6
CONTINUOUS
 10
68.156193
 20
44.8807
 11
67.756192
 21
44.4807
  0
LINE
  8
別途部材
  6
CONTINUOUS
 10
66.089525
 20
42.814033
 11
58.03027
 21
34.754775
  0
LINE
  8
別途部材
  6
CONTINUOUS
 10
67.756192
 20
44.4807
 11
67.756192
 21
32.814033
  0
LINE
  8
別途部材
  6
CONTINUOUS
 10
68.156193
 20
44.8807
 11
68.156193
 21
32.814033
  0
LINE
  8
別途部材
  6
CONTINUOUS
 10
67.756192
 20
44.4807
 11
-25.577142
 21
44.4807
  0
LINE
  8
別途部材
  6
CONTINUOUS
 10
68.156193
 20
44.8807
 11
-25.577142
 21
44.8807
  0
LINE
  8
別途部材
  6
CONTINUOUS
 10
67.756192
 20
21.147365
 11
-25.577142
 21
21.147365
  0
LINE
  8
別途部材
  6
CONTINUOUS
 10
68.156193
 20
20.747365
 11
-25.577142
 21
20.747365
  0
LINE
  8
別途部材
  6
CONTINUOUS
 10
-119.310477
 20
20.747365
 11
-118.910477
 21
21.147365
  0
LINE
  8
別途部材
  6
CONTINUOUS
 10
-117.24381
 20
22.814033
 11
-109.184555
 21
30.87329
  0
LINE
  8
別途部材
  6
CONTINUOUS
 10
-118.910477
 20
21.147365
 11
-118.910477
 21
32.814033
  0
LINE
  8
別途部材
  6
CONTINUOUS
 10
-119.310477
 20
20.747365
 11
-119.310477
 21
32.814033
  0
LINE
  8
別途部材
  6
CONTINUOUS
 10
-119.310477
 20
44.8807
 11
-118.910477
 21
44.4807
  0
LINE
  8
別途部材
  6
CONTINUOUS
 10
-117.24381
 20
42.814033
 11
-109.184555
 21
34.754775
  0
LINE
  8
別途部材
  6
CONTINUOUS
 10
-118.910477
 20
44.4807
 11
-118.910477
 21
32.814033
  0
LINE
  8
別途部材
  6
CONTINUOUS
 10
-119.310477
 20
44.8807
 11
-119.310477
 21
32.814033
  0
LINE
  8
別途部材
  6
CONTINUOUS
 10
-118.910477
 20
44.4807
 11
-25.577142
 21
44.4807
  0
LINE
  8
別途部材
  6
CONTINUOUS
 10
-119.310477
 20
44.8807
 11
-25.577142
 21
44.8807
  0
LINE
  8
別途部材
  6
CONTINUOUS
 10
-118.910477
 20
21.147365
 11
-25.577142
 21
21.147365
  0
LINE
  8
別途部材
  6
CONTINUOUS
 10
-119.310477
 20
20.747365
 11
-25.577142
 21
20.747365
  0
LINE
  8
別途部材
  6
DOT
 62
    96
 10
67.756192
 20
-62.87628
 11
68.156193
 21
-63.87628
  0
ARC
  8
別途部材
  6
DOT
 10
56.089524
 20
-69.584615
 40
12.041667
 50
33.855033
 51
90.0
  0
LINE
  8
別途部材
  6
DOT
 10
56.089525
 20
-57.542947
 11
-25.577142
 21
-57.542947
  0
LINE
  8
別途部材
  6
DOT
 10
68.156193
 20
-63.87628
 11
-25.577142
 21
-63.87628
  0
LINE
  8
別途部材
  6
DOT
 62
    96
 10
67.756192
 20
-62.87628
 11
-25.577142
 21
-62.87628
  0
LINE
  8
別途部材
  6
DOT
 62
    96
 10
-118.910477
 20
-62.87628
 11
-119.310477
 21
-63.87628
  0
ARC
  8
別途部材
  6
DOT
 10
-107.243811
 20
-69.584615
 40
12.041667
 50
90.0
 51
146.144967
  0
LINE
  8
別途部材
  6
DOT
 10
-107.24381
 20
-57.542947
 11
-25.577142
 21
-57.542947
  0
LINE
  8
別途部材
  6
DOT
 10
-119.310477
 20
-63.87628
 11
-25.577142
 21
-63.87628
  0
LINE
  8
別途部材
  6
DOT
 62
    96
 10
-118.910477
 20
-62.87628
 11
-25.577142
 21
-62.87628
  0
INSERT
  2
*GRP_0012
  8
別途部材
  6
CONTINUOUS
 10
0.0
 20
0.0
  0
INSERT
  2
*GRP_0031
  8
別途部材
  6
DOT
 10
0.0
 20
0.0
  0
INSERT
  2
*GRP_0032
  8
別途部材
  6
DOT
 10
0.0
 20
0.0
  0
INSERT
  2
*GRP_0033
  8
別途部材
  6
DOT
 10
0.0
 20
0.0
  0
INSERT
  2
*GRP_0034
  8
別途部材
  6
DOT
 10
0.0
 20
0.0
  0
INSERT
  2
*GRP_0035
  8
別途部材
  6
DOT
 10
0.0
 20
0.0
  0
INSERT
  2
*GRP_0036
  8
別途部材
  6
DOT
 10
0.0
 20
0.0
  0
LINE
  8
曲げ物
  6
CONTINUOUS
 10
161.17608
 20
-83.118728
 11
161.17608
 21
-63.785395
  0
LINE
  8
曲げ物
  6
CONTINUOUS
 10
125.49608
 20
-83.118728
 11
125.49608
 21
-63.785395
  0
LINE
  8
曲げ物
  6
CONTINUOUS
 10
161.17608
 20
-63.785395
 11
125.49608
 21
-63.785395
  0
LINE
  8
曲げ物
  6
CONTINUOUS
 10
161.17608
 20
-83.118728
 11
125.49608
 21
-83.118728
  0
ENDSEC
  0
EOF
