  0
SECTION
  2
HEADER
  9
$EXTMIN
 10
-210.0
 20
-148.5
  9
$EXTMAX
 10
210.0
 20
148.5
  9
$PDMODE
 70
    32
  9
$PDSIZE
 40
1.5
  9
$LTSCALE
 40
10.0
  0
ENDSEC
  0
SECTION
  2
TABLES
  0
TABLE
  2
LTYPE
 70
    15
  0
LTYPE
  2
CONTINUOUS
 70
    64
  3
実線
 72
    65
 73
     0
 40
0.0
  0
LTYPE
  2
DASHED
 70
    64
  3
破線A
 72
    65
 73
     2
 40
0.6
 49
0.4
 49
-0.2
  0
LTYPE
  2
DASHEDX2
 70
    64
  3
破線B
 72
    65
 73
     2
 40
1.3
 49
0.9
 49
-0.4
  0
LTYPE
  2
DASHDOT
 70
    64
  3
１点鎖線A
 72
    65
 73
     4
 40
0.5375
 49
0.375
 49
-0.05
 49
0.0625
 49
-0.05
  0
LTYPE
  2
DASHDOTX2
 70
    64
  3
１点鎖線B
 72
    65
 73
     4
 40
1.075
 49
0.75
 49
-0.1
 49
0.125
 49
-0.1
  0
LTYPE
  2
DIVIDE2
 70
    64
  3
２点鎖線A
 72
    65
 73
     6
 40
0.5125
 49
0.3
 49
-0.0375
 49
0.05
 49
-0.0375
 49
0.05
 49
-0.0375
  0
LTYPE
  2
DIVIDE
 70
    64
  3
２点鎖線B
 72
    65
 73
     6
 40
1.05
 49
0.55
 49
-0.1
 49
0.1
 49
-0.1
 49
0.1
 49
-0.1
  0
LTYPE
  2
DOT
 70
    64
  3
点線A
 72
    65
 73
     2
 40
0.1125
 49
0.0625
 49
-0.05
  0
LTYPE
  2
DOTX2
 70
    64
  3
点線B
 72
    65
 73
     2
 40
0.275
 49
0.15
 49
-0.125
  0
LTYPE
  2
CONTINUOUS
 70
    64
  3
実線
 72
    65
 73
     0
 40
0.0
  0
LTYPE
  2
CONTINUOUS
 70
    64
  3
実線
 72
    65
 73
     0
 40
0.0
  0
LTYPE
  2
CONTINUOUS
 70
    64
  3
実線
 72
    65
 73
     0
 40
0.0
  0
LTYPE
  2
CONTINUOUS
 70
    64
  3
実線
 72
    65
 73
     0
 40
0.0
  0
LTYPE
  2
CONTINUOUS
 70
    64
  3
実線
 72
    65
 73
     0
 40
0.0
  0
LTYPE
  2
CONTINUOUS
 70
    64
  3
実線
 72
    65
 73
     0
 40
0.0
  0
ENDTAB
  0
TABLE
  2
LAYER
 70
    34
  0
LAYER
  2
通り芯
 70
     0
 62
    15
  6
CONTINUOUS
  0
LAYER
  2
補助線
 70
     0
 62
    16
  6
DOT
  0
LAYER
  2
躯体
 70
     0
 62
    31
  6
CONTINUOUS
  0
LAYER
  2
型材
 70
     0
 62
    32
  6
CONTINUOUS
  0
LAYER
  2
型材断面
 70
     0
 62
    47
  6
CONTINUOUS
  0
LAYER
  2
ガラス
 70
     0
 62
    48
  6
CONTINUOUS
  0
LAYER
  2
ゴム等
 70
     0
 62
    63
  6
CONTINUOUS
  0
LAYER
  2
ボルト／ビス
 70
     0
 62
    64
  6
CONTINUOUS
  0
LAYER
  2
文字
 70
     0
 62
    79
  6
CONTINUOUS
  0
LAYER
  2
寸法
 70
     0
 62
    80
  6
CONTINUOUS
  0
LAYER
  2
ﾊｯﾁﾝｸﾞ
 70
     0
 62
    95
  6
CONTINUOUS
  0
LAYER
  2
別途部材
 70
     0
 62
    96
  6
CONTINUOUS
  0
LAYER
  2
曲げ物
 70
     0
 62
   111
  6
CONTINUOUS
  0
LAYER
  2
鉄骨等
 70
     0
 62
   112
  6
CONTINUOUS
  0
LAYER
  2
St
 70
     0
 62
   127
  6
CONTINUOUS
  0
LAYER
  2
その他部品等
 70
     0
 62
   128
  6
CONTINUOUS
  0
LAYER
  2
ｶﾞｽｹｯﾄ
 70
     0
 62
   143
  6
CONTINUOUS
  0
LAYER
  2
ｽｹｯﾁ
 70
     0
 62
    14
  6
CONTINUOUS
  0
LAYER
  2
0
 70
     0
 62
    17
  6
CONTINUOUS
  0
LAYER
  2
1
 70
     0
 62
    30
  6
CONTINUOUS
  0
LAYER
  2
4
 70
     0
 62
    33
  6
CONTINUOUS
  0
LAYER
  2
ﾚｲﾔ3
 70
     0
 62
    46
  6
CONTINUOUS
  0
LAYER
  2
外形線
 70
     0
 62
    49
  6
CONTINUOUS
  0
LAYER
  2
部品
 70
     0
 62
    14
  6
CONTINUOUS
  0
LAYER
  2
サッシ芯
 70
     0
 62
    17
  6
DASHDOTX2
  0
LAYER
  2
寸法線
 70
     0
 62
    62
  6
CONTINUOUS
  0
LAYER
  2
姿図外形線
 70
     0
 62
    65
  6
CONTINUOUS
  0
LAYER
  2
姿補助線
 70
     0
 62
    30
  6
CONTINUOUS
  0
LAYER
  2
透視線
 70
     0
 62
    78
  6
DOT
  0
LAYER
  2
用紙
 70
     0
 62
    81
  6
CONTINUOUS
  0
LAYER
  2
実線図枠
 70
     0
 62
    94
  6
CONTINUOUS
  0
LAYER
  2
補助図枠
 70
     0
 62
    97
  6
CONTINUOUS
  0
LAYER
  2
建具記号
 70
     0
 62
   110
  6
CONTINUOUS
  0
LAYER
  2
補助文字
 70
     0
 62
   113
  6
CONTINUOUS
  0
ENDTAB
  0
TABLE
  2
STYLE
 70
    10
  0
STYLE
  2
STANDARD
 70
     0
 40
1.0
 41
1.0
 42
1.0
 50
0.0
 71
     0
  3
TXT
  4
BIGFONT
  0
STYLE
  2
TATE
 70
     4
 40
1.0
 41
1.0
 42
1.0
 50
0.0
 71
     0
  3
TXT
  4
BIGFONT
  0
STYLE
  2
TextStyle03
 70
     0
 40
1.0
 41
1.0
 42
1.0
 50
0.0
 71
     0
  3
MONOTXT
  4
BIGFONT
  0
STYLE
  2
TextStyle04
 70
     0
 40
1.0
 41
1.0
 42
1.0
 50
0.0
 71
     0
  3
MONOTXT
  4
BIGFONT
  0
STYLE
  2
TextStyle05
 70
     0
 40
1.0
 41
1.0
 42
1.0
 50
0.0
 71
     0
  3
MONOTXT
  4
BIGFONT
  0
STYLE
  2
TextStyle06
 70
     0
 40
1.0
 41
1.0
 42
1.0
 50
0.0
 71
     0
  3
MONOTXT
  4
BIGFONT
  0
STYLE
  2
TextStyle07
 70
     0
 40
1.0
 41
1.0
 42
1.0
 50
0.0
 71
     0
  3
MONOTXT
  4
BIGFONT
  0
STYLE
  2
TextStyle08
 70
     0
 40
1.0
 41
1.0
 42
1.0
 50
0.0
 71
     0
  3
MONOTXT
  4
BIGFONT
  0
STYLE
  2
TextStyle09
 70
     0
 40
1.0
 41
1.0
 42
1.0
 50
0.0
 71
     0
  3
MONOTXT
  4
BIGFONT
  0
STYLE
  2
TextStyle10
 70
     0
 40
1.0
 41
1.0
 42
1.0
 50
0.0
 71
     0
  3
MONOTXT
  4
BIGFONT
  0
ENDTAB
  0
ENDSEC
  0
SECTION
  2
BLOCKS
  0
BLOCK
  2
*GRP_0001
 70
    65
 10
0.0
 20
0.0
  0
LINE
  8
型材断面
  6
CONTINUOUS
 10
195.0
 20
133.5
 11
195.0
 21
-133.5
  0
LINE
  8
型材断面
  6
CONTINUOUS
 10
195.0
 20
-133.5
 11
-185.0
 21
-133.5
  0
LINE
  8
型材断面
  6
CONTINUOUS
 10
-185.0
 20
-133.5
 11
-185.0
 21
133.5
  0
LINE
  8
型材断面
  6
CONTINUOUS
 10
195.0
 20
133.5
 11
-185.0
 21
133.5
  0
LINE
  8
型材断面
  6
CONTINUOUS
 10
145.0
 20
-133.5
 11
145.0
 21
-118.5
  0
LINE
  8
型材断面
  6
CONTINUOUS
 10
195.0
 20
-118.5
 11
145.0
 21
-118.5
  0
ENDBLK
  0
BLOCK
  2
*DIM_0002
 70
    65
 10
0.0
 20
0.0
  0
LINE
  8
寸法
  6
BYBLOCK
 62
     0
 10
37.224393
 20
-64.87628
 11
62.194043
 21
-64.87628
  0
LINE
  8
寸法
  6
BYBLOCK
 62
     0
 10
62.194043
 20
-70.209613
 11
62.194043
 21
-64.87628
  0
POINT
  8
寸法
 62
     0
 10
62.194043
 20
-70.209613
  0
POINT
  8
寸法
 62
     0
 10
62.194043
 20
-64.87628
  0
TEXT
  7
TextStyle03
  8
寸法
  6
CONTINUOUS
 62
     0
 10
61.8
 20
-69.9875
  1
160
 40
3.0
 50
90.0
 72
     5
 11
61.8
 21
-65.1125
  0
ENDBLK
  0
BLOCK
  2
*DIM_0003
 70
    65
 10
0.0
 20
0.0
  0
LINE
  8
寸法
  6
BYBLOCK
 62
     0
 10
80.244043
 20
22.814033
 11
80.244043
 21
42.814033
  0
POINT
  8
寸法
 62
     0
 10
80.244043
 20
22.814033
  0
POINT
  8
寸法
 62
     0
 10
80.244043
 20
42.814033
  0
TEXT
  7
TextStyle03
  8
寸法
  6
CONTINUOUS
 62
     0
 10
79.85
 20
21.925
  1
呼称寸法　600
 40
3.0
 50
90.0
 72
     5
 11
79.85
 21
43.675
  0
ENDBLK
  0
BLOCK
  2
*DIM_0004
 70
    65
 10
0.0
 20
0.0
  0
LINE
  8
寸法
  6
BYBLOCK
 62
     0
 10
130.424325
 20
33.814033
 11
130.424325
 21
60.666798
  0
LINE
  8
寸法
  6
BYBLOCK
 62
     0
 10
135.757657
 20
60.666798
 11
130.424325
 21
60.666798
  0
POINT
  8
寸法
 62
     0
 10
135.757657
 20
60.666798
  0
POINT
  8
寸法
 62
     0
 10
130.424325
 20
60.666798
  0
TEXT
  7
TextStyle03
  8
寸法
  6
CONTINUOUS
 62
     0
 10
130.6375
 20
61.025
  1
160
 40
3.0
 72
     5
 11
135.5125
 21
61.025
  0
ENDBLK
  0
BLOCK
  2
*DIM_0005
 70
    65
 10
0.0
 20
0.0
  0
LINE
  8
寸法
  6
BYBLOCK
 62
     0
 10
142.310947
 20
-63.785395
 11
150.422478
 21
-63.785395
  0
LINE
  8
寸法
  6
BYBLOCK
 62
     0
 10
142.310947
 20
-83.118728
 11
150.422478
 21
-83.118728
  0
LINE
  8
寸法
  6
BYBLOCK
 62
     0
 10
150.422478
 20
-63.785395
 11
150.422478
 21
-83.118728
  0
POINT
  8
寸法
 62
     0
 10
150.422478
 20
-63.785395
  0
POINT
  8
寸法
 62
     0
 10
150.422478
 20
-83.118728
  0
TEXT
  7
TextStyle03
  8
寸法
  6
CONTINUOUS
 62
     0
 10
150.025
 20
-75.9125
  1
580
 40
3.0
 50
90.0
 72
     5
 11
150.025
 21
-71.0375
  0
ENDBLK
  0
BLOCK
  2
*DIM_0006
 70
    65
 10
0.0
 20
0.0
  0
LINE
  8
寸法
  6
BYBLOCK
 62
     0
 10
46.224393
 20
-13.121378
 11
-120.442275
 21
-13.121378
  0
POINT
  8
寸法
 62
     0
 10
46.224393
 20
-13.121378
  0
POINT
  8
寸法
 62
     0
 10
-120.442275
 20
-13.121378
  0
TEXT
  7
TextStyle03
  8
寸法
  6
CONTINUOUS
 62
     0
 10
-48.84375
 20
-12.75
  1
呼称寸法　5000
 40
3.0
 72
     5
 11
-25.40625
 21
-12.75
  0
ENDBLK
  0
BLOCK
  2
*DIM_0007
 70
    65
 10
0.0
 20
0.0
  0
LINE
  8
寸法
  6
BYBLOCK
 62
     0
 10
141.310947
 20
-62.785395
 11
141.310947
 21
-53.150413
  0
LINE
  8
寸法
  6
BYBLOCK
 62
     0
 10
108.96428
 20
-62.785395
 11
108.96428
 21
-53.150413
  0
LINE
  8
寸法
  6
BYBLOCK
 62
     0
 10
141.310947
 20
-53.150413
 11
108.96428
 21
-53.150413
  0
POINT
  8
寸法
 62
     0
 10
141.310947
 20
-53.150413
  0
POINT
  8
寸法
 62
     0
 10
108.96428
 20
-53.150413
  0
TEXT
  7
TextStyle03
  8
寸法
  6
CONTINUOUS
 62
     0
 10
121.0
 20
-52.8
  1
970.4
 40
3.0
 72
     5
 11
129.25
 21
-52.8
  0
ENDBLK
  0
BLOCK
  2
*DIM_0008
 70
    65
 10
0.0
 20
0.0
  0
LINE
  8
寸法
  6
BYBLOCK
 62
     0
 10
-103.775608
 20
19.183902
 11
-103.775608
 21
14.041447
  0
LINE
  8
寸法
  6
BYBLOCK
 62
     0
 10
-37.10894
 20
19.183905
 11
-37.10894
 21
14.041447
  0
LINE
  8
寸法
  6
BYBLOCK
 62
     0
 10
-103.775608
 20
14.041447
 11
-37.10894
 21
14.041447
  0
POINT
  8
寸法
 62
     0
 10
-103.775608
 20
14.041447
  0
POINT
  8
寸法
 62
     0
 10
-37.10894
 20
14.041447
  0
TEXT
  7
TextStyle03
  8
寸法
  6
CONTINUOUS
 62
     0
 10
-73.73125
 20
14.4
  1
2000
 40
3.0
 72
     5
 11
-67.16875
 21
14.4
  0
ENDBLK
  0
BLOCK
  2
*DIM_0009
 70
    65
 10
0.0
 20
0.0
  0
LINE
  8
寸法
  6
BYBLOCK
 62
     0
 10
29.557727
 20
19.183902
 11
29.557727
 21
14.041447
  0
LINE
  8
寸法
  6
BYBLOCK
 62
     0
 10
-37.10894
 20
14.041447
 11
29.557727
 21
14.041447
  0
POINT
  8
寸法
 62
     0
 10
29.557727
 20
14.041447
  0
TEXT
  7
TextStyle03
  8
寸法
  6
CONTINUOUS
 62
     0
 10
-7.08125
 20
14.4
  1
2000
 40
3.0
 72
     5
 11
-0.51875
 21
14.4
  0
ENDBLK
  0
BLOCK
  2
*DIM_0010
 70
    65
 10
0.0
 20
0.0
  0
LINE
  8
寸法
  6
BYBLOCK
 62
     0
 10
47.224393
 20
42.814035
 11
56.948675
 21
42.814035
  0
LINE
  8
寸法
  6
BYBLOCK
 62
     0
 10
49.854522
 20
39.114035
 11
56.948675
 21
39.114035
  0
LINE
  8
寸法
  6
BYBLOCK
 62
     0
 10
56.948675
 20
42.814035
 11
56.948675
 21
39.114035
  0
POINT
  8
寸法
 62
     0
 10
56.948675
 20
42.814035
  0
POINT
  8
寸法
 62
     0
 10
56.948675
 20
39.114035
  0
TEXT
  7
TextStyle03
  8
寸法
  6
CONTINUOUS
 62
     0
 10
56.625
 20
43.8125
  1
111
 40
3.0
 50
90.0
 72
     5
 11
56.625
 21
48.6875
  0
ENDBLK
  0
BLOCK
  2
*DIM_0011
 70
    65
 10
0.0
 20
0.0
  0
LINE
  8
寸法
  6
BYBLOCK
 62
     0
 10
47.224393
 20
22.81403
 11
56.948675
 21
22.814027
  0
LINE
  8
寸法
  6
BYBLOCK
 62
     0
 10
49.854522
 20
26.51403
 11
56.948675
 21
26.514027
  0
LINE
  8
寸法
  6
BYBLOCK
 62
     0
 10
56.948675
 20
22.814027
 11
56.948675
 21
26.514027
  0
POINT
  8
寸法
 62
     0
 10
56.948675
 20
22.814027
  0
POINT
  8
寸法
 62
     0
 10
56.948675
 20
26.514027
  0
TEXT
  7
TextStyle03
  8
寸法
  6
CONTINUOUS
 62
     0
 10
56.95
 20
16.5625
  1
111
 40
3.0
 50
90.0
 72
     5
 11
56.95
 21
21.4375
  0
ENDBLK
  0
BLOCK
  2
*GRP_0012
 70
    65
 10
0.0
 20
0.0
  0
LINE
  8
別途部材
  6
CONTINUOUS
 62
    96
 10
-122.10894
 20
-70.209613
 11
-122.50894
 21
-71.209613
  0
ARC
  8
別途部材
  6
CONTINUOUS
 10
-110.442273
 20
-76.917944
 40
12.041668
 50
90.0
 51
146.144967
  0
LINE
  8
別途部材
  6
CONTINUOUS
 62
    96
 10
-122.10894
 20
-70.209613
 11
-37.10894
 21
-70.209613
  0
LINE
  8
別途部材
  6
CONTINUOUS
 10
-122.50894
 20
-71.209613
 11
-37.10894
 21
-71.209613
  0
LINE
  8
別途部材
  6
CONTINUOUS
 10
-37.60894
 20
-63.87628
 11
-38.60894
 21
-64.87628
  0
LINE
  8
別途部材
  6
CONTINUOUS
 10
-39.60894
 20
-64.87628
 11
-40.60894
 21
-63.87628
  0
LINE
  8
別途部材
  6
CONTINUOUS
 10
-41.60894
 20
-63.87628
 11
-42.60894
 21
-64.87628
  0
LINE
  8
別途部材
  6
CONTINUOUS
 10
-40.60894
 20
-63.87628
 11
-41.60894
 21
-63.87628
  0
LINE
  8
別途部材
  6
CONTINUOUS
 10
-37.60894
 20
-63.87628
 11
-37.10894
 21
-63.87628
  0
LINE
  8
別途部材
  6
CONTINUOUS
 10
-43.60894
 20
-64.87628
 11
-44.60894
 21
-63.87628
  0
LINE
  8
別途部材
  6
CONTINUOUS
 10
-45.60894
 20
-63.87628
 11
-46.60894
 21
-64.87628
  0
LINE
  8
別途部材
  6
CONTINUOUS
 10
-44.60894
 20
-63.87628
 11
-45.60894
 21
-63.87628
  0
LINE
  8
別途部材
  6
CONTINUOUS
 10
-47.60894
 20
-64.87628
 11
-48.60894
 21
-63.87628
  0
LINE
  8
別途部材
  6
CONTINUOUS
 10
-49.60894
 20
-63.87628
 11
-50.60894
 21
-64.87628
  0
LINE
  8
別途部材
  6
CONTINUOUS
 10
-48.60894
 20
-63.87628
 11
-49.60894
 21
-63.87628
  0
LINE
  8
別途部材
  6
CONTINUOUS
 10
-51.60894
 20
-64.87628
 11
-52.60894
 21
-63.87628
  0
LINE
  8
別途部材
  6
CONTINUOUS
 10
-53.60894
 20
-63.87628
 11
-54.60894
 21
-64.87628
  0
LINE
  8
別途部材
  6
CONTINUOUS
 10
-52.60894
 20
-63.87628
 11
-53.60894
 21
-63.87628
  0
LINE
  8
別途部材
  6
CONTINUOUS
 10
-55.60894
 20
-64.87628
 11
-56.60894
 21
-63.87628
  0
LINE
  8
別途部材
  6
CONTINUOUS
 10
-57.60894
 20
-63.87628
 11
-58.60894
 21
-64.87628
  0
LINE
  8
別途部材
  6
CONTINUOUS
 10
-56.60894
 20
-63.87628
 11
-57.60894
 21
-63.87628
  0
LINE
  8
別途部材
  6
CONTINUOUS
 10
-59.60894
 20
-64.87628
 11
-60.60894
 21
-63.87628
  0
LINE
  8
別途部材
  6
CONTINUOUS
 10
-61.60894
 20
-63.87628
 11
-62.60894
 21
-64.87628
  0
LINE
  8
別途部材
  6
CONTINUOUS
 10
-60.60894
 20
-63.87628
 11
-61.60894
 21
-63.87628
  0
LINE
  8
別途部材
  6
CONTINUOUS
 10
-63.60894
 20
-64.87628
 11
-64.60894
 21
-63.87628
  0
LINE
  8
別途部材
  6
CONTINUOUS
 10
-65.60894
 20
-63.87628
 11
-66.60894
 21
-64.87628
  0
LINE
  8
別途部材
  6
CONTINUOUS
 10
-64.60894
 20
-63.87628
 11
-65.60894
 21
-63.87628
  0
LINE
  8
別途部材
  6
CONTINUOUS
 10
-67.60894
 20
-64.87628
 11
-68.60894
 21
-63.87628
  0
LINE
  8
別途部材
  6
CONTINUOUS
 10
-69.60894
 20
-63.87628
 11
-70.60894
 21
-64.87628
  0
LINE
  8
別途部材
  6
CONTINUOUS
 10
-68.60894
 20
-63.87628
 11
-69.60894
 21
-63.87628
  0
LINE
  8
別途部材
  6
CONTINUOUS
 10
-71.60894
 20
-64.87628
 11
-72.60894
 21
-63.87628
  0
LINE
  8
別途部材
  6
CONTINUOUS
 10
-73.60894
 20
-63.87628
 11
-74.60894
 21
-64.87628
  0
LINE
  8
別途部材
  6
CONTINUOUS
 10
-72.60894
 20
-63.87628
 11
-73.60894
 21
-63.87628
  0
LINE
  8
別途部材
  6
CONTINUOUS
 10
-75.60894
 20
-64.87628
 11
-76.60894
 21
-63.87628
  0
LINE
  8
別途部材
  6
CONTINUOUS
 10
-77.60894
 20
-63.87628
 11
-78.60894
 21
-64.87628
  0
LINE
  8
別途部材
  6
CONTINUOUS
 10
-76.60894
 20
-63.87628
 11
-77.60894
 21
-63.87628
  0
LINE
  8
別途部材
  6
CONTINUOUS
 10
-79.60894
 20
-64.87628
 11
-80.60894
 21
-63.87628
  0
LINE
  8
別途部材
  6
CONTINUOUS
 10
-81.60894
 20
-63.87628
 11
-82.60894
 21
-64.87628
  0
LINE
  8
別途部材
  6
CONTINUOUS
 10
-80.60894
 20
-63.87628
 11
-81.60894
 21
-63.87628
  0
LINE
  8
別途部材
  6
CONTINUOUS
 10
-78.60894
 20
-64.87628
 11
-79.60894
 21
-64.87628
  0
LINE
  8
別途部材
  6
CONTINUOUS
 10
-74.60894
 20
-64.87628
 11
-75.60894
 21
-64.87628
  0
LINE
  8
別途部材
  6
CONTINUOUS
 10
-70.60894
 20
-64.87628
 11
-71.60894
 21
-64.87628
  0
LINE
  8
別途部材
  6
CONTINUOUS
 10
-66.60894
 20
-64.87628
 11
-67.60894
 21
-64.87628
  0
LINE
  8
別途部材
  6
CONTINUOUS
 10
-62.60894
 20
-64.87628
 11
-63.60894
 21
-64.87628
  0
LINE
  8
別途部材
  6
CONTINUOUS
 10
-58.60894
 20
-64.87628
 11
-59.60894
 21
-64.87628
  0
LINE
  8
別途部材
  6
CONTINUOUS
 10
-54.60894
 20
-64.87628
 11
-55.60894
 21
-64.87628
  0
LINE
  8
別途部材
  6
CONTINUOUS
 10
-50.60894
 20
-64.87628
 11
-51.60894
 21
-64.87628
  0
LINE
  8
別途部材
  6
CONTINUOUS
 10
-46.60894
 20
-64.87628
 11
-47.60894
 21
-64.87628
  0
LINE
  8
別途部材
  6
CONTINUOUS
 10
-42.60894
 20
-64.87628
 11
-43.60894
 21
-64.87628
  0
LINE
  8
別途部材
  6
CONTINUOUS
 10
-39.60894
 20
-64.87628
 11
-38.60894
 21
-64.87628
  0
LINE
  8
別途部材
  6
CONTINUOUS
 10
-83.60894
 20
-64.87628
 11
-84.60894
 21
-63.87628
  0
LINE
  8
別途部材
  6
CONTINUOUS
 10
-85.60894
 20
-63.87628
 11
-86.60894
 21
-64.87628
  0
LINE
  8
別途部材
  6
CONTINUOUS
 10
-84.60894
 20
-63.87628
 11
-85.60894
 21
-63.87628
  0
LINE
  8
別途部材
  6
CONTINUOUS
 10
-87.60894
 20
-64.87628
 11
-88.60894
 21
-63.87628
  0
LINE
  8
別途部材
  6
CONTINUOUS
 10
-89.60894
 20
-63.87628
 11
-90.60894
 21
-64.87628
  0
LINE
  8
別途部材
  6
CONTINUOUS
 10
-88.60894
 20
-63.87628
 11
-89.60894
 21
-63.87628
  0
LINE
  8
別途部材
  6
CONTINUOUS
 10
-91.60894
 20
-64.87628
 11
-92.60894
 21
-63.87628
  0
LINE
  8
別途部材
  6
CONTINUOUS
 10
-93.60894
 20
-63.87628
 11
-94.60894
 21
-64.87628
  0
LINE
  8
別途部材
  6
CONTINUOUS
 10
-92.60894
 20
-63.87628
 11
-93.60894
 21
-63.87628
  0
LINE
  8
別途部材
  6
CONTINUOUS
 10
-95.60894
 20
-64.87628
 11
-96.60894
 21
-63.87628
  0
LINE
  8
別途部材
  6
CONTINUOUS
 10
-97.60894
 20
-63.87628
 11
-98.60894
 21
-64.87628
  0
LINE
  8
別途部材
  6
CONTINUOUS
 10
-96.60894
 20
-63.87628
 11
-97.60894
 21
-63.87628
  0
LINE
  8
別途部材
  6
CONTINUOUS
 10
-99.60894
 20
-64.87628
 11
-100.60894
 21
-63.87628
  0
LINE
  8
別途部材
  6
CONTINUOUS
 10
-101.60894
 20
-63.87628
 11
-102.60894
 21
-64.87628
  0
LINE
  8
別途部材
  6
CONTINUOUS
 10
-100.60894
 20
-63.87628
 11
-101.60894
 21
-63.87628
  0
LINE
  8
別途部材
  6
CONTINUOUS
 10
-103.60894
 20
-64.87628
 11
-104.60894
 21
-63.87628
  0
LINE
  8
別途部材
  6
CONTINUOUS
 10
-105.60894
 20
-63.87628
 11
-106.60894
 21
-64.87628
  0
LINE
  8
別途部材
  6
CONTINUOUS
 10
-104.60894
 20
-63.87628
 11
-105.60894
 21
-63.87628
  0
LINE
  8
別途部材
  6
CONTINUOUS
 10
-107.60894
 20
-64.87628
 11
-108.60894
 21
-63.87628
  0
LINE
  8
別途部材
  6
CONTINUOUS
 10
-109.60894
 20
-63.87628
 11
-110.60894
 21
-64.87628
  0
LINE
  8
別途部材
  6
CONTINUOUS
 10
-108.60894
 20
-63.87628
 11
-109.60894
 21
-63.87628
  0
LINE
  8
別途部材
  6
CONTINUOUS
 10
-106.60894
 20
-64.87628
 11
-107.60894
 21
-64.87628
  0
LINE
  8
別途部材
  6
CONTINUOUS
 10
-102.60894
 20
-64.87628
 11
-103.60894
 21
-64.87628
  0
LINE
  8
別途部材
  6
CONTINUOUS
 10
-98.60894
 20
-64.87628
 11
-99.60894
 21
-64.87628
  0
LINE
  8
別途部材
  6
CONTINUOUS
 10
-94.60894
 20
-64.87628
 11
-95.60894
 21
-64.87628
  0
LINE
  8
別途部材
  6
CONTINUOUS
 10
-90.60894
 20
-64.87628
 11
-91.60894
 21
-64.87628
  0
LINE
  8
別途部材
  6
CONTINUOUS
 10
-86.60894
 20
-64.87628
 11
-87.60894
 21
-64.87628
  0
LINE
  8
別途部材
  6
CONTINUOUS
 10
-82.60894
 20
-64.87628
 11
-83.60894
 21
-64.87628
  0
LINE
  8
別途部材
  6
CONTINUOUS
 10
-110.60894
 20
-64.87628
 11
-110.60894
 21
-70.209613
  0
LINE
  8
別途部材
  6
CONTINUOUS
 10
-109.60894
 20
-63.87628
 11
-109.60894
 21
-70.209613
  0
LINE
  8
別途部材
  6
CONTINUOUS
 10
-107.60894
 20
-64.87628
 11
-107.60894
 21
-70.209613
  0
LINE
  8
別途部材
  6
CONTINUOUS
 10
-108.60894
 20
-63.87628
 11
-108.60894
 21
-70.209613
  0
LINE
  8
別途部材
  6
CONTINUOUS
 10
-105.60894
 20
-63.87628
 11
-105.60894
 21
-70.209613
  0
LINE
  8
別途部材
  6
CONTINUOUS
 10
-106.60894
 20
-64.87628
 11
-106.60894
 21
-70.209613
  0
LINE
  8
別途部材
  6
CONTINUOUS
 10
-104.60894
 20
-63.87628
 11
-104.60894
 21
-70.209613
  0
LINE
  8
別途部材
  6
CONTINUOUS
 10
-103.60894
 20
-64.87628
 11
-103.60894
 21
-70.209613
  0
LINE
  8
別途部材
  6
CONTINUOUS
 10
-101.60894
 20
-63.87628
 11
-101.60894
 21
-70.209613
  0
LINE
  8
別途部材
  6
CONTINUOUS
 10
-102.60894
 20
-64.87628
 11
-102.60894
 21
-70.209613
  0
LINE
  8
別途部材
  6
CONTINUOUS
 10
-99.60894
 20
-64.87628
 11
-99.60894
 21
-70.209613
  0
LINE
  8
別途部材
  6
CONTINUOUS
 10
-100.60894
 20
-63.87628
 11
-100.60894
 21
-70.209613
  0
LINE
  8
別途部材
  6
CONTINUOUS
 10
-98.60894
 20
-64.87628
 11
-98.60894
 21
-70.209613
  0
LINE
  8
別途部材
  6
CONTINUOUS
 10
-96.60894
 20
-63.87628
 11
-96.60894
 21
-70.209613
  0
LINE
  8
別途部材
  6
CONTINUOUS
 10
-97.60894
 20
-63.87628
 11
-97.60894
 21
-70.209613
  0
LINE
  8
別途部材
  6
CONTINUOUS
 10
-95.60894
 20
-64.87628
 11
-95.60894
 21
-70.209613
  0
LINE
  8
別途部材
  6
CONTINUOUS
 10
-94.60894
 20
-64.87628
 11
-94.60894
 21
-70.209613
  0
LINE
  8
別途部材
  6
CONTINUOUS
 10
-93.60894
 20
-63.87628
 11
-93.60894
 21
-70.209613
  0
LINE
  8
別途部材
  6
CONTINUOUS
 10
-92.60894
 20
-63.87628
 11
-92.60894
 21
-70.209613
  0
LINE
  8
別途部材
  6
CONTINUOUS
 10
-89.60894
 20
-63.87628
 11
-89.60894
 21
-70.209613
  0
LINE
  8
別途部材
  6
CONTINUOUS
 10
-87.60894
 20
-64.87628
 11
-87.60894
 21
-70.209613
  0
LINE
  8
別途部材
  6
CONTINUOUS
 10
-88.60894
 20
-63.87628
 11
-88.60894
 21
-70.209613
  0
LINE
  8
別途部材
  6
CONTINUOUS
 10
-90.60894
 20
-64.87628
 11
-90.60894
 21
-70.209613
  0
LINE
  8
別途部材
  6
CONTINUOUS
 10
-91.60894
 20
-64.87628
 11
-91.60894
 21
-70.209613
  0
LINE
  8
別途部材
  6
CONTINUOUS
 10
-86.60894
 20
-64.87628
 11
-86.60894
 21
-70.209613
  0
LINE
  8
別途部材
  6
CONTINUOUS
 10
-84.60894
 20
-63.87628
 11
-84.60894
 21
-70.209613
  0
LINE
  8
別途部材
  6
CONTINUOUS
 10
-85.60894
 20
-63.87628
 11
-85.60894
 21
-70.209613
  0
LINE
  8
別途部材
  6
CONTINUOUS
 10
-83.60894
 20
-64.87628
 11
-83.60894
 21
-70.209613
  0
LINE
  8
別途部材
  6
CONTINUOUS
 10
-81.60894
 20
-63.87628
 11
-81.60894
 21
-70.209613
  0
LINE
  8
別途部材
  6
CONTINUOUS
 10
-82.60894
 20
-64.87628
 11
-82.60894
 21
-70.209613
  0
LINE
  8
別途部材
  6
CONTINUOUS
 10
-80.60894
 20
-63.87628
 11
-80.60894
 21
-70.209613
  0
LINE
  8
別途部材
  6
CONTINUOUS
 10
-79.60894
 20
-64.87628
 11
-79.60894
 21
-70.209613
  0
LINE
  8
別途部材
  6
CONTINUOUS
 10
-77.60894
 20
-63.87628
 11
-77.60894
 21
-70.209613
  0
LINE
  8
別途部材
  6
CONTINUOUS
 10
-78.60894
 20
-64.87628
 11
-78.60894
 21
-70.209613
  0
LINE
  8
別途部材
  6
CONTINUOUS
 10
-74.60894
 20
-64.87628
 11
-74.60894
 21
-70.209613
  0
LINE
  8
別途部材
  6
CONTINUOUS
 10
-75.60894
 20
-64.87628
 11
-75.60894
 21
-70.209613
  0
LINE
  8
別途部材
  6
CONTINUOUS
 10
-76.60894
 20
-63.87628
 11
-76.60894
 21
-70.209613
  0
LINE
  8
別途部材
  6
CONTINUOUS
 10
-73.60894
 20
-63.87628
 11
-73.60894
 21
-70.209613
  0
LINE
  8
別途部材
  6
CONTINUOUS
 10
-72.60894
 20
-63.87628
 11
-72.60894
 21
-70.209613
  0
LINE
  8
別途部材
  6
CONTINUOUS
 10
-71.60894
 20
-64.87628
 11
-71.60894
 21
-70.209613
  0
LINE
  8
別途部材
  6
CONTINUOUS
 10
-69.60894
 20
-63.87628
 11
-69.60894
 21
-70.209613
  0
LINE
  8
別途部材
  6
CONTINUOUS
 10
-65.60894
 20
-63.87628
 11
-65.60894
 21
-70.209613
  0
LINE
  8
別途部材
  6
CONTINUOUS
 10
-66.60894
 20
-64.87628
 11
-66.60894
 21
-70.209613
  0
LINE
  8
別途部材
  6
CONTINUOUS
 10
-67.60894
 20
-64.87628
 11
-67.60894
 21
-70.209613
  0
LINE
  8
別途部材
  6
CONTINUOUS
 10
-68.60894
 20
-63.87628
 11
-68.60894
 21
-70.209613
  0
LINE
  8
別途部材
  6
CONTINUOUS
 10
-70.60894
 20
-64.87628
 11
-70.60894
 21
-70.209613
  0
LINE
  8
別途部材
  6
CONTINUOUS
 10
-63.60894
 20
-64.87628
 11
-63.60894
 21
-70.209613
  0
LINE
  8
別途部材
  6
CONTINUOUS
 10
-64.60894
 20
-63.87628
 11
-64.60894
 21
-70.209613
  0
LINE
  8
別途部材
  6
CONTINUOUS
 10
-62.60894
 20
-64.87628
 11
-62.60894
 21
-70.209613
  0
LINE
  8
別途部材
  6
CONTINUOUS
 10
-61.60894
 20
-63.87628
 11
-61.60894
 21
-70.209613
  0
LINE
  8
別途部材
  6
CONTINUOUS
 10
-57.60894
 20
-63.87628
 11
-57.60894
 21
-70.209613
  0
LINE
  8
別途部材
  6
CONTINUOUS
 10
-56.60894
 20
-63.87628
 11
-56.60894
 21
-70.209613
  0
LINE
  8
別途部材
  6
CONTINUOUS
 10
-58.60894
 20
-64.87628
 11
-58.60894
 21
-70.209613
  0
LINE
  8
別途部材
  6
CONTINUOUS
 10
-59.60894
 20
-64.87628
 11
-59.60894
 21
-70.209613
  0
LINE
  8
別途部材
  6
CONTINUOUS
 10
-60.60894
 20
-63.87628
 11
-60.60894
 21
-70.209613
  0
LINE
  8
別途部材
  6
CONTINUOUS
 10
-55.60894
 20
-64.87628
 11
-55.60894
 21
-70.209613
  0
LINE
  8
別途部材
  6
CONTINUOUS
 10
-53.60894
 20
-63.87628
 11
-53.60894
 21
-70.209613
  0
LINE
  8
別途部材
  6
CONTINUOUS
 10
-52.60894
 20
-63.87628
 11
-52.60894
 21
-70.209613
  0
LINE
  8
別途部材
  6
CONTINUOUS
 10
-51.60894
 20
-64.87628
 11
-51.60894
 21
-70.209613
  0
LINE
  8
別途部材
  6
CONTINUOUS
 10
-50.60894
 20
-64.87628
 11
-50.60894
 21
-70.209613
  0
LINE
  8
別途部材
  6
CONTINUOUS
 10
-49.60894
 20
-63.87628
 11
-49.60894
 21
-70.209613
  0
LINE
  8
別途部材
  6
CONTINUOUS
 10
-54.60894
 20
-64.87628
 11
-54.60894
 21
-70.209613
  0
LINE
  8
別途部材
  6
CONTINUOUS
 10
-48.60894
 20
-63.87628
 11
-48.60894
 21
-70.209613
  0
LINE
  8
別途部材
  6
CONTINUOUS
 10
-47.60894
 20
-64.87628
 11
-47.60894
 21
-70.209613
  0
LINE
  8
別途部材
  6
CONTINUOUS
 10
-46.60894
 20
-64.87628
 11
-46.60894
 21
-70.209613
  0
LINE
  8
別途部材
  6
CONTINUOUS
 10
-44.60894
 20
-63.87628
 11
-44.60894
 21
-70.209613
  0
LINE
  8
別途部材
  6
CONTINUOUS
 10
-42.60894
 20
-64.87628
 11
-42.60894
 21
-70.209613
  0
LINE
  8
別途部材
  6
CONTINUOUS
 10
-41.60894
 20
-63.87628
 11
-41.60894
 21
-70.209613
  0
LINE
  8
別途部材
  6
CONTINUOUS
 10
-39.60894
 20
-64.87628
 11
-39.60894
 21
-70.209613
  0
LINE
  8
別途部材
  6
CONTINUOUS
 10
-38.60894
 20
-64.87628
 11
-38.60894
 21
-70.209613
  0
LINE
  8
別途部材
  6
CONTINUOUS
 10
-37.60894
 20
-63.87628
 11
-37.60894
 21
-70.209613
  0
LINE
  8
別途部材
  6
CONTINUOUS
 10
-40.60894
 20
-63.87628
 11
-40.60894
 21
-70.209613
  0
LINE
  8
別途部材
  6
CONTINUOUS
 10
-43.60894
 20
-64.87628
 11
-43.60894
 21
-70.209613
  0
LINE
  8
別途部材
  6
CONTINUOUS
 10
-45.60894
 20
-63.87628
 11
-45.60894
 21
-70.209613
  0
LINE
  8
別途部材
  6
CONTINUOUS
 62
    96
 10
47.89106
 20
-70.209613
 11
48.29106
 21
-71.209613
  0
ARC
  8
別途部材
  6
CONTINUOUS
 10
36.224393
 20
-76.917944
 40
12.041668
 50
33.855033
 51
90.0
  0
LINE
  8
別途部材
  6
CONTINUOUS
 62
    96
 10
47.89106
 20
-70.209613
 11
-37.10894
 21
-70.209613
  0
LINE
  8
別途部材
  6
CONTINUOUS
 10
48.29106
 20
-71.209613
 11
-37.10894
 21
-71.209613
  0
LINE
  8
別途部材
  6
CONTINUOUS
 10
-36.60894
 20
-63.87628
 11
-35.60894
 21
-64.87628
  0
LINE
  8
別途部材
  6
CONTINUOUS
 10
-34.60894
 20
-64.87628
 11
-33.60894
 21
-63.87628
  0
LINE
  8
別途部材
  6
CONTINUOUS
 10
-32.60894
 20
-63.87628
 11
-31.60894
 21
-64.87628
  0
LINE
  8
別途部材
  6
CONTINUOUS
 10
-33.60894
 20
-63.87628
 11
-32.60894
 21
-63.87628
  0
LINE
  8
別途部材
  6
CONTINUOUS
 10
-36.60894
 20
-63.87628
 11
-37.10894
 21
-63.87628
  0
LINE
  8
別途部材
  6
CONTINUOUS
 10
-30.60894
 20
-64.87628
 11
-29.60894
 21
-63.87628
  0
LINE
  8
別途部材
  6
CONTINUOUS
 10
-28.60894
 20
-63.87628
 11
-27.60894
 21
-64.87628
  0
LINE
  8
別途部材
  6
CONTINUOUS
 10
-29.60894
 20
-63.87628
 11
-28.60894
 21
-63.87628
  0
LINE
  8
別途部材
  6
CONTINUOUS
 10
-26.60894
 20
-64.87628
 11
-25.60894
 21
-63.87628
  0
LINE
  8
別途部材
  6
CONTINUOUS
 10
-24.60894
 20
-63.87628
 11
-23.60894
 21
-64.87628
  0
LINE
  8
別途部材
  6
CONTINUOUS
 10
-25.60894
 20
-63.87628
 11
-24.60894
 21
-63.87628
  0
LINE
  8
別途部材
  6
CONTINUOUS
 10
-22.60894
 20
-64.87628
 11
-21.60894
 21
-63.87628
  0
LINE
  8
別途部材
  6
CONTINUOUS
 10
-20.60894
 20
-63.87628
 11
-19.60894
 21
-64.87628
  0
LINE
  8
別途部材
  6
CONTINUOUS
 10
-21.60894
 20
-63.87628
 11
-20.60894
 21
-63.87628
  0
LINE
  8
別途部材
  6
CONTINUOUS
 10
-18.60894
 20
-64.87628
 11
-17.60894
 21
-63.87628
  0
LINE
  8
別途部材
  6
CONTINUOUS
 10
-16.60894
 20
-63.87628
 11
-15.60894
 21
-64.87628
  0
LINE
  8
別途部材
  6
CONTINUOUS
 10
-17.60894
 20
-63.87628
 11
-16.60894
 21
-63.87628
  0
LINE
  8
別途部材
  6
CONTINUOUS
 10
-14.60894
 20
-64.87628
 11
-13.60894
 21
-63.87628
  0
LINE
  8
別途部材
  6
CONTINUOUS
 10
-12.60894
 20
-63.87628
 11
-11.60894
 21
-64.87628
  0
LINE
  8
別途部材
  6
CONTINUOUS
 10
-13.60894
 20
-63.87628
 11
-12.60894
 21
-63.87628
  0
LINE
  8
別途部材
  6
CONTINUOUS
 10
-10.60894
 20
-64.87628
 11
-9.60894
 21
-63.87628
  0
LINE
  8
別途部材
  6
CONTINUOUS
 10
-8.60894
 20
-63.87628
 11
-7.60894
 21
-64.87628
  0
LINE
  8
別途部材
  6
CONTINUOUS
 10
-9.60894
 20
-63.87628
 11
-8.60894
 21
-63.87628
  0
LINE
  8
別途部材
  6
CONTINUOUS
 10
-6.60894
 20
-64.87628
 11
-5.60894
 21
-63.87628
  0
LINE
  8
別途部材
  6
CONTINUOUS
 10
-4.60894
 20
-63.87628
 11
-3.60894
 21
-64.87628
  0
LINE
  8
別途部材
  6
CONTINUOUS
 10
-5.60894
 20
-63.87628
 11
-4.60894
 21
-63.87628
  0
LINE
  8
別途部材
  6
CONTINUOUS
 10
-2.60894
 20
-64.87628
 11
-1.60894
 21
-63.87628
  0
LINE
  8
別途部材
  6
CONTINUOUS
 10
-0.60894
 20
-63.87628
 11
0.39106
 21
-64.87628
  0
LINE
  8
別途部材
  6
CONTINUOUS
 10
-1.60894
 20
-63.87628
 11
-0.60894
 21
-63.87628
  0
LINE
  8
別途部材
  6
CONTINUOUS
 10
1.39106
 20
-64.87628
 11
2.39106
 21
-63.87628
  0
LINE
  8
別途部材
  6
CONTINUOUS
 10
3.39106
 20
-63.87628
 11
4.39106
 21
-64.87628
  0
LINE
  8
別途部材
  6
CONTINUOUS
 10
2.39106
 20
-63.87628
 11
3.39106
 21
-63.87628
  0
LINE
  8
別途部材
  6
CONTINUOUS
 10
5.39106
 20
-64.87628
 11
6.39106
 21
-63.87628
  0
LINE
  8
別途部材
  6
CONTINUOUS
 10
7.39106
 20
-63.87628
 11
8.39106
 21
-64.87628
  0
LINE
  8
別途部材
  6
CONTINUOUS
 10
6.39106
 20
-63.87628
 11
7.39106
 21
-63.87628
  0
LINE
  8
別途部材
  6
CONTINUOUS
 10
4.39106
 20
-64.87628
 11
5.39106
 21
-64.87628
  0
LINE
  8
別途部材
  6
CONTINUOUS
 10
0.39106
 20
-64.87628
 11
1.39106
 21
-64.87628
  0
LINE
  8
別途部材
  6
CONTINUOUS
 10
-3.60894
 20
-64.87628
 11
-2.60894
 21
-64.87628
  0
LINE
  8
別途部材
  6
CONTINUOUS
 10
-7.60894
 20
-64.87628
 11
-6.60894
 21
-64.87628
  0
LINE
  8
別途部材
  6
CONTINUOUS
 10
-11.60894
 20
-64.87628
 11
-10.60894
 21
-64.87628
  0
LINE
  8
別途部材
  6
CONTINUOUS
 10
-15.60894
 20
-64.87628
 11
-14.60894
 21
-64.87628
  0
LINE
  8
別途部材
  6
CONTINUOUS
 10
-19.60894
 20
-64.87628
 11
-18.60894
 21
-64.87628
  0
LINE
  8
別途部材
  6
CONTINUOUS
 10
-23.60894
 20
-64.87628
 11
-22.60894
 21
-64.87628
  0
LINE
  8
別途部材
  6
CONTINUOUS
 10
-27.60894
 20
-64.87628
 11
-26.60894
 21
-64.87628
  0
LINE
  8
別途部材
  6
CONTINUOUS
 10
-31.60894
 20
-64.87628
 11
-30.60894
 21
-64.87628
  0
LINE
  8
別途部材
  6
CONTINUOUS
 10
-34.60894
 20
-64.87628
 11
-35.60894
 21
-64.87628
  0
LINE
  8
別途部材
  6
CONTINUOUS
 10
9.39106
 20
-64.87628
 11
10.39106
 21
-63.87628
  0
LINE
  8
別途部材
  6
CONTINUOUS
 10
11.39106
 20
-63.87628
 11
12.39106
 21
-64.87628
  0
LINE
  8
別途部材
  6
CONTINUOUS
 10
10.39106
 20
-63.87628
 11
11.39106
 21
-63.87628
  0
LINE
  8
別途部材
  6
CONTINUOUS
 10
13.39106
 20
-64.87628
 11
14.39106
 21
-63.87628
  0
LINE
  8
別途部材
  6
CONTINUOUS
 10
15.39106
 20
-63.87628
 11
16.39106
 21
-64.87628
  0
LINE
  8
別途部材
  6
CONTINUOUS
 10
14.39106
 20
-63.87628
 11
15.39106
 21
-63.87628
  0
LINE
  8
別途部材
  6
CONTINUOUS
 10
17.39106
 20
-64.87628
 11
18.39106
 21
-63.87628
  0
LINE
  8
別途部材
  6
CONTINUOUS
 10
19.39106
 20
-63.87628
 11
20.39106
 21
-64.87628
  0
LINE
  8
別途部材
  6
CONTINUOUS
 10
18.39106
 20
-63.87628
 11
19.39106
 21
-63.87628
  0
LINE
  8
別途部材
  6
CONTINUOUS
 10
21.39106
 20
-64.87628
 11
22.39106
 21
-63.87628
  0
LINE
  8
別途部材
  6
CONTINUOUS
 10
23.39106
 20
-63.87628
 11
24.39106
 21
-64.87628
  0
LINE
  8
別途部材
  6
CONTINUOUS
 10
22.39106
 20
-63.87628
 11
23.39106
 21
-63.87628
  0
LINE
  8
別途部材
  6
CONTINUOUS
 10
25.39106
 20
-64.87628
 11
26.39106
 21
-63.87628
  0
LINE
  8
別途部材
  6
CONTINUOUS
 10
27.39106
 20
-63.87628
 11
28.39106
 21
-64.87628
  0
LINE
  8
別途部材
  6
CONTINUOUS
 10
26.39106
 20
-63.87628
 11
27.39106
 21
-63.87628
  0
LINE
  8
別途部材
  6
CONTINUOUS
 10
29.39106
 20
-64.87628
 11
30.39106
 21
-63.87628
  0
LINE
  8
別途部材
  6
CONTINUOUS
 10
31.39106
 20
-63.87628
 11
32.39106
 21
-64.87628
  0
LINE
  8
別途部材
  6
CONTINUOUS
 10
30.39106
 20
-63.87628
 11
31.39106
 21
-63.87628
  0
LINE
  8
別途部材
  6
CONTINUOUS
 10
33.39106
 20
-64.87628
 11
34.39106
 21
-63.87628
  0
LINE
  8
別途部材
  6
CONTINUOUS
 10
35.39106
 20
-63.87628
 11
36.39106
 21
-64.87628
  0
LINE
  8
別途部材
  6
CONTINUOUS
 10
34.39106
 20
-63.87628
 11
35.39106
 21
-63.87628
  0
LINE
  8
別途部材
  6
CONTINUOUS
 10
32.39106
 20
-64.87628
 11
33.39106
 21
-64.87628
  0
LINE
  8
別途部材
  6
CONTINUOUS
 10
28.39106
 20
-64.87628
 11
29.39106
 21
-64.87628
  0
LINE
  8
別途部材
  6
CONTINUOUS
 10
24.39106
 20
-64.87628
 11
25.39106
 21
-64.87628
  0
LINE
  8
別途部材
  6
CONTINUOUS
 10
20.39106
 20
-64.87628
 11
21.39106
 21
-64.87628
  0
LINE
  8
別途部材
  6
CONTINUOUS
 10
16.39106
 20
-64.87628
 11
17.39106
 21
-64.87628
  0
LINE
  8
別途部材
  6
CONTINUOUS
 10
12.39106
 20
-64.87628
 11
13.39106
 21
-64.87628
  0
LINE
  8
別途部材
  6
CONTINUOUS
 10
8.39106
 20
-64.87628
 11
9.39106
 21
-64.87628
  0
LINE
  8
別途部材
  6
CONTINUOUS
 10
36.39106
 20
-64.87628
 11
36.39106
 21
-70.209613
  0
LINE
  8
別途部材
  6
CONTINUOUS
 10
35.39106
 20
-63.87628
 11
35.39106
 21
-70.209613
  0
LINE
  8
別途部材
  6
CONTINUOUS
 10
33.39106
 20
-64.87628
 11
33.39106
 21
-70.209613
  0
LINE
  8
別途部材
  6
CONTINUOUS
 10
34.39106
 20
-63.87628
 11
34.39106
 21
-70.209613
  0
LINE
  8
別途部材
  6
CONTINUOUS
 10
31.39106
 20
-63.87628
 11
31.39106
 21
-70.209613
  0
LINE
  8
別途部材
  6
CONTINUOUS
 10
32.39106
 20
-64.87628
 11
32.39106
 21
-70.209613
  0
LINE
  8
別途部材
  6
CONTINUOUS
 10
30.39106
 20
-63.87628
 11
30.39106
 21
-70.209613
  0
LINE
  8
別途部材
  6
CONTINUOUS
 10
29.39106
 20
-64.87628
 11
29.39106
 21
-70.209613
  0
LINE
  8
別途部材
  6
CONTINUOUS
 10
27.39106
 20
-63.87628
 11
27.39106
 21
-70.209613
  0
LINE
  8
別途部材
  6
CONTINUOUS
 10
28.39106
 20
-64.87628
 11
28.39106
 21
-70.209613
  0
LINE
  8
別途部材
  6
CONTINUOUS
 10
25.39106
 20
-64.87628
 11
25.39106
 21
-70.209613
  0
LINE
  8
別途部材
  6
CONTINUOUS
 10
26.39106
 20
-63.87628
 11
26.39106
 21
-70.209613
  0
LINE
  8
別途部材
  6
CONTINUOUS
 10
24.39106
 20
-64.87628
 11
24.39106
 21
-70.209613
  0
LINE
  8
別途部材
  6
CONTINUOUS
 10
22.39106
 20
-63.87628
 11
22.39106
 21
-70.209613
  0
LINE
  8
別途部材
  6
CONTINUOUS
 10
23.39106
 20
-63.87628
 11
23.39106
 21
-70.209613
  0
LINE
  8
別途部材
  6
CONTINUOUS
 10
21.39106
 20
-64.87628
 11
21.39106
 21
-70.209613
  0
LINE
  8
別途部材
  6
CONTINUOUS
 10
20.39106
 20
-64.87628
 11
20.39106
 21
-70.209613
  0
LINE
  8
別途部材
  6
CONTINUOUS
 10
19.39106
 20
-63.87628
 11
19.39106
 21
-70.209613
  0
LINE
  8
別途部材
  6
CONTINUOUS
 10
18.39106
 20
-63.87628
 11
18.39106
 21
-70.209613
  0
LINE
  8
別途部材
  6
CONTINUOUS
 10
15.39106
 20
-63.87628
 11
15.39106
 21
-70.209613
  0
LINE
  8
別途部材
  6
CONTINUOUS
 10
13.39106
 20
-64.87628
 11
13.39106
 21
-70.209613
  0
LINE
  8
別途部材
  6
CONTINUOUS
 10
14.39106
 20
-63.87628
 11
14.39106
 21
-70.209613
  0
LINE
  8
別途部材
  6
CONTINUOUS
 10
16.39106
 20
-64.87628
 11
16.39106
 21
-70.209613
  0
LINE
  8
別途部材
  6
CONTINUOUS
 10
17.39106
 20
-64.87628
 11
17.39106
 21
-70.209613
  0
LINE
  8
別途部材
  6
CONTINUOUS
 10
12.39106
 20
-64.87628
 11
12.39106
 21
-70.209613
  0
LINE
  8
別途部材
  6
CONTINUOUS
 10
10.39106
 20
-63.87628
 11
10.39106
 21
-70.209613
  0
LINE
  8
別途部材
  6
CONTINUOUS
 10
11.39106
 20
-63.87628
 11
11.39106
 21
-70.209613
  0
LINE
  8
別途部材
  6
CONTINUOUS
 10
9.39106
 20
-64.87628
 11
9.39106
 21
-70.209613
  0
LINE
  8
別途部材
  6
CONTINUOUS
 10
7.39106
 20
-63.87628
 11
7.39106
 21
-70.209613
  0
LINE
  8
別途部材
  6
CONTINUOUS
 10
8.39106
 20
-64.87628
 11
8.39106
 21
-70.209613
  0
LINE
  8
別途部材
  6
CONTINUOUS
 10
6.39106
 20
-63.87628
 11
6.39106
 21
-70.209613
  0
LINE
  8
別途部材
  6
CONTINUOUS
 10
5.39106
 20
-64.87628
 11
5.39106
 21
-70.209613
  0
LINE
  8
別途部材
  6
CONTINUOUS
 10
3.39106
 20
-63.87628
 11
3.39106
 21
-70.209613
  0
LINE
  8
別途部材
  6
CONTINUOUS
 10
4.39106
 20
-64.87628
 11
4.39106
 21
-70.209613
  0
LINE
  8
別途部材
  6
CONTINUOUS
 10
0.39106
 20
-64.87628
 11
0.39106
 21
-70.209613
  0
LINE
  8
別途部材
  6
CONTINUOUS
 10
1.39106
 20
-64.87628
 11
1.39106
 21
-70.209613
  0
LINE
  8
別途部材
  6
CONTINUOUS
 10
2.39106
 20
-63.87628
 11
2.39106
 21
-70.209613
  0
LINE
  8
別途部材
  6
CONTINUOUS
 10
-0.60894
 20
-63.87628
 11
-0.60894
 21
-70.209613
  0
LINE
  8
別途部材
  6
CONTINUOUS
 10
-1.60894
 20
-63.87628
 11
-1.60894
 21
-70.209613
  0
LINE
  8
別途部材
  6
CONTINUOUS
 10
-2.60894
 20
-64.87628
 11
-2.60894
 21
-70.209613
  0
LINE
  8
別途部材
  6
CONTINUOUS
 10
-4.60894
 20
-63.87628
 11
-4.60894
 21
-70.209613
  0
LINE
  8
別途部材
  6
CONTINUOUS
 10
-8.60894
 20
-63.87628
 11
-8.60894
 21
-70.209613
  0
LINE
  8
別途部材
  6
CONTINUOUS
 10
-7.60894
 20
-64.87628
 11
-7.60894
 21
-70.209613
  0
LINE
  8
別途部材
  6
CONTINUOUS
 10
-6.60894
 20
-64.87628
 11
-6.60894
 21
-70.209613
  0
LINE
  8
別途部材
  6
CONTINUOUS
 10
-5.60894
 20
-63.87628
 11
-5.60894
 21
-70.209613
  0
LINE
  8
別途部材
  6
CONTINUOUS
 10
-3.60894
 20
-64.87628
 11
-3.60894
 21
-70.209613
  0
LINE
  8
別途部材
  6
CONTINUOUS
 10
-10.60894
 20
-64.87628
 11
-10.60894
 21
-70.209613
  0
LINE
  8
別途部材
  6
CONTINUOUS
 10
-9.60894
 20
-63.87628
 11
-9.60894
 21
-70.209613
  0
LINE
  8
別途部材
  6
CONTINUOUS
 10
-11.60894
 20
-64.87628
 11
-11.60894
 21
-70.209613
  0
LINE
  8
別途部材
  6
CONTINUOUS
 10
-12.60894
 20
-63.87628
 11
-12.60894
 21
-70.209613
  0
LINE
  8
別途部材
  6
CONTINUOUS
 10
-16.60894
 20
-63.87628
 11
-16.60894
 21
-70.209613
  0
LINE
  8
別途部材
  6
CONTINUOUS
 10
-17.60894
 20
-63.87628
 11
-17.60894
 21
-70.209613
  0
LINE
  8
別途部材
  6
CONTINUOUS
 10
-15.60894
 20
-64.87628
 11
-15.60894
 21
-70.209613
  0
LINE
  8
別途部材
  6
CONTINUOUS
 10
-14.60894
 20
-64.87628
 11
-14.60894
 21
-70.209613
  0
LINE
  8
別途部材
  6
CONTINUOUS
 10
-13.60894
 20
-63.87628
 11
-13.60894
 21
-70.209613
  0
LINE
  8
別途部材
  6
CONTINUOUS
 10
-18.60894
 20
-64.87628
 11
-18.60894
 21
-70.209613
  0
LINE
  8
別途部材
  6
CONTINUOUS
 10
-20.60894
 20
-63.87628
 11
-20.60894
 21
-70.209613
  0
LINE
  8
別途部材
  6
CONTINUOUS
 10
-21.60894
 20
-63.87628
 11
-21.60894
 21
-70.209613
  0
LINE
  8
別途部材
  6
CONTINUOUS
 10
-22.60894
 20
-64.87628
 11
-22.60894
 21
-70.209613
  0
LINE
  8
別途部材
  6
CONTINUOUS
 10
-23.60894
 20
-64.87628
 11
-23.60894
 21
-70.209613
  0
LINE
  8
別途部材
  6
CONTINUOUS
 10
-24.60894
 20
-63.87628
 11
-24.60894
 21
-70.209613
  0
LINE
  8
別途部材
  6
CONTINUOUS
 10
-19.60894
 20
-64.87628
 11
-19.60894
 21
-70.209613
  0
LINE
  8
別途部材
  6
CONTINUOUS
 10
-25.60894
 20
-63.87628
 11
-25.60894
 21
-70.209613
  0
LINE
  8
別途部材
  6
CONTINUOUS
 10
-26.60894
 20
-64.87628
 11
-26.60894
 21
-70.209613
  0
LINE
  8
別途部材
  6
CONTINUOUS
 10
-27.60894
 20
-64.87628
 11
-27.60894
 21
-70.209613
  0
LINE
  8
別途部材
  6
CONTINUOUS
 10
-29.60894
 20
-63.87628
 11
-29.60894
 21
-70.209613
  0
LINE
  8
別途部材
  6
CONTINUOUS
 10
-31.60894
 20
-64.87628
 11
-31.60894
 21
-70.209613
  0
LINE
  8
別途部材
  6
CONTINUOUS
 10
-32.60894
 20
-63.87628
 11
-32.60894
 21
-70.209613
  0
LINE
  8
別途部材
  6
CONTINUOUS
 10
-34.60894
 20
-64.87628
 11
-34.60894
 21
-70.209613
  0
LINE
  8
別途部材
  6
CONTINUOUS
 10
-35.60894
 20
-64.87628
 11
-35.60894
 21
-70.209613
  0
LINE
  8
別途部材
  6
CONTINUOUS
 10
-36.60894
 20
-63.87628
 11
-36.60894
 21
-70.209613
  0
LINE
  8
別途部材
  6
CONTINUOUS
 10
-33.60894
 20
-63.87628
 11
-33.60894
 21
-70.209613
  0
LINE
  8
別途部材
  6
CONTINUOUS
 10
-30.60894
 20
-64.87628
 11
-30.60894
 21
-70.209613
  0
LINE
  8
別途部材
  6
CONTINUOUS
 10
-28.60894
 20
-63.87628
 11
-28.60894
 21
-70.209613
  0
ENDBLK
  0
BLOCK
  2
*GRP_0013
 70
    65
 10
0.0
 20
0.0
  0
LINE
  8
補助線
  6
BYBLOCK
 62
    64
 10
-100.367813
 20
-75.132358
 11
-100.516738
 21
-75.207183
  0
LINE
  8
補助線
  6
BYBLOCK
 62
    64
 10
-100.479688
 20
-75.095305
 11
-100.404863
 21
-75.244232
  0
LINE
  8
補助線
  6
BYBLOCK
 62
    64
 10
-90.449333
 20
-70.149
 11
-90.59826
 21
-70.223825
  0
LINE
  8
補助線
  6
BYBLOCK
 62
    64
 10
-90.56121
 20
-70.111948
 11
-90.486385
 21
-70.260875
  0
LINE
  8
補助線
  6
BYBLOCK
 62
    64
 10
-80.679782
 20
-65.240467
 11
-80.530855
 21
-65.165643
  0
LINE
  8
補助線
  6
BYBLOCK
 62
    64
 10
-80.642732
 20
-65.12859
 11
-80.567908
 21
-65.277517
  0
LINE
  8
型材断面
  6
CONTINUOUS
 10
-101.114253
 20
-74.574792
 11
-101.336555
 21
-75.246045
  0
LINE
  8
型材断面
  6
CONTINUOUS
 10
-101.336555
 20
-75.246045
 11
-101.037252
 21
-75.84175
  0
LINE
  8
型材断面
  6
CONTINUOUS
 10
-101.037252
 20
-75.84175
 11
-100.366
 21
-76.064052
  0
LINE
  8
型材断面
  6
CONTINUOUS
 10
-80.681595
 20
-64.308775
 11
-80.01034
 21
-64.531077
  0
LINE
  8
型材断面
  6
CONTINUOUS
 10
-80.01034
 20
-64.531077
 11
-79.711038
 21
-65.126782
  0
LINE
  8
型材断面
  6
CONTINUOUS
 10
-79.711038
 20
-65.126782
 11
-79.933342
 21
-65.798035
  0
LINE
  8
型材断面
  6
CONTINUOUS
 10
-101.114253
 20
-74.574792
 11
-80.681595
 21
-64.308775
  0
LINE
  8
型材断面
  6
CONTINUOUS
 10
-100.366
 20
-76.064052
 11
-79.933342
 21
-65.798035
  0
CIRCLE
  8
ボルト／ビス
  6
CONTINUOUS
 10
-100.442275
 20
-75.16977
 40
0.250185
  0
CIRCLE
  8
ボルト／ビス
  6
CONTINUOUS
 10
-100.442275
 20
-75.16977
 40
0.301025
  0
LINE
  8
ボルト／ビス
  6
CONTINUOUS
 62
    64
 10
-100.69204
 20
-75.155267
 11
-100.554595
 21
-74.946217
  0
LINE
  8
ボルト／ビス
  6
CONTINUOUS
 62
    64
 10
-100.30483
 20
-74.96072
 11
-100.554595
 21
-74.946217
  0
LINE
  8
ボルト／ビス
  6
CONTINUOUS
 62
    64
 10
-100.57972
 20
-75.37882
 11
-100.329955
 21
-75.393322
  0
LINE
  8
ボルト／ビス
  6
CONTINUOUS
 62
    64
 10
-100.19251
 20
-75.184273
 11
-100.329955
 21
-75.393322
  0
LINE
  8
ボルト／ビス
  6
CONTINUOUS
 62
    64
 10
-100.69204
 20
-75.155267
 11
-100.57972
 21
-75.37882
  0
LINE
  8
ボルト／ビス
  6
CONTINUOUS
 62
    64
 10
-100.30483
 20
-74.96072
 11
-100.19251
 21
-75.184273
  0
CIRCLE
  8
ボルト／ビス
  6
CONTINUOUS
 62
    64
 10
-100.442275
 20
-75.16977
 40
0.216668
  0
CIRCLE
  8
ボルト／ビス
  6
CONTINUOUS
 10
-90.523798
 20
-70.186413
 40
0.250185
  0
CIRCLE
  8
ボルト／ビス
  6
CONTINUOUS
 10
-90.523798
 20
-70.186413
 40
0.301025
  0
LINE
  8
ボルト／ビス
  6
CONTINUOUS
 62
    64
 10
-90.773563
 20
-70.171908
 11
-90.636117
 21
-69.962857
  0
LINE
  8
ボルト／ビス
  6
CONTINUOUS
 62
    64
 10
-90.386352
 20
-69.97736
 11
-90.636117
 21
-69.962857
  0
LINE
  8
ボルト／ビス
  6
CONTINUOUS
 62
    64
 10
-90.661243
 20
-70.395463
 11
-90.411475
 21
-70.409968
  0
LINE
  8
ボルト／ビス
  6
CONTINUOUS
 62
    64
 10
-90.274032
 20
-70.200918
 11
-90.411475
 21
-70.409968
  0
LINE
  8
ボルト／ビス
  6
CONTINUOUS
 62
    64
 10
-90.773563
 20
-70.171908
 11
-90.661243
 21
-70.395463
  0
LINE
  8
ボルト／ビス
  6
CONTINUOUS
 62
    64
 10
-90.386352
 20
-69.97736
 11
-90.274032
 21
-70.200918
  0
CIRCLE
  8
ボルト／ビス
  6
CONTINUOUS
 62
    64
 10
-90.523798
 20
-70.186413
 40
0.216668
  0
CIRCLE
  8
ボルト／ビス
  6
CONTINUOUS
 10
-80.60532
 20
-65.203055
 40
0.250185
  0
CIRCLE
  8
ボルト／ビス
  6
CONTINUOUS
 10
-80.60532
 20
-65.203055
 40
0.301025
  0
LINE
  8
ボルト／ビス
  6
CONTINUOUS
 62
    64
 10
-80.467875
 20
-64.994005
 11
-80.71764
 21
-64.979503
  0
LINE
  8
ボルト／ビス
  6
CONTINUOUS
 62
    64
 10
-80.855085
 20
-65.188552
 11
-80.71764
 21
-64.979503
  0
LINE
  8
ボルト／ビス
  6
CONTINUOUS
 62
    64
 10
-80.355555
 20
-65.21756
 11
-80.492998
 21
-65.426607
  0
LINE
  8
ボルト／ビス
  6
CONTINUOUS
 62
    64
 10
-80.742765
 20
-65.412105
 11
-80.492998
 21
-65.426607
  0
LINE
  8
ボルト／ビス
  6
CONTINUOUS
 62
    64
 10
-80.467875
 20
-64.994005
 11
-80.355555
 21
-65.21756
  0
LINE
  8
ボルト／ビス
  6
CONTINUOUS
 62
    64
 10
-80.855085
 20
-65.188552
 11
-80.742765
 21
-65.412105
  0
CIRCLE
  8
ボルト／ビス
  6
CONTINUOUS
 62
    64
 10
-80.60532
 20
-65.203055
 40
0.216668
  0
ENDBLK
  0
BLOCK
  2
*GRP_0014
 70
    65
 10
0.0
 20
0.0
  0
LINE
  8
補助線
  6
BYBLOCK
 62
    64
 10
-80.679782
 20
-75.132358
 11
-80.530857
 21
-75.207183
  0
LINE
  8
補助線
  6
BYBLOCK
 62
    64
 10
-80.567908
 20
-75.095305
 11
-80.642732
 21
-75.244232
  0
LINE
  8
補助線
  6
BYBLOCK
 62
    64
 10
-90.598262
 20
-70.149
 11
-90.449335
 21
-70.223825
  0
LINE
  8
補助線
  6
BYBLOCK
 62
    64
 10
-90.486385
 20
-70.111948
 11
-90.56121
 21
-70.260875
  0
LINE
  8
補助線
  6
BYBLOCK
 62
    64
 10
-100.367813
 20
-65.240467
 11
-100.51674
 21
-65.165643
  0
LINE
  8
補助線
  6
BYBLOCK
 62
    64
 10
-100.404863
 20
-65.12859
 11
-100.479688
 21
-65.277517
  0
LINE
  8
型材断面
  6
CONTINUOUS
 10
-79.933342
 20
-74.574792
 11
-79.71104
 21
-75.246045
  0
LINE
  8
型材断面
  6
CONTINUOUS
 10
-79.71104
 20
-75.246045
 11
-80.010343
 21
-75.84175
  0
LINE
  8
型材断面
  6
CONTINUOUS
 10
-80.010343
 20
-75.84175
 11
-80.681595
 21
-76.064052
  0
LINE
  8
型材断面
  6
CONTINUOUS
 10
-100.366
 20
-64.308775
 11
-101.037255
 21
-64.531077
  0
LINE
  8
型材断面
  6
CONTINUOUS
 10
-101.037255
 20
-64.531077
 11
-101.336557
 21
-65.126782
  0
LINE
  8
型材断面
  6
CONTINUOUS
 10
-101.336557
 20
-65.126782
 11
-101.114253
 21
-65.798035
  0
LINE
  8
型材断面
  6
CONTINUOUS
 10
-79.933342
 20
-74.574792
 11
-100.366
 21
-64.308775
  0
LINE
  8
型材断面
  6
CONTINUOUS
 10
-80.681595
 20
-76.064052
 11
-101.114253
 21
-65.798035
  0
CIRCLE
  8
ボルト／ビス
  6
CONTINUOUS
 10
-80.60532
 20
-75.16977
 40
0.250185
  0
CIRCLE
  8
ボルト／ビス
  6
CONTINUOUS
 10
-80.60532
 20
-75.16977
 40
0.301025
  0
LINE
  8
ボルト／ビス
  6
CONTINUOUS
 62
    64
 10
-80.355555
 20
-75.155267
 11
-80.493
 21
-74.946217
  0
LINE
  8
ボルト／ビス
  6
CONTINUOUS
 62
    64
 10
-80.742765
 20
-74.96072
 11
-80.493
 21
-74.946217
  0
LINE
  8
ボルト／ビス
  6
CONTINUOUS
 62
    64
 10
-80.467875
 20
-75.37882
 11
-80.71764
 21
-75.393322
  0
LINE
  8
ボルト／ビス
  6
CONTINUOUS
 62
    64
 10
-80.855085
 20
-75.184273
 11
-80.71764
 21
-75.393322
  0
LINE
  8
ボルト／ビス
  6
CONTINUOUS
 62
    64
 10
-80.355555
 20
-75.155267
 11
-80.467875
 21
-75.37882
  0
LINE
  8
ボルト／ビス
  6
CONTINUOUS
 62
    64
 10
-80.742765
 20
-74.96072
 11
-80.855085
 21
-75.184273
  0
CIRCLE
  8
ボルト／ビス
  6
CONTINUOUS
 62
    64
 10
-80.60532
 20
-75.16977
 40
0.216668
  0
CIRCLE
  8
ボルト／ビス
  6
CONTINUOUS
 10
-90.523798
 20
-70.186413
 40
0.250185
  0
CIRCLE
  8
ボルト／ビス
  6
CONTINUOUS
 10
-90.523798
 20
-70.186413
 40
0.301025
  0
LINE
  8
ボルト／ビス
  6
CONTINUOUS
 62
    64
 10
-90.274032
 20
-70.171908
 11
-90.411478
 21
-69.962857
  0
LINE
  8
ボルト／ビス
  6
CONTINUOUS
 62
    64
 10
-90.661243
 20
-69.97736
 11
-90.411478
 21
-69.962857
  0
LINE
  8
ボルト／ビス
  6
CONTINUOUS
 62
    64
 10
-90.386352
 20
-70.395463
 11
-90.63612
 21
-70.409968
  0
LINE
  8
ボルト／ビス
  6
CONTINUOUS
 62
    64
 10
-90.773563
 20
-70.200918
 11
-90.63612
 21
-70.409968
  0
LINE
  8
ボルト／ビス
  6
CONTINUOUS
 62
    64
 10
-90.274032
 20
-70.171908
 11
-90.386352
 21
-70.395463
  0
LINE
  8
ボルト／ビス
  6
CONTINUOUS
 62
    64
 10
-90.661243
 20
-69.97736
 11
-90.773563
 21
-70.200918
  0
CIRCLE
  8
ボルト／ビス
  6
CONTINUOUS
 62
    64
 10
-90.523798
 20
-70.186413
 40
0.216668
  0
CIRCLE
  8
ボルト／ビス
  6
CONTINUOUS
 10
-100.442275
 20
-65.203055
 40
0.250185
  0
CIRCLE
  8
ボルト／ビス
  6
CONTINUOUS
 10
-100.442275
 20
-65.203055
 40
0.301025
  0
LINE
  8
ボルト／ビス
  6
CONTINUOUS
 62
    64
 10
-100.57972
 20
-64.994005
 11
-100.329955
 21
-64.979503
  0
LINE
  8
ボルト／ビス
  6
CONTINUOUS
 62
    64
 10
-100.19251
 20
-65.188552
 11
-100.329955
 21
-64.979503
  0
LINE
  8
ボルト／ビス
  6
CONTINUOUS
 62
    64
 10
-100.69204
 20
-65.21756
 11
-100.554598
 21
-65.426607
  0
LINE
  8
ボルト／ビス
  6
CONTINUOUS
 62
    64
 10
-100.30483
 20
-65.412105
 11
-100.554598
 21
-65.426607
  0
LINE
  8
ボルト／ビス
  6
CONTINUOUS
 62
    64
 10
-100.57972
 20
-64.994005
 11
-100.69204
 21
-65.21756
  0
LINE
  8
ボルト／ビス
  6
CONTINUOUS
 62
    64
 10
-100.19251
 20
-65.188552
 11
-100.30483
 21
-65.412105
  0
CIRCLE
  8
ボルト／ビス
  6
CONTINUOUS
 62
    64
 10
-100.442275
 20
-65.203055
 40
0.216668
  0
ENDBLK
  0
BLOCK
  2
*GRP_0015
 70
    65
 10
0.0
 20
0.0
  0
LINE
  8
補助線
  6
BYBLOCK
 62
    64
 10
26.149933
 20
-75.132358
 11
26.298857
 21
-75.207183
  0
LINE
  8
補助線
  6
BYBLOCK
 62
    64
 10
26.261808
 20
-75.095305
 11
26.186982
 21
-75.244232
  0
LINE
  8
補助線
  6
BYBLOCK
 62
    64
 10
16.231452
 20
-70.149
 11
16.38038
 21
-70.223825
  0
LINE
  8
補助線
  6
BYBLOCK
 62
    64
 10
16.34333
 20
-70.111948
 11
16.268505
 21
-70.260875
  0
LINE
  8
補助線
  6
BYBLOCK
 62
    64
 10
6.461902
 20
-65.240467
 11
6.312975
 21
-65.165643
  0
LINE
  8
補助線
  6
BYBLOCK
 62
    64
 10
6.424853
 20
-65.12859
 11
6.350028
 21
-65.277517
  0
LINE
  8
型材断面
  6
CONTINUOUS
 10
26.896372
 20
-74.574792
 11
27.118675
 21
-75.246045
  0
LINE
  8
型材断面
  6
CONTINUOUS
 10
27.118675
 20
-75.246045
 11
26.819372
 21
-75.84175
  0
LINE
  8
型材断面
  6
CONTINUOUS
 10
26.819372
 20
-75.84175
 11
26.14812
 21
-76.064052
  0
LINE
  8
型材断面
  6
CONTINUOUS
 10
6.463715
 20
-64.308775
 11
5.79246
 21
-64.531077
  0
LINE
  8
型材断面
  6
CONTINUOUS
 10
5.79246
 20
-64.531077
 11
5.493158
 21
-65.126782
  0
LINE
  8
型材断面
  6
CONTINUOUS
 10
5.493158
 20
-65.126782
 11
5.715462
 21
-65.798035
  0
LINE
  8
型材断面
  6
CONTINUOUS
 10
26.896372
 20
-74.574792
 11
6.463715
 21
-64.308775
  0
LINE
  8
型材断面
  6
CONTINUOUS
 10
26.14812
 20
-76.064052
 11
5.715462
 21
-65.798035
  0
CIRCLE
  8
ボルト／ビス
  6
CONTINUOUS
 10
26.224395
 20
-75.16977
 40
0.250185
  0
CIRCLE
  8
ボルト／ビス
  6
CONTINUOUS
 10
26.224395
 20
-75.16977
 40
0.301025
  0
LINE
  8
ボルト／ビス
  6
CONTINUOUS
 62
    64
 10
26.47416
 20
-75.155267
 11
26.336715
 21
-74.946217
  0
LINE
  8
ボルト／ビス
  6
CONTINUOUS
 62
    64
 10
26.08695
 20
-74.96072
 11
26.336715
 21
-74.946217
  0
LINE
  8
ボルト／ビス
  6
CONTINUOUS
 62
    64
 10
26.36184
 20
-75.37882
 11
26.112075
 21
-75.393322
  0
LINE
  8
ボルト／ビス
  6
CONTINUOUS
 62
    64
 10
25.97463
 20
-75.184273
 11
26.112075
 21
-75.393322
  0
LINE
  8
ボルト／ビス
  6
CONTINUOUS
 62
    64
 10
26.47416
 20
-75.155267
 11
26.36184
 21
-75.37882
  0
LINE
  8
ボルト／ビス
  6
CONTINUOUS
 62
    64
 10
26.08695
 20
-74.96072
 11
25.97463
 21
-75.184273
  0
CIRCLE
  8
ボルト／ビス
  6
CONTINUOUS
 62
    64
 10
26.224395
 20
-75.16977
 40
0.216668
  0
CIRCLE
  8
ボルト／ビス
  6
CONTINUOUS
 10
16.305918
 20
-70.186413
 40
0.250185
  0
CIRCLE
  8
ボルト／ビス
  6
CONTINUOUS
 10
16.305918
 20
-70.186413
 40
0.301025
  0
LINE
  8
ボルト／ビス
  6
CONTINUOUS
 62
    64
 10
16.555682
 20
-70.171908
 11
16.418238
 21
-69.962857
  0
LINE
  8
ボルト／ビス
  6
CONTINUOUS
 62
    64
 10
16.168472
 20
-69.97736
 11
16.418238
 21
-69.962857
  0
LINE
  8
ボルト／ビス
  6
CONTINUOUS
 62
    64
 10
16.443362
 20
-70.395463
 11
16.193595
 21
-70.409968
  0
LINE
  8
ボルト／ビス
  6
CONTINUOUS
 62
    64
 10
16.056152
 20
-70.200918
 11
16.193595
 21
-70.409968
  0
LINE
  8
ボルト／ビス
  6
CONTINUOUS
 62
    64
 10
16.555682
 20
-70.171908
 11
16.443362
 21
-70.395463
  0
LINE
  8
ボルト／ビス
  6
CONTINUOUS
 62
    64
 10
16.168472
 20
-69.97736
 11
16.056152
 21
-70.200918
  0
CIRCLE
  8
ボルト／ビス
  6
CONTINUOUS
 62
    64
 10
16.305918
 20
-70.186413
 40
0.216668
  0
CIRCLE
  8
ボルト／ビス
  6
CONTINUOUS
 10
6.38744
 20
-65.203055
 40
0.250185
  0
CIRCLE
  8
ボルト／ビス
  6
CONTINUOUS
 10
6.38744
 20
-65.203055
 40
0.301025
  0
LINE
  8
ボルト／ビス
  6
CONTINUOUS
 62
    64
 10
6.249995
 20
-64.994005
 11
6.49976
 21
-64.979503
  0
LINE
  8
ボルト／ビス
  6
CONTINUOUS
 62
    64
 10
6.637205
 20
-65.188552
 11
6.49976
 21
-64.979503
  0
LINE
  8
ボルト／ビス
  6
CONTINUOUS
 62
    64
 10
6.137675
 20
-65.21756
 11
6.275117
 21
-65.426607
  0
LINE
  8
ボルト／ビス
  6
CONTINUOUS
 62
    64
 10
6.524885
 20
-65.412105
 11
6.275117
 21
-65.426607
  0
LINE
  8
ボルト／ビス
  6
CONTINUOUS
 62
    64
 10
6.249995
 20
-64.994005
 11
6.137675
 21
-65.21756
  0
LINE
  8
ボルト／ビス
  6
CONTINUOUS
 62
    64
 10
6.637205
 20
-65.188552
 11
6.524885
 21
-65.412105
  0
CIRCLE
  8
ボルト／ビス
  6
CONTINUOUS
 62
    64
 10
6.38744
 20
-65.203055
 40
0.216668
  0
ENDBLK
  0
BLOCK
  2
*GRP_0016
 70
    65
 10
0.0
 20
0.0
  0
LINE
  8
補助線
  6
BYBLOCK
 62
    64
 10
6.461902
 20
-75.132358
 11
6.312977
 21
-75.207183
  0
LINE
  8
補助線
  6
BYBLOCK
 62
    64
 10
6.350028
 20
-75.095305
 11
6.424853
 21
-75.244232
  0
LINE
  8
補助線
  6
BYBLOCK
 62
    64
 10
16.380383
 20
-70.149
 11
16.231455
 21
-70.223825
  0
LINE
  8
補助線
  6
BYBLOCK
 62
    64
 10
16.268505
 20
-70.111948
 11
16.34333
 21
-70.260875
  0
LINE
  8
補助線
  6
BYBLOCK
 62
    64
 10
26.149933
 20
-65.240467
 11
26.29886
 21
-65.165643
  0
LINE
  8
補助線
  6
BYBLOCK
 62
    64
 10
26.186982
 20
-65.12859
 11
26.261808
 21
-65.277517
  0
LINE
  8
型材断面
  6
CONTINUOUS
 10
5.715462
 20
-74.574792
 11
5.49316
 21
-75.246045
  0
LINE
  8
型材断面
  6
CONTINUOUS
 10
5.49316
 20
-75.246045
 11
5.792462
 21
-75.84175
  0
LINE
  8
型材断面
  6
CONTINUOUS
 10
5.792462
 20
-75.84175
 11
6.463715
 21
-76.064052
  0
LINE
  8
型材断面
  6
CONTINUOUS
 10
26.14812
 20
-64.308775
 11
26.819375
 21
-64.531077
  0
LINE
  8
型材断面
  6
CONTINUOUS
 10
26.819375
 20
-64.531077
 11
27.118678
 21
-65.126782
  0
LINE
  8
型材断面
  6
CONTINUOUS
 10
27.118678
 20
-65.126782
 11
26.896372
 21
-65.798035
  0
LINE
  8
型材断面
  6
CONTINUOUS
 10
5.715462
 20
-74.574792
 11
26.14812
 21
-64.308775
  0
LINE
  8
型材断面
  6
CONTINUOUS
 10
6.463715
 20
-76.064052
 11
26.896372
 21
-65.798035
  0
CIRCLE
  8
ボルト／ビス
  6
CONTINUOUS
 10
6.38744
 20
-75.16977
 40
0.250185
  0
CIRCLE
  8
ボルト／ビス
  6
CONTINUOUS
 10
6.38744
 20
-75.16977
 40
0.301025
  0
LINE
  8
ボルト／ビス
  6
CONTINUOUS
 62
    64
 10
6.137675
 20
-75.155267
 11
6.27512
 21
-74.946217
  0
LINE
  8
ボルト／ビス
  6
CONTINUOUS
 62
    64
 10
6.524885
 20
-74.96072
 11
6.27512
 21
-74.946217
  0
LINE
  8
ボルト／ビス
  6
CONTINUOUS
 62
    64
 10
6.249995
 20
-75.37882
 11
6.49976
 21
-75.393322
  0
LINE
  8
ボルト／ビス
  6
CONTINUOUS
 62
    64
 10
6.637205
 20
-75.184273
 11
6.49976
 21
-75.393322
  0
LINE
  8
ボルト／ビス
  6
CONTINUOUS
 62
    64
 10
6.137675
 20
-75.155267
 11
6.249995
 21
-75.37882
  0
LINE
  8
ボルト／ビス
  6
CONTINUOUS
 62
    64
 10
6.524885
 20
-74.96072
 11
6.637205
 21
-75.184273
  0
CIRCLE
  8
ボルト／ビス
  6
CONTINUOUS
 62
    64
 10
6.38744
 20
-75.16977
 40
0.216668
  0
CIRCLE
  8
ボルト／ビス
  6
CONTINUOUS
 10
16.305918
 20
-70.186413
 40
0.250185
  0
CIRCLE
  8
ボルト／ビス
  6
CONTINUOUS
 10
16.305918
 20
-70.186413
 40
0.301025
  0
LINE
  8
ボルト／ビス
  6
CONTINUOUS
 62
    64
 10
16.056152
 20
-70.171908
 11
16.193598
 21
-69.962857
  0
LINE
  8
ボルト／ビス
  6
CONTINUOUS
 62
    64
 10
16.443362
 20
-69.97736
 11
16.193598
 21
-69.962857
  0
LINE
  8
ボルト／ビス
  6
CONTINUOUS
 62
    64
 10
16.168472
 20
-70.395463
 11
16.41824
 21
-70.409968
  0
LINE
  8
ボルト／ビス
  6
CONTINUOUS
 62
    64
 10
16.555682
 20
-70.200918
 11
16.41824
 21
-70.409968
  0
LINE
  8
ボルト／ビス
  6
CONTINUOUS
 62
    64
 10
16.056152
 20
-70.171908
 11
16.168472
 21
-70.395463
  0
LINE
  8
ボルト／ビス
  6
CONTINUOUS
 62
    64
 10
16.443362
 20
-69.97736
 11
16.555682
 21
-70.200918
  0
CIRCLE
  8
ボルト／ビス
  6
CONTINUOUS
 62
    64
 10
16.305918
 20
-70.186413
 40
0.216668
  0
CIRCLE
  8
ボルト／ビス
  6
CONTINUOUS
 10
26.224395
 20
-65.203055
 40
0.250185
  0
CIRCLE
  8
ボルト／ビス
  6
CONTINUOUS
 10
26.224395
 20
-65.203055
 40
0.301025
  0
LINE
  8
ボルト／ビス
  6
CONTINUOUS
 62
    64
 10
26.36184
 20
-64.994005
 11
26.112075
 21
-64.979503
  0
LINE
  8
ボルト／ビス
  6
CONTINUOUS
 62
    64
 10
25.97463
 20
-65.188552
 11
26.112075
 21
-64.979503
  0
LINE
  8
ボルト／ビス
  6
CONTINUOUS
 62
    64
 10
26.47416
 20
-65.21756
 11
26.336717
 21
-65.426607
  0
LINE
  8
ボルト／ビス
  6
CONTINUOUS
 62
    64
 10
26.08695
 20
-65.412105
 11
26.336717
 21
-65.426607
  0
LINE
  8
ボルト／ビス
  6
CONTINUOUS
 62
    64
 10
26.36184
 20
-64.994005
 11
26.47416
 21
-65.21756
  0
LINE
  8
ボルト／ビス
  6
CONTINUOUS
 62
    64
 10
25.97463
 20
-65.188552
 11
26.08695
 21
-65.412105
  0
CIRCLE
  8
ボルト／ビス
  6
CONTINUOUS
 62
    64
 10
26.224395
 20
-65.203055
 40
0.216668
  0
ENDBLK
  0
BLOCK
  2
*DIM_0017
 70
    65
 10
0.0
 20
0.0
  0
LINE
  8
寸法
  6
BYBLOCK
 62
     0
 10
134.134442
 20
44.797367
 11
80.244043
 21
44.797367
  0
LINE
  8
寸法
  6
BYBLOCK
 62
     0
 10
80.244043
 20
42.814033
 11
80.244043
 21
44.797367
  0
POINT
  8
寸法
 62
     0
 10
80.244043
 20
42.814033
  0
POINT
  8
寸法
 62
     0
 10
80.244043
 20
44.797367
  0
TEXT
  7
TextStyle03
  8
寸法
  6
CONTINUOUS
 62
     0
 10
79.85
 20
47.26875
  1
59.5
 40
3.0
 50
90.0
 72
     5
 11
79.85
 21
53.83125
  0
ENDBLK
  0
BLOCK
  2
*DIM_0018
 70
    65
 10
0.0
 20
0.0
  0
LINE
  8
寸法
  6
BYBLOCK
 62
     0
 10
134.134442
 20
20.8307
 11
80.244043
 21
20.8307
  0
LINE
  8
寸法
  6
BYBLOCK
 62
     0
 10
80.244043
 20
22.814033
 11
80.244043
 21
20.8307
  0
POINT
  8
寸法
 62
     0
 10
80.244043
 20
22.814033
  0
POINT
  8
寸法
 62
     0
 10
80.244043
 20
20.8307
  0
TEXT
  7
TextStyle03
  8
寸法
  6
CONTINUOUS
 62
     0
 10
79.85
 20
11.76875
  1
59.5
 40
3.0
 50
90.0
 72
     5
 11
79.85
 21
18.33125
  0
ENDBLK
  0
BLOCK
  2
*DIM_0019
 70
    65
 10
0.0
 20
0.0
  0
LINE
  8
寸法
  6
BYBLOCK
 62
     0
 10
135.757657
 20
47.4807
 11
135.757657
 21
60.666798
  0
LINE
  8
寸法
  6
BYBLOCK
 62
     0
 10
142.79116
 20
47.797367
 11
142.79116
 21
60.666798
  0
LINE
  8
寸法
  6
BYBLOCK
 62
     0
 10
135.757657
 20
60.666798
 11
142.79116
 21
60.666798
  0
POINT
  8
寸法
 62
     0
 10
135.757657
 20
60.666798
  0
POINT
  8
寸法
 62
     0
 10
142.79116
 20
60.666798
  0
TEXT
  7
TextStyle03
  8
寸法
  6
CONTINUOUS
 62
     0
 10
136.8125
 20
61.025
  1
211
 40
3.0
 72
     5
 11
141.6875
 21
61.025
  0
ENDBLK
  0
BLOCK
  2
*DIM_0020
 70
    65
 10
0.0
 20
0.0
  0
LINE
  8
寸法
  6
BYBLOCK
 62
     0
 10
50.89106
 20
-70.209613
 11
62.194043
 21
-70.209613
  0
LINE
  8
寸法
  6
BYBLOCK
 62
     0
 10
51.207727
 20
-77.243115
 11
62.194043
 21
-77.243115
  0
LINE
  8
寸法
  6
BYBLOCK
 62
     0
 10
62.194043
 20
-70.209613
 11
62.194043
 21
-77.243115
  0
POINT
  8
寸法
 62
     0
 10
62.194043
 20
-70.209613
  0
POINT
  8
寸法
 62
     0
 10
62.194043
 20
-77.243115
  0
TEXT
  7
TextStyle03
  8
寸法
  6
CONTINUOUS
 62
     0
 10
61.8
 20
-76.1875
  1
211
 40
3.0
 50
90.0
 72
     5
 11
61.8
 21
-71.3125
  0
ENDBLK
  0
BLOCK
  2
*DIM_0021
 70
    65
 10
0.0
 20
0.0
  0
LINE
  8
寸法
  6
BYBLOCK
 62
     0
 10
48.207727
 20
-68.586398
 11
48.207727
 21
-13.121378
  0
LINE
  8
寸法
  6
BYBLOCK
 62
     0
 10
46.224393
 20
-13.121378
 11
48.207727
 21
-13.121378
  0
POINT
  8
寸法
 62
     0
 10
46.224393
 20
-13.121378
  0
POINT
  8
寸法
 62
     0
 10
48.207727
 20
-13.121378
  0
TEXT
  7
TextStyle03
  8
寸法
  6
CONTINUOUS
 62
     0
 10
50.66875
 20
-12.75
  1
59.5
 40
3.0
 72
     5
 11
57.23125
 21
-12.75
  0
ENDBLK
  0
BLOCK
  2
*DIM_0022
 70
    65
 10
0.0
 20
0.0
  0
LINE
  8
寸法
  6
BYBLOCK
 62
     0
 10
-122.425608
 20
-68.586398
 11
-122.425608
 21
-13.121378
  0
LINE
  8
寸法
  6
BYBLOCK
 62
     0
 10
-120.442275
 20
-13.121378
 11
-122.425608
 21
-13.121378
  0
POINT
  8
寸法
 62
     0
 10
-120.442275
 20
-13.121378
  0
POINT
  8
寸法
 62
     0
 10
-122.425608
 20
-13.121378
  0
TEXT
  7
TextStyle03
  8
寸法
  6
CONTINUOUS
 62
     0
 10
-131.48125
 20
-12.75
  1
59.5
 40
3.0
 72
     5
 11
-124.91875
 21
-12.75
  0
ENDBLK
  0
BLOCK
  2
*DIM_0023
 70
    65
 10
0.0
 20
0.0
  0
LINE
  8
寸法
  6
BYBLOCK
 62
     0
 10
-123.442275
 20
39.4807
 11
-136.735113
 21
39.4807
  0
LINE
  8
寸法
  6
BYBLOCK
 62
     0
 10
-123.442275
 20
26.147365
 11
-136.735113
 21
26.147365
  0
LINE
  8
寸法
  6
BYBLOCK
 62
     0
 10
-136.735113
 20
39.4807
 11
-136.735113
 21
26.147365
  0
POINT
  8
寸法
 62
     0
 10
-136.735113
 20
39.4807
  0
POINT
  8
寸法
 62
     0
 10
-136.735113
 20
26.147365
  0
TEXT
  7
TextStyle03
  8
寸法
  6
CONTINUOUS
 62
     0
 10
-137.1
 20
30.3625
  1
400
 40
3.0
 50
90.0
 72
     5
 11
-137.1
 21
35.2375
  0
ENDBLK
  0
BLOCK
  2
*DIM_0024
 70
    65
 10
0.0
 20
0.0
  0
LINE
  8
寸法
  6
BYBLOCK
 62
     0
 10
-112.10894
 20
45.814033
 11
-112.10894
 21
74.922105
  0
LINE
  8
寸法
  6
BYBLOCK
 62
     0
 10
-87.10894
 20
45.814033
 11
-87.10894
 21
74.922105
  0
LINE
  8
寸法
  6
BYBLOCK
 62
     0
 10
-112.10894
 20
74.922105
 11
-87.10894
 21
74.922105
  0
POINT
  8
寸法
 62
     0
 10
-112.10894
 20
74.922105
  0
POINT
  8
寸法
 62
     0
 10
-87.10894
 20
74.922105
  0
TEXT
  7
TextStyle03
  8
寸法
  6
CONTINUOUS
 62
     0
 10
-102.0625
 20
75.3
  1
750
 40
3.0
 72
     5
 11
-97.1875
 21
75.3
  0
ENDBLK
  0
BLOCK
  2
*DIM_0025
 70
    65
 10
0.0
 20
0.0
  0
LINE
  8
寸法
  6
BYBLOCK
 62
     0
 10
-62.10894
 20
45.814033
 11
-62.10894
 21
74.922105
  0
LINE
  8
寸法
  6
BYBLOCK
 62
     0
 10
-87.10894
 20
74.922105
 11
-62.10894
 21
74.922105
  0
POINT
  8
寸法
 62
     0
 10
-62.10894
 20
74.922105
  0
TEXT
  7
TextStyle03
  8
寸法
  6
CONTINUOUS
 62
     0
 10
-77.0625
 20
75.3
  1
750
 40
3.0
 72
     5
 11
-72.1875
 21
75.3
  0
ENDBLK
  0
BLOCK
  2
*DIM_0026
 70
    65
 10
0.0
 20
0.0
  0
LINE
  8
寸法
  6
BYBLOCK
 62
     0
 10
-37.10894
 20
45.814033
 11
-37.10894
 21
74.922105
  0
LINE
  8
寸法
  6
BYBLOCK
 62
     0
 10
-62.10894
 20
74.922105
 11
-37.10894
 21
74.922105
  0
POINT
  8
寸法
 62
     0
 10
-37.10894
 20
74.922105
  0
TEXT
  7
TextStyle03
  8
寸法
  6
CONTINUOUS
 62
     0
 10
-52.0625
 20
75.3
  1
750
 40
3.0
 72
     5
 11
-47.1875
 21
75.3
  0
ENDBLK
  0
BLOCK
  2
*DIM_0027
 70
    65
 10
0.0
 20
0.0
  0
LINE
  8
寸法
  6
BYBLOCK
 62
     0
 10
-12.10894
 20
45.814033
 11
-12.10894
 21
74.922105
  0
LINE
  8
寸法
  6
BYBLOCK
 62
     0
 10
-37.10894
 20
74.922105
 11
-12.10894
 21
74.922105
  0
POINT
  8
寸法
 62
     0
 10
-12.10894
 20
74.922105
  0
TEXT
  7
TextStyle03
  8
寸法
  6
CONTINUOUS
 62
     0
 10
-27.0625
 20
75.3
  1
750
 40
3.0
 72
     5
 11
-22.1875
 21
75.3
  0
ENDBLK
  0
BLOCK
  2
*DIM_0028
 70
    65
 10
0.0
 20
0.0
  0
LINE
  8
寸法
  6
BYBLOCK
 62
     0
 10
12.89106
 20
45.814033
 11
12.89106
 21
74.922105
  0
LINE
  8
寸法
  6
BYBLOCK
 62
     0
 10
-12.10894
 20
74.922105
 11
12.89106
 21
74.922105
  0
POINT
  8
寸法
 62
     0
 10
12.89106
 20
74.922105
  0
TEXT
  7
TextStyle03
  8
寸法
  6
CONTINUOUS
 62
     0
 10
-2.0625
 20
75.3
  1
750
 40
3.0
 72
     5
 11
2.8125
 21
75.3
  0
ENDBLK
  0
BLOCK
  2
*DIM_0029
 70
    65
 10
0.0
 20
0.0
  0
LINE
  8
寸法
  6
BYBLOCK
 62
     0
 10
37.89106
 20
45.814033
 11
37.89106
 21
74.922105
  0
LINE
  8
寸法
  6
BYBLOCK
 62
     0
 10
12.89106
 20
74.922105
 11
37.89106
 21
74.922105
  0
POINT
  8
寸法
 62
     0
 10
37.89106
 20
74.922105
  0
TEXT
  7
TextStyle03
  8
寸法
  6
CONTINUOUS
 62
     0
 10
22.9375
 20
75.3
  1
750
 40
3.0
 72
     5
 11
27.8125
 21
75.3
  0
ENDBLK
  0
BLOCK
  2
*GRP_0031
 70
    65
 10
0.0
 20
0.0
  0
LINE
  8
ボルト／ビス
  6
CONTINUOUS
 10
135.757657
 20
22.147365
 11
135.290992
 21
22.147365
  0
LINE
  8
ボルト／ビス
  6
CONTINUOUS
 10
135.757657
 20
21.780697
 11
135.690992
 21
21.780697
  0
LINE
  8
ボルト／ビス
  6
CONTINUOUS
 10
135.690992
 20
21.780697
 11
135.690992
 21
22.51403
  0
LINE
  8
ボルト／ビス
  6
CONTINUOUS
 10
135.690992
 20
22.51403
 11
135.757657
 21
22.51403
  0
LINE
  8
ボルト／ビス
  6
CONTINUOUS
 10
135.757657
 20
21.780697
 11
135.757657
 21
22.51403
  0
LINE
  8
ボルト／ビス
  6
CONTINUOUS
 10
135.657657
 20
21.847365
 11
135.690992
 21
21.847365
  0
LINE
  8
ボルト／ビス
  6
CONTINUOUS
 10
135.657657
 20
21.847365
 11
135.657657
 21
22.447365
  0
LINE
  8
ボルト／ビス
  6
CONTINUOUS
 10
135.657657
 20
22.447365
 11
135.690992
 21
22.447365
  0
LINE
  8
ボルト／ビス
  6
CONTINUOUS
 62
    64
 10
135.457657
 20
21.98699
 11
135.469333
 21
21.954915
  0
ARC
  8
ボルト／ビス
  6
CONTINUOUS
 62
    64
 10
135.562638
 20
22.003029
 40
0.104978
 50
152.721967
 51
180.0
  0
ARC
  8
ボルト／ビス
  6
CONTINUOUS
 62
    64
 10
135.860062
 20
22.147366
 40
0.402402
 50
166.165002
 51
193.834985
  0
LINE
  8
ボルト／ビス
  6
CONTINUOUS
 62
    64
 10
135.457657
 20
22.30774
 11
135.469333
 21
22.339815
  0
ARC
  8
ボルト／ビス
  6
CONTINUOUS
 62
    64
 10
135.562638
 20
22.291704
 40
0.104978
 50
180.0
 51
207.278033
  0
LINE
  8
ボルト／ビス
  6
CONTINUOUS
 62
    64
 10
135.457657
 20
21.98699
 11
135.457657
 21
22.30774
  0
LINE
  8
ボルト／ビス
  6
CONTINUOUS
 62
    64
 10
135.469333
 20
22.339815
 11
135.590993
 21
22.339815
  0
LINE
  8
ボルト／ビス
  6
CONTINUOUS
 62
    64
 10
135.469333
 20
22.24359
 11
135.590993
 21
22.24359
  0
LINE
  8
ボルト／ビス
  6
CONTINUOUS
 62
    64
 10
135.469333
 20
21.954915
 11
135.590993
 21
21.954915
  0
LINE
  8
ボルト／ビス
  6
CONTINUOUS
 62
    64
 10
135.469333
 20
22.05114
 11
135.590993
 21
22.05114
  0
LINE
  8
ボルト／ビス
  6
CONTINUOUS
 10
135.590993
 20
21.954915
 11
135.590993
 21
22.339815
  0
LINE
  8
ボルト／ビス
  6
CONTINUOUS
 10
135.590993
 20
21.947365
 11
135.657657
 21
21.947365
  0
LINE
  8
ボルト／ビス
  6
CONTINUOUS
 10
135.590993
 20
21.947365
 11
135.590993
 21
22.347365
  0
LINE
  8
ボルト／ビス
  6
CONTINUOUS
 10
135.590993
 20
22.347365
 11
135.657657
 21
22.347365
  0
ENDBLK
  0
BLOCK
  2
*GRP_0032
 70
    65
 10
0.0
 20
0.0
  0
LINE
  8
ボルト／ビス
  6
CONTINUOUS
 10
135.757657
 20
43.4807
 11
135.290992
 21
43.4807
  0
LINE
  8
ボルト／ビス
  6
CONTINUOUS
 10
135.757657
 20
43.114033
 11
135.690992
 21
43.114033
  0
LINE
  8
ボルト／ビス
  6
CONTINUOUS
 10
135.690992
 20
43.114033
 11
135.690992
 21
43.847365
  0
LINE
  8
ボルト／ビス
  6
CONTINUOUS
 10
135.690992
 20
43.847365
 11
135.757657
 21
43.847365
  0
LINE
  8
ボルト／ビス
  6
CONTINUOUS
 10
135.757657
 20
43.114033
 11
135.757657
 21
43.847365
  0
LINE
  8
ボルト／ビス
  6
CONTINUOUS
 10
135.657657
 20
43.1807
 11
135.690992
 21
43.1807
  0
LINE
  8
ボルト／ビス
  6
CONTINUOUS
 10
135.657657
 20
43.1807
 11
135.657657
 21
43.7807
  0
LINE
  8
ボルト／ビス
  6
CONTINUOUS
 10
135.657657
 20
43.7807
 11
135.690992
 21
43.7807
  0
LINE
  8
ボルト／ビス
  6
CONTINUOUS
 62
    64
 10
135.457657
 20
43.320325
 11
135.469333
 21
43.28825
  0
ARC
  8
ボルト／ビス
  6
CONTINUOUS
 62
    64
 10
135.562638
 20
43.336364
 40
0.104978
 50
152.721967
 51
180.0
  0
ARC
  8
ボルト／ビス
  6
CONTINUOUS
 62
    64
 10
135.860062
 20
43.480701
 40
0.402402
 50
166.165002
 51
193.834985
  0
LINE
  8
ボルト／ビス
  6
CONTINUOUS
 62
    64
 10
135.457657
 20
43.641075
 11
135.469333
 21
43.67315
  0
ARC
  8
ボルト／ビス
  6
CONTINUOUS
 62
    64
 10
135.562638
 20
43.625039
 40
0.104978
 50
180.0
 51
207.278033
  0
LINE
  8
ボルト／ビス
  6
CONTINUOUS
 62
    64
 10
135.457657
 20
43.320325
 11
135.457657
 21
43.641075
  0
LINE
  8
ボルト／ビス
  6
CONTINUOUS
 62
    64
 10
135.469333
 20
43.67315
 11
135.590993
 21
43.67315
  0
LINE
  8
ボルト／ビス
  6
CONTINUOUS
 62
    64
 10
135.469333
 20
43.576925
 11
135.590993
 21
43.576925
  0
LINE
  8
ボルト／ビス
  6
CONTINUOUS
 62
    64
 10
135.469333
 20
43.28825
 11
135.590993
 21
43.28825
  0
LINE
  8
ボルト／ビス
  6
CONTINUOUS
 62
    64
 10
135.469333
 20
43.384475
 11
135.590993
 21
43.384475
  0
LINE
  8
ボルト／ビス
  6
CONTINUOUS
 10
135.590993
 20
43.28825
 11
135.590993
 21
43.67315
  0
LINE
  8
ボルト／ビス
  6
CONTINUOUS
 10
135.590993
 20
43.2807
 11
135.657657
 21
43.2807
  0
LINE
  8
ボルト／ビス
  6
CONTINUOUS
 10
135.590993
 20
43.2807
 11
135.590993
 21
43.6807
  0
LINE
  8
ボルト／ビス
  6
CONTINUOUS
 10
135.590993
 20
43.6807
 11
135.657657
 21
43.6807
  0
ENDBLK
  0
BLOCK
  2
*GRP_0033
 70
    65
 10
0.0
 20
0.0
  0
LINE
  8
ボルト／ビス
  6
CONTINUOUS
 10
46.89106
 20
-70.209613
 11
46.89106
 21
-69.742947
  0
LINE
  8
ボルト／ビス
  6
CONTINUOUS
 10
46.524393
 20
-70.209613
 11
46.524393
 21
-70.142947
  0
LINE
  8
ボルト／ビス
  6
CONTINUOUS
 10
46.524393
 20
-70.142947
 11
47.257725
 21
-70.142947
  0
LINE
  8
ボルト／ビス
  6
CONTINUOUS
 10
47.257725
 20
-70.142947
 11
47.257725
 21
-70.209613
  0
LINE
  8
ボルト／ビス
  6
CONTINUOUS
 10
46.524393
 20
-70.209613
 11
47.257725
 21
-70.209613
  0
LINE
  8
ボルト／ビス
  6
CONTINUOUS
 10
46.59106
 20
-70.109612
 11
46.59106
 21
-70.142947
  0
LINE
  8
ボルト／ビス
  6
CONTINUOUS
 10
46.59106
 20
-70.109612
 11
47.19106
 21
-70.109612
  0
LINE
  8
ボルト／ビス
  6
CONTINUOUS
 10
47.19106
 20
-70.109612
 11
47.19106
 21
-70.142947
  0
LINE
  8
ボルト／ビス
  6
CONTINUOUS
 62
    64
 10
46.730685
 20
-69.909613
 11
46.69861
 21
-69.921288
  0
ARC
  8
ボルト／ビス
  6
CONTINUOUS
 62
    64
 10
46.746722
 20
-70.014594
 40
0.104978
 50
62.721967
 51
90.0
  0
ARC
  8
ボルト／ビス
  6
CONTINUOUS
 62
    64
 10
46.89106
 20
-70.312018
 40
0.402402
 50
76.165002
 51
103.834985
  0
LINE
  8
ボルト／ビス
  6
CONTINUOUS
 62
    64
 10
47.051435
 20
-69.909613
 11
47.08351
 21
-69.921288
  0
ARC
  8
ボルト／ビス
  6
CONTINUOUS
 62
    64
 10
47.035397
 20
-70.014594
 40
0.104978
 50
90.0
 51
117.278033
  0
LINE
  8
ボルト／ビス
  6
CONTINUOUS
 62
    64
 10
46.730685
 20
-69.909613
 11
47.051435
 21
-69.909613
  0
LINE
  8
ボルト／ビス
  6
CONTINUOUS
 62
    64
 10
47.08351
 20
-69.921288
 11
47.08351
 21
-70.042947
  0
LINE
  8
ボルト／ビス
  6
CONTINUOUS
 62
    64
 10
46.987285
 20
-69.921288
 11
46.987285
 21
-70.042947
  0
LINE
  8
ボルト／ビス
  6
CONTINUOUS
 62
    64
 10
46.69861
 20
-69.921288
 11
46.69861
 21
-70.042947
  0
LINE
  8
ボルト／ビス
  6
CONTINUOUS
 62
    64
 10
46.794835
 20
-69.921288
 11
46.794835
 21
-70.042947
  0
LINE
  8
ボルト／ビス
  6
CONTINUOUS
 10
46.69861
 20
-70.042947
 11
47.08351
 21
-70.042947
  0
LINE
  8
ボルト／ビス
  6
CONTINUOUS
 10
46.69106
 20
-70.042947
 11
46.69106
 21
-70.109612
  0
LINE
  8
ボルト／ビス
  6
CONTINUOUS
 10
46.69106
 20
-70.042947
 11
47.09106
 21
-70.042947
  0
LINE
  8
ボルト／ビス
  6
CONTINUOUS
 10
47.09106
 20
-70.042947
 11
47.09106
 21
-70.109612
  0
ENDBLK
  0
BLOCK
  2
*GRP_0034
 70
    65
 10
0.0
 20
0.0
  0
LINE
  8
ボルト／ビス
  6
DOT
 10
46.89106
 20
-62.87628
 11
46.89106
 21
-62.409615
  0
LINE
  8
ボルト／ビス
  6
DOT
 10
46.524393
 20
-62.87628
 11
46.524393
 21
-62.809615
  0
LINE
  8
ボルト／ビス
  6
DOT
 10
46.524393
 20
-62.809615
 11
47.257725
 21
-62.809615
  0
LINE
  8
ボルト／ビス
  6
DOT
 10
47.257725
 20
-62.809615
 11
47.257725
 21
-62.87628
  0
LINE
  8
ボルト／ビス
  6
DOT
 10
46.524393
 20
-62.87628
 11
47.257725
 21
-62.87628
  0
LINE
  8
ボルト／ビス
  6
DOT
 10
46.59106
 20
-62.77628
 11
46.59106
 21
-62.809615
  0
LINE
  8
ボルト／ビス
  6
DOT
 10
46.59106
 20
-62.77628
 11
47.19106
 21
-62.77628
  0
LINE
  8
ボルト／ビス
  6
DOT
 10
47.19106
 20
-62.77628
 11
47.19106
 21
-62.809615
  0
LINE
  8
ボルト／ビス
  6
DOT
 62
    64
 10
46.730685
 20
-62.57628
 11
46.69861
 21
-62.587955
  0
ARC
  8
ボルト／ビス
  6
DOT
 62
    64
 10
46.746722
 20
-62.681261
 40
0.104978
 50
62.721967
 51
90.0
  0
ARC
  8
ボルト／ビス
  6
DOT
 62
    64
 10
46.891059
 20
-62.978685
 40
0.402402
 50
76.165002
 51
103.834985
  0
LINE
  8
ボルト／ビス
  6
DOT
 62
    64
 10
47.051435
 20
-62.57628
 11
47.08351
 21
-62.587955
  0
ARC
  8
ボルト／ビス
  6
DOT
 62
    64
 10
47.035397
 20
-62.681261
 40
0.104978
 50
90.0
 51
117.278033
  0
LINE
  8
ボルト／ビス
  6
DOT
 62
    64
 10
46.730685
 20
-62.57628
 11
47.051435
 21
-62.57628
  0
LINE
  8
ボルト／ビス
  6
DOT
 62
    64
 10
47.08351
 20
-62.587955
 11
47.08351
 21
-62.709615
  0
LINE
  8
ボルト／ビス
  6
DOT
 62
    64
 10
46.987285
 20
-62.587955
 11
46.987285
 21
-62.709615
  0
LINE
  8
ボルト／ビス
  6
DOT
 62
    64
 10
46.69861
 20
-62.587955
 11
46.69861
 21
-62.709615
  0
LINE
  8
ボルト／ビス
  6
DOT
 62
    64
 10
46.794835
 20
-62.587955
 11
46.794835
 21
-62.709615
  0
LINE
  8
ボルト／ビス
  6
DOT
 10
46.69861
 20
-62.709615
 11
47.08351
 21
-62.709615
  0
LINE
  8
ボルト／ビス
  6
DOT
 10
46.69106
 20
-62.709615
 11
46.69106
 21
-62.77628
  0
LINE
  8
ボルト／ビス
  6
DOT
 10
46.69106
 20
-62.709615
 11
47.09106
 21
-62.709615
  0
LINE
  8
ボルト／ビス
  6
DOT
 10
47.09106
 20
-62.709615
 11
47.09106
 21
-62.77628
  0
ENDBLK
  0
BLOCK
  2
*GRP_0035
 70
    65
 10
0.0
 20
0.0
  0
LINE
  8
ボルト／ビス
  6
CONTINUOUS
 10
-121.10894
 20
-70.209613
 11
-121.10894
 21
-69.742947
  0
LINE
  8
ボルト／ビス
  6
CONTINUOUS
 10
-120.742273
 20
-70.209613
 11
-120.742273
 21
-70.142947
  0
LINE
  8
ボルト／ビス
  6
CONTINUOUS
 10
-120.742273
 20
-70.142947
 11
-121.475605
 21
-70.142947
  0
LINE
  8
ボルト／ビス
  6
CONTINUOUS
 10
-121.475605
 20
-70.142947
 11
-121.475605
 21
-70.209613
  0
LINE
  8
ボルト／ビス
  6
CONTINUOUS
 10
-120.742273
 20
-70.209613
 11
-121.475605
 21
-70.209613
  0
LINE
  8
ボルト／ビス
  6
CONTINUOUS
 10
-120.80894
 20
-70.109612
 11
-120.80894
 21
-70.142947
  0
LINE
  8
ボルト／ビス
  6
CONTINUOUS
 10
-120.80894
 20
-70.109612
 11
-121.40894
 21
-70.109612
  0
LINE
  8
ボルト／ビス
  6
CONTINUOUS
 10
-121.40894
 20
-70.109612
 11
-121.40894
 21
-70.142947
  0
LINE
  8
ボルト／ビス
  6
CONTINUOUS
 62
    64
 10
-120.948565
 20
-69.909613
 11
-120.91649
 21
-69.921288
  0
ARC
  8
ボルト／ビス
  6
CONTINUOUS
 62
    64
 10
-120.964602
 20
-70.014594
 40
0.104978
 50
90.0
 51
117.278033
  0
ARC
  8
ボルト／ビス
  6
CONTINUOUS
 62
    64
 10
-121.10894
 20
-70.312018
 40
0.402402
 50
76.165015
 51
103.834998
  0
LINE
  8
ボルト／ビス
  6
CONTINUOUS
 62
    64
 10
-121.269315
 20
-69.909613
 11
-121.30139
 21
-69.921288
  0
ARC
  8
ボルト／ビス
  6
CONTINUOUS
 62
    64
 10
-121.253277
 20
-70.014594
 40
0.104978
 50
62.721967
 51
90.0
  0
LINE
  8
ボルト／ビス
  6
CONTINUOUS
 62
    64
 10
-120.948565
 20
-69.909613
 11
-121.269315
 21
-69.909613
  0
LINE
  8
ボルト／ビス
  6
CONTINUOUS
 62
    64
 10
-121.30139
 20
-69.921288
 11
-121.30139
 21
-70.042947
  0
LINE
  8
ボルト／ビス
  6
CONTINUOUS
 62
    64
 10
-121.205165
 20
-69.921288
 11
-121.205165
 21
-70.042947
  0
LINE
  8
ボルト／ビス
  6
CONTINUOUS
 62
    64
 10
-120.91649
 20
-69.921288
 11
-120.91649
 21
-70.042947
  0
LINE
  8
ボルト／ビス
  6
CONTINUOUS
 62
    64
 10
-121.012715
 20
-69.921288
 11
-121.012715
 21
-70.042947
  0
LINE
  8
ボルト／ビス
  6
CONTINUOUS
 10
-120.91649
 20
-70.042947
 11
-121.30139
 21
-70.042947
  0
LINE
  8
ボルト／ビス
  6
CONTINUOUS
 10
-120.90894
 20
-70.042947
 11
-120.90894
 21
-70.109612
  0
LINE
  8
ボルト／ビス
  6
CONTINUOUS
 10
-120.90894
 20
-70.042947
 11
-121.30894
 21
-70.042947
  0
LINE
  8
ボルト／ビス
  6
CONTINUOUS
 10
-121.30894
 20
-70.042947
 11
-121.30894
 21
-70.109612
  0
ENDBLK
  0
BLOCK
  2
*GRP_0036
 70
    65
 10
0.0
 20
0.0
  0
LINE
  8
ボルト／ビス
  6
DOT
 10
-121.10894
 20
-62.87628
 11
-121.10894
 21
-62.409615
  0
LINE
  8
ボルト／ビス
  6
DOT
 10
-120.742273
 20
-62.87628
 11
-120.742273
 21
-62.809615
  0
LINE
  8
ボルト／ビス
  6
DOT
 10
-120.742273
 20
-62.809615
 11
-121.475605
 21
-62.809615
  0
LINE
  8
ボルト／ビス
  6
DOT
 10
-121.475605
 20
-62.809615
 11
-121.475605
 21
-62.87628
  0
LINE
  8
ボルト／ビス
  6
DOT
 10
-120.742273
 20
-62.87628
 11
-121.475605
 21
-62.87628
  0
LINE
  8
ボルト／ビス
  6
DOT
 10
-120.80894
 20
-62.77628
 11
-120.80894
 21
-62.809615
  0
LINE
  8
ボルト／ビス
  6
DOT
 10
-120.80894
 20
-62.77628
 11
-121.40894
 21
-62.77628
  0
LINE
  8
ボルト／ビス
  6
DOT
 10
-121.40894
 20
-62.77628
 11
-121.40894
 21
-62.809615
  0
LINE
  8
ボルト／ビス
  6
DOT
 62
    64
 10
-120.948565
 20
-62.57628
 11
-120.91649
 21
-62.587955
  0
ARC
  8
ボルト／ビス
  6
DOT
 62
    64
 10
-120.964602
 20
-62.681261
 40
0.104978
 50
90.0
 51
117.278033
  0
ARC
  8
ボルト／ビス
  6
DOT
 62
    64
 10
-121.108939
 20
-62.978685
 40
0.402402
 50
76.165015
 51
103.834998
  0
LINE
  8
ボルト／ビス
  6
DOT
 62
    64
 10
-121.269315
 20
-62.57628
 11
-121.30139
 21
-62.587955
  0
ARC
  8
ボルト／ビス
  6
DOT
 62
    64
 10
-121.253277
 20
-62.681261
 40
0.104978
 50
62.721967
 51
90.0
  0
LINE
  8
ボルト／ビス
  6
DOT
 62
    64
 10
-120.948565
 20
-62.57628
 11
-121.269315
 21
-62.57628
  0
LINE
  8
ボルト／ビス
  6
DOT
 62
    64
 10
-121.30139
 20
-62.587955
 11
-121.30139
 21
-62.709615
  0
LINE
  8
ボルト／ビス
  6
DOT
 62
    64
 10
-121.205165
 20
-62.587955
 11
-121.205165
 21
-62.709615
  0
LINE
  8
ボルト／ビス
  6
DOT
 62
    64
 10
-120.91649
 20
-62.587955
 11
-120.91649
 21
-62.709615
  0
LINE
  8
ボルト／ビス
  6
DOT
 62
    64
 10
-121.012715
 20
-62.587955
 11
-121.012715
 21
-62.709615
  0
LINE
  8
ボルト／ビス
  6
DOT
 10
-120.91649
 20
-62.709615
 11
-121.30139
 21
-62.709615
  0
LINE
  8
ボルト／ビス
  6
DOT
 10
-120.90894
 20
-62.709615
 11
-120.90894
 21
-62.77628
  0
LINE
  8
ボルト／ビス
  6
DOT
 10
-120.90894
 20
-62.709615
 11
-121.30894
 21
-62.709615
  0
LINE
  8
ボルト／ビス
  6
DOT
 10
-121.30894
 20
-62.709615
 11
-121.30894
 21
-62.77628
  0
ENDBLK
  0
BLOCK
  2
*DIM_0037
 70
    65
 10
0.0
 20
0.0
  0
LINE
  8
寸法
  6
BYBLOCK
 62
     0
 10
39.224393
 20
-57.542947
 11
62.194043
 21
-57.542947
  0
LINE
  8
寸法
  6
BYBLOCK
 62
     0
 10
62.194043
 20
-64.87628
 11
62.194043
 21
-57.542947
  0
POINT
  8
寸法
 62
     0
 10
62.194043
 20
-64.87628
  0
POINT
  8
寸法
 62
     0
 10
62.194043
 20
-57.542947
  0
TEXT
  7
TextStyle03
  8
寸法
  6
CONTINUOUS
 62
     0
 10
62.1
 20
-55.5375
  1
上昇高さ220
 40
3.0
 50
90.0
 72
     5
 11
62.1
 21
-37.1625
  0
ENDBLK
  0
ENDSEC
  0
SECTION
  2
ENTITIES
  0
POLYLINE
  8
通り芯
  6
CONTINUOUS
 66
     1
 70
     1
  0
VERTEX
  8
通り芯
 10
-210.0
 20
-148.5
  0
VERTEX
  8
通り芯
 10
210.0
 20
-148.5
  0
VERTEX
  8
通り芯
 10
210.0
 20
148.5
  0
VERTEX
  8
通り芯
 10
-210.0
 20
148.5
  0
SEQEND
  0
INSERT
  2
*GRP_0001
  8
型材断面
  6
CONTINUOUS
 10
0.0
 20
0.0
  0
LINE
  8
型材断面
  6
DASHDOT
 10
46.224393
 20
-77.836442
 11
46.224393
 21
42.814033
  0
LINE
  8
型材断面
  6
DASHDOT
 10
-37.10894
 20
-77.836442
 11
-37.10894
 21
42.814033
  0
LINE
  8
型材断面
  6
DASHDOT
 10
-120.442275
 20
-77.836442
 11
-120.442275
 21
42.814033
  0
LINE
  8
型材断面
  6
DASHDOT
 10
143.901155
 20
22.814033
 11
-120.442275
 21
22.814033
  0
LINE
  8
型材断面
  6
DASHDOT
 10
143.901155
 20
32.814033
 11
-120.442275
 21
32.814033
  0
LINE
  8
型材断面
  6
DASHDOT
 10
143.901155
 20
42.814033
 11
-120.442275
 21
42.814033
  0
LINE
  8
型材断面
  6
DOT
 10
11.761062
 20
22.814033
 11
11.761062
 21
42.814033
  0
LINE
  8
型材断面
  6
DASHDOT
 10
13.011062
 20
22.814033
 11
13.011062
 21
42.814033
  0
LINE
  8
型材断面
  6
DOT
 10
14.261062
 20
22.814033
 11
14.261062
 21
42.814033
  0
LINE
  8
型材断面
  6
DOT
 10
-21.65227
 20
22.814033
 11
-21.65227
 21
42.814033
  0
LINE
  8
型材断面
  6
DASHDOT
 10
-20.40227
 20
22.814033
 11
-20.40227
 21
42.814033
  0
LINE
  8
型材断面
  6
DOT
 10
-19.15227
 20
22.814033
 11
-19.15227
 21
42.814033
  0
LINE
  8
型材断面
  6
DOT
 10
-85.978942
 20
22.814033
 11
-85.978942
 21
42.814033
  0
LINE
  8
型材断面
  6
DASHDOT
 10
-87.228942
 20
22.814033
 11
-87.228942
 21
42.814033
  0
LINE
  8
型材断面
  6
DOT
 10
-88.478942
 20
22.814033
 11
-88.478942
 21
42.814033
  0
LINE
  8
型材断面
  6
DOT
 10
-52.56561
 20
22.814033
 11
-52.56561
 21
42.814033
  0
LINE
  8
型材断面
  6
DASHDOT
 10
-53.81561
 20
22.814033
 11
-53.81561
 21
42.814033
  0
LINE
  8
型材断面
  6
DOT
 10
-55.06561
 20
22.814033
 11
-55.06561
 21
42.814033
  0
POLYLINE
  8
型材断面
  6
CONTINUOUS
 66
     1
 70
     1
  0
VERTEX
  8
型材断面
 10
-27.309977
 20
13.03811
  0
VERTEX
  8
型材断面
 10
-46.081908
 20
13.03811
  0
VERTEX
  8
型材断面
 10
-46.081908
 20
8.301267
  0
VERTEX
  8
型材断面
 10
-27.309977
 20
8.301267
  0
SEQEND
  0
POLYLINE
  8
型材断面
  6
CONTINUOUS
 66
     1
 70
     1
  0
VERTEX
  8
型材断面
 10
-27.309977
 20
52.589955
  0
VERTEX
  8
型材断面
 10
-46.081908
 20
52.589955
  0
VERTEX
  8
型材断面
 10
-46.081908
 20
57.326798
  0
VERTEX
  8
型材断面
 10
-27.309977
 20
57.326798
  0
SEQEND
  0
LINE
  8
型材断面
  6
CONTINUOUS
 10
-103.775608
 20
45.444162
 11
-105.271238
 21
48.03467
  0
LINE
  8
型材断面
  6
CONTINUOUS
 10
-103.775608
 20
45.444162
 11
-102.279978
 21
48.03467
  0
LINE
  8
型材断面
  6
CONTINUOUS
 10
-102.279978
 20
48.03467
 11
-105.271238
 21
48.03467
  0
LINE
  8
型材断面
  6
CONTINUOUS
 10
-161.294482
 20
80.791505
 11
-160.698427
 21
78.200998
  0
LINE
  8
型材断面
  6
CONTINUOUS
 10
-161.294482
 20
80.791505
 11
-161.89054
 21
78.200998
  0
LINE
  8
型材断面
  6
CONTINUOUS
 10
-161.89054
 20
78.200998
 11
-160.698427
 21
78.200998
  0
LINE
  8
型材断面
  6
CONTINUOUS
 10
-167.31707
 20
74.922105
 11
-121.075292
 21
74.922105
  0
LINE
  8
型材断面
  6
CONTINUOUS
 10
-161.294482
 20
87.32138
 11
-162.790113
 21
84.730873
  0
LINE
  8
型材断面
  6
CONTINUOUS
 10
-161.294482
 20
87.32138
 11
-159.798852
 21
84.730873
  0
LINE
  8
型材断面
  6
CONTINUOUS
 10
-159.798852
 20
84.730873
 11
-162.790113
 21
84.730873
  0
LINE
  8
型材断面
  6
CONTINUOUS
 10
-167.31707
 20
83.792277
 11
-121.075292
 21
83.792277
  0
LINE
  8
型材断面
  6
CONTINUOUS
 10
-167.31707
 20
69.134073
 11
-121.075292
 21
69.134073
  0
LINE
  8
型材断面
  6
CONTINUOUS
 10
-123.072405
 20
32.814033
 11
-125.662913
 21
34.309663
  0
LINE
  8
型材断面
  6
CONTINUOUS
 10
-123.072405
 20
32.814033
 11
-125.662913
 21
31.318403
  0
LINE
  8
型材断面
  6
CONTINUOUS
 10
-125.662913
 20
31.318403
 11
-125.662913
 21
34.309663
  0
LINE
  8
型材断面
  6
CONTINUOUS
 10
-103.775608
 20
20.183902
 11
-105.271238
 21
17.593395
  0
LINE
  8
型材断面
  6
CONTINUOUS
 10
-103.775608
 20
20.183902
 11
-102.279978
 21
17.593395
  0
LINE
  8
型材断面
  6
CONTINUOUS
 10
-102.279978
 20
17.593395
 11
-105.271238
 21
17.593395
  0
LINE
  8
型材断面
  6
CONTINUOUS
 10
29.557727
 20
45.444162
 11
31.053357
 21
48.03467
  0
LINE
  8
型材断面
  6
CONTINUOUS
 10
29.557727
 20
45.444162
 11
28.062097
 21
48.03467
  0
LINE
  8
型材断面
  6
CONTINUOUS
 10
28.062097
 20
48.03467
 11
31.053357
 21
48.03467
  0
LINE
  8
型材断面
  6
CONTINUOUS
 10
48.854525
 20
32.814033
 11
51.445032
 21
34.309663
  0
LINE
  8
型材断面
  6
CONTINUOUS
 10
48.854525
 20
32.814033
 11
51.445032
 21
31.318403
  0
LINE
  8
型材断面
  6
CONTINUOUS
 10
51.445032
 20
31.318403
 11
51.445032
 21
34.309663
  0
LINE
  8
型材断面
  6
CONTINUOUS
 10
29.557727
 20
20.183902
 11
31.053357
 21
17.593395
  0
LINE
  8
型材断面
  6
CONTINUOUS
 10
29.557727
 20
20.183902
 11
28.062097
 21
17.593395
  0
LINE
  8
型材断面
  6
CONTINUOUS
 10
28.062097
 20
17.593395
 11
31.053357
 21
17.593395
  0
LINE
  8
型材断面
  6
CONTINUOUS
 10
-37.10894
 20
45.44416
 11
-35.61331
 21
48.034668
  0
LINE
  8
型材断面
  6
CONTINUOUS
 10
-37.10894
 20
45.44416
 11
-38.60457
 21
48.034668
  0
LINE
  8
型材断面
  6
CONTINUOUS
 10
-38.60457
 20
48.034668
 11
-35.61331
 21
48.034668
  0
LINE
  8
型材断面
  6
CONTINUOUS
 10
-37.10894
 20
20.1839
 11
-35.61331
 21
17.593392
  0
LINE
  8
型材断面
  6
CONTINUOUS
 10
-37.10894
 20
20.1839
 11
-38.60457
 21
17.593392
  0
LINE
  8
型材断面
  6
CONTINUOUS
 10
-38.60457
 20
17.593392
 11
-35.61331
 21
17.593392
  0
LINE
  8
型材断面
  6
CONTINUOUS
 10
48.854522
 20
39.114035
 11
51.445032
 21
38.517982
  0
LINE
  8
型材断面
  6
CONTINUOUS
 10
48.854522
 20
39.114035
 11
51.44503
 21
39.710095
  0
LINE
  8
型材断面
  6
CONTINUOUS
 10
51.44503
 20
39.710095
 11
51.445032
 21
38.517982
  0
LINE
  8
型材断面
  6
CONTINUOUS
 10
48.854522
 20
26.51403
 11
51.445032
 21
27.110082
  0
LINE
  8
型材断面
  6
CONTINUOUS
 10
48.854522
 20
26.51403
 11
51.44503
 21
25.91797
  0
LINE
  8
型材断面
  6
CONTINUOUS
 10
51.44503
 20
25.91797
 11
51.445032
 21
27.110082
  0
LINE
  8
型材断面
  6
CONTINUOUS
 10
-123.072403
 20
39.114035
 11
-125.662913
 21
38.517982
  0
LINE
  8
型材断面
  6
CONTINUOUS
 10
-123.072403
 20
39.114035
 11
-125.66291
 21
39.710095
  0
LINE
  8
型材断面
  6
CONTINUOUS
 10
-125.66291
 20
39.710095
 11
-125.662913
 21
38.517982
  0
LINE
  8
型材断面
  6
CONTINUOUS
 10
-123.072403
 20
26.51403
 11
-125.662913
 21
27.110082
  0
LINE
  8
型材断面
  6
CONTINUOUS
 10
-123.072403
 20
26.51403
 11
-125.66291
 21
25.91797
  0
LINE
  8
型材断面
  6
CONTINUOUS
 10
-125.66291
 20
25.91797
 11
-125.662913
 21
27.110082
  0
INSERT
  2
*GRP_0013
  8
型材断面
  6
CONTINUOUS
 10
0.0
 20
0.0
  0
INSERT
  2
*GRP_0014
  8
型材断面
  6
CONTINUOUS
 10
0.0
 20
0.0
  0
INSERT
  2
*GRP_0015
  8
型材断面
  6
CONTINUOUS
 10
0.0
 20
0.0
  0
INSERT
  2
*GRP_0016
  8
型材断面
  6
CONTINUOUS
 10
0.0
 20
0.0
  0
LINE
  8
型材断面
  6
CONTINUOUS
 62
    47
 10
143.29116
 20
21.3307
 11
143.29116
 21
32.814033
  0
LINE
  8
型材断面
  6
CONTINUOUS
 62
    47
 10
143.29116
 20
21.3307
 11
142.79116
 21
21.3307
  0
LINE
  8
型材断面
  6
CONTINUOUS
 62
    47
 10
142.79116
 20
32.814033
 11
142.79116
 21
20.8307
  0
LINE
  8
型材断面
  6
CONTINUOUS
 62
    47
 10
142.79116
 20
20.8307
 11
139.474493
 21
20.8307
  0
LINE
  8
型材断面
  6
CONTINUOUS
 62
    47
 10
139.47447
 20
32.814033
 11
139.474493
 21
20.8307
  0
LINE
  8
型材断面
  6
CONTINUOUS
 62
    47
 10
139.307775
 20
32.814033
 11
139.307775
 21
20.8307
  0
LINE
  8
型材断面
  6
CONTINUOUS
 62
    47
 10
137.134442
 20
32.814033
 11
137.134442
 21
20.8307
  0
LINE
  8
型材断面
  6
CONTINUOUS
 62
    47
 10
137.134442
 20
20.8307
 11
139.307775
 21
20.8307
  0
LINE
  8
型材断面
  6
CONTINUOUS
 62
    47
 10
137.134442
 20
21.714033
 11
136.757657
 21
21.714033
  0
LINE
  8
型材断面
  6
CONTINUOUS
 62
    47
 10
143.29116
 20
44.297367
 11
143.29116
 21
32.814033
  0
LINE
  8
型材断面
  6
CONTINUOUS
 62
    47
 10
143.29116
 20
44.297367
 11
142.79116
 21
44.297367
  0
LINE
  8
型材断面
  6
CONTINUOUS
 62
    47
 10
142.79116
 20
32.814033
 11
142.79116
 21
44.797367
  0
LINE
  8
型材断面
  6
CONTINUOUS
 62
    47
 10
142.79116
 20
44.797367
 11
139.474493
 21
44.797367
  0
LINE
  8
型材断面
  6
CONTINUOUS
 62
    47
 10
139.47447
 20
32.814033
 11
139.474493
 21
44.797367
  0
LINE
  8
型材断面
  6
CONTINUOUS
 62
    47
 10
139.307775
 20
32.814033
 11
139.307775
 21
44.797367
  0
LINE
  8
型材断面
  6
CONTINUOUS
 62
    47
 10
137.134442
 20
32.814033
 11
137.134442
 21
44.797367
  0
LINE
  8
型材断面
  6
CONTINUOUS
 62
    47
 10
137.134442
 20
44.797367
 11
139.307775
 21
44.797367
  0
LINE
  8
型材断面
  6
CONTINUOUS
 62
    47
 10
137.134442
 20
43.914033
 11
136.757657
 21
43.914033
  0
LINE
  8
型材断面
  6
CONTINUOUS
 62
    47
 10
47.707727
 20
-77.743115
 11
47.707727
 21
-77.243115
  0
LINE
  8
型材断面
  6
CONTINUOUS
 62
    47
 10
48.207727
 20
-77.243115
 11
48.207727
 21
-73.926447
  0
LINE
  8
型材断面
  6
CONTINUOUS
 62
    47
 10
48.207727
 20
-71.586398
 11
48.207727
 21
-73.75973
  0
LINE
  8
型材断面
  6
CONTINUOUS
 62
    47
 10
47.324395
 20
-71.586398
 11
47.324395
 21
-71.209613
  0
LINE
  8
型材断面
  6
CONTINUOUS
 62
    47
 10
47.707727
 20
-77.743115
 11
-37.10894
 21
-77.743115
  0
LINE
  8
型材断面
  6
CONTINUOUS
 62
    47
 10
48.207727
 20
-77.243115
 11
-37.10894
 21
-77.243115
  0
LINE
  8
型材断面
  6
CONTINUOUS
 62
    47
 10
48.207727
 20
-73.926447
 11
-37.10894
 21
-73.926288
  0
LINE
  8
型材断面
  6
CONTINUOUS
 62
    47
 10
48.207727
 20
-73.75973
 11
-37.10894
 21
-73.75973
  0
LINE
  8
型材断面
  6
CONTINUOUS
 62
    47
 10
48.207727
 20
-71.586398
 11
-37.10894
 21
-71.586398
  0
LINE
  8
型材断面
  6
CONTINUOUS
 62
    47
 10
-121.925608
 20
-77.743115
 11
-121.925608
 21
-77.243115
  0
LINE
  8
型材断面
  6
CONTINUOUS
 62
    47
 10
-122.425608
 20
-77.243115
 11
-122.425608
 21
-73.926447
  0
LINE
  8
型材断面
  6
CONTINUOUS
 62
    47
 10
-122.425608
 20
-71.586398
 11
-122.425608
 21
-73.75973
  0
LINE
  8
型材断面
  6
CONTINUOUS
 62
    47
 10
-121.542275
 20
-71.586398
 11
-121.542275
 21
-71.209613
  0
LINE
  8
型材断面
  6
CONTINUOUS
 62
    47
 10
-121.925608
 20
-77.743115
 11
-37.10894
 21
-77.743115
  0
LINE
  8
型材断面
  6
CONTINUOUS
 62
    47
 10
-122.425608
 20
-77.243115
 11
-37.10894
 21
-77.243115
  0
LINE
  8
型材断面
  6
CONTINUOUS
 62
    47
 10
-122.425608
 20
-73.926447
 11
-37.10894
 21
-73.926288
  0
LINE
  8
型材断面
  6
CONTINUOUS
 62
    47
 10
-122.425608
 20
-73.75973
 11
-37.10894
 21
-73.75973
  0
LINE
  8
型材断面
  6
CONTINUOUS
 62
    47
 10
-122.425608
 20
-71.586398
 11
-37.10894
 21
-71.586398
  0
LINE
  8
型材断面
  6
CONTINUOUS
 10
-167.31707
 20
63.34604
 11
-121.075292
 21
63.34604
  0
TEXT
  7
TextStyle03
  8
文字
  6
CONTINUOUS
 10
122.775
 20
-76.7
  1
網入り6.8t
 40
3.0
 72
     5
 11
139.4625
 21
-76.7
  0
TEXT
  7
TextStyle03
  8
文字
  6
CONTINUOUS
 10
129.45
 20
-81.375
  1
×５枚
 40
3.0
 72
     5
 11
139.2
 21
-81.375
  0
TEXT
  7
TextStyle03
  8
文字
  6
CONTINUOUS
 10
-45.025
 20
9.325
  1
可動装置側
 40
3.0
 72
     5
 11
-28.525
 21
9.325
  0
TEXT
  7
TextStyle03
  8
文字
  6
CONTINUOUS
 10
-45.025
 20
53.3
  1
可動装置側
 40
3.0
 72
     5
 11
-28.525
 21
53.3
  0
TEXT
  7
TextStyle03
  8
文字
  6
CONTINUOUS
 10
-158.45
 20
79.425
  1
はケーシング位置を示す
 40
3.0
 72
     5
 11
-121.7
 21
79.425
  0
TEXT
  7
TextStyle03
  8
文字
  6
CONTINUOUS
 10
-158.45
 20
76.05
  1
４ヶ所中1ヶ所に設定
 40
3.0
 72
     5
 11
-126.7625
 21
76.05
  0
TEXT
  7
TextStyle03
  8
文字
  6
CONTINUOUS
 10
-158.45
 20
84.95
  1
は排水穴位置を示す
 40
3.0
 72
     5
 11
-128.45
 21
84.95
  0
TEXT
  7
TextStyle03
  8
文字
  6
CONTINUOUS
 10
-141.45
 20
11.275
  1
アンカーピッチ
 40
3.0
 50
90.0
 72
     5
 11
-141.45
 21
34.525
  0
TEXT
  7
TextStyle03
  8
文字
  6
CONTINUOUS
 10
-109.7
 20
80.275
  1
アンカーピッチ
 40
3.0
 72
     5
 11
-86.45
 21
80.275
  0
TEXT
  7
TextStyle03
  8
文字
  6
CONTINUOUS
 10
-162.275
 20
64.3
  1
アームユニット数　４ヶ所
 40
3.0
 72
     5
 11
-122.15
 21
64.3
  0
TEXT
  7
TextStyle03
  8
文字
  6
CONTINUOUS
 10
-162.175
 20
70.075
  1
アンカー数量　１８ヶ所
 40
3.0
 72
     5
 11
-125.425
 21
70.075
  0
TEXT
  7
TextStyle03
  8
文字
  6
CONTINUOUS
 10
78.1
 20
125.25
  1
シリーズ：ＴＤ２Ｌ
 40
5.0
 72
     5
 11
128.1
 21
125.25
  0
TEXT
  7
TextStyle03
  8
文字
  6
CONTINUOUS
 10
78.1
 20
119.625
  1
　　　　　（上下可動）600×5000タイプ
 40
5.0
 72
     5
 11
181.5375
 21
119.625
  0
TEXT
  7
TextStyle03
  8
文字
  6
CONTINUOUS
 10
78.1
 20
114.0
  1
図面名　：外観姿図
 40
5.0
 72
     5
 11
128.1
 21
114.0
  0
TEXT
  7
TextStyle03
  8
文字
  6
CONTINUOUS
 10
78.1
 20
108.375
  1
　　　　　　
 40
5.0
 72
     5
 11
111.225
 21
108.375
  0
TEXT
  7
TextStyle03
  8
文字
  6
CONTINUOUS
 10
77.925
 20
102.675
  1
ＮＳコード：ＮＳＤＺＬ
 40
5.0
 72
     5
 11
139.175
 21
102.675
  0
INSERT
  2
*DIM_0002
  8
寸法
  6
CONTINUOUS
 10
0.0
 20
0.0
  0
INSERT
  2
*DIM_0003
  8
寸法
  6
CONTINUOUS
 10
0.0
 20
0.0
  0
INSERT
  2
*DIM_0004
  8
寸法
  6
CONTINUOUS
 10
0.0
 20
0.0
  0
INSERT
  2
*DIM_0005
  8
寸法
  6
CONTINUOUS
 10
0.0
 20
0.0
  0
INSERT
  2
*DIM_0006
  8
寸法
  6
CONTINUOUS
 10
0.0
 20
0.0
  0
INSERT
  2
*DIM_0007
  8
寸法
  6
CONTINUOUS
 10
0.0
 20
0.0
  0
INSERT
  2
*DIM_0008
  8
寸法
  6
CONTINUOUS
 10
0.0
 20
0.0
  0
INSERT
  2
*DIM_0009
  8
寸法
  6
CONTINUOUS
 10
0.0
 20
0.0
  0
INSERT
  2
*DIM_0010
  8
寸法
  6
CONTINUOUS
 10
0.0
 20
0.0
  0
INSERT
  2
*DIM_0011
  8
寸法
  6
CONTINUOUS
 10
0.0
 20
0.0
  0
INSERT
  2
*DIM_0017
  8
寸法
  6
CONTINUOUS
 10
0.0
 20
0.0
  0
INSERT
  2
*DIM_0018
  8
寸法
  6
CONTINUOUS
 10
0.0
 20
0.0
  0
INSERT
  2
*DIM_0019
  8
寸法
  6
CONTINUOUS
 10
0.0
 20
0.0
  0
INSERT
  2
*DIM_0020
  8
寸法
  6
CONTINUOUS
 10
0.0
 20
0.0
  0
INSERT
  2
*DIM_0021
  8
寸法
  6
CONTINUOUS
 10
0.0
 20
0.0
  0
INSERT
  2
*DIM_0022
  8
寸法
  6
CONTINUOUS
 10
0.0
 20
0.0
  0
INSERT
  2
*DIM_0023
  8
寸法
  6
CONTINUOUS
 10
0.0
 20
0.0
  0
INSERT
  2
*DIM_0024
  8
寸法
  6
CONTINUOUS
 10
0.0
 20
0.0
  0
INSERT
  2
*DIM_0025
  8
寸法
  6
CONTINUOUS
 10
0.0
 20
0.0
  0
INSERT
  2
*DIM_0026
  8
寸法
  6
CONTINUOUS
 10
0.0
 20
0.0
  0
INSERT
  2
*DIM_0027
  8
寸法
  6
CONTINUOUS
 10
0.0
 20
0.0
  0
INSERT
  2
*DIM_0028
  8
寸法
  6
CONTINUOUS
 10
0.0
 20
0.0
  0
INSERT
  2
*DIM_0029
  8
寸法
  6
CONTINUOUS
 10
0.0
 20
0.0
  0
INSERT
  2
*DIM_0037
  8
寸法
  6
CONTINUOUS
 10
0.0
 20
0.0
  0
LINE
  8
別途部材
  6
CONTINUOUS
 10
48.29106
 20
20.747365
 11
47.89106
 21
21.147365
  0
LINE
  8
別途部材
  6
CONTINUOUS
 10
46.224393
 20
22.814033
 11
38.165137
 21
30.87329
  0
LINE
  8
別途部材
  6
CONTINUOUS
 62
    96
 10
135.757657
 20
21.147365
 11
136.757657
 21
20.747365
  0
LINE
  8
別途部材
  6
CONTINUOUS
 62
    96
 10
135.757657
 20
21.147365
 11
135.757657
 21
32.814033
  0
LINE
  8
別途部材
  6
CONTINUOUS
 10
136.757657
 20
20.747365
 11
136.757657
 21
32.814033
  0
LINE
  8
別途部材
  6
CONTINUOUS
 62
    96
 10
135.757657
 20
44.4807
 11
136.757657
 21
44.8807
  0
LINE
  8
別途部材
  6
CONTINUOUS
 62
    96
 10
135.757657
 20
44.4807
 11
135.757657
 21
32.814033
  0
LINE
  8
別途部材
  6
CONTINUOUS
 10
136.757657
 20
44.8807
 11
136.757657
 21
32.814033
  0
ARC
  8
別途部材
  6
CONTINUOUS
 10
142.465993
 20
32.814033
 40
12.041667
 50
123.855033
 51
236.144967
  0
LINE
  8
別途部材
  6
CONTINUOUS
 10
47.89106
 20
21.147365
 11
47.89106
 21
32.814033
  0
LINE
  8
別途部材
  6
CONTINUOUS
 10
48.29106
 20
20.747365
 11
48.29106
 21
32.814033
  0
LINE
  8
別途部材
  6
CONTINUOUS
 10
48.29106
 20
44.8807
 11
47.89106
 21
44.4807
  0
LINE
  8
別途部材
  6
CONTINUOUS
 10
46.224393
 20
42.814033
 11
38.165137
 21
34.754775
  0
LINE
  8
別途部材
  6
CONTINUOUS
 10
47.89106
 20
44.4807
 11
47.89106
 21
32.814033
  0
LINE
  8
別途部材
  6
CONTINUOUS
 10
48.29106
 20
44.8807
 11
48.29106
 21
32.814033
  0
LINE
  8
別途部材
  6
CONTINUOUS
 10
47.89106
 20
44.4807
 11
-37.10894
 21
44.4807
  0
LINE
  8
別途部材
  6
CONTINUOUS
 10
48.29106
 20
44.8807
 11
-37.10894
 21
44.8807
  0
LINE
  8
別途部材
  6
CONTINUOUS
 10
48.29106
 20
20.747365
 11
-37.10894
 21
20.747365
  0
LINE
  8
別途部材
  6
CONTINUOUS
 10
47.89106
 20
21.147365
 11
-37.10894
 21
21.147365
  0
LINE
  8
別途部材
  6
CONTINUOUS
 10
-122.50894
 20
20.747365
 11
-122.10894
 21
21.147365
  0
LINE
  8
別途部材
  6
CONTINUOUS
 10
-120.442273
 20
22.814033
 11
-112.383018
 21
30.87329
  0
LINE
  8
別途部材
  6
CONTINUOUS
 10
-122.10894
 20
21.147365
 11
-122.10894
 21
32.814033
  0
LINE
  8
別途部材
  6
CONTINUOUS
 10
-122.50894
 20
20.747365
 11
-122.50894
 21
32.814033
  0
LINE
  8
別途部材
  6
CONTINUOUS
 10
-122.50894
 20
44.8807
 11
-122.10894
 21
44.4807
  0
LINE
  8
別途部材
  6
CONTINUOUS
 10
-120.442273
 20
42.814033
 11
-112.383018
 21
34.754775
  0
LINE
  8
別途部材
  6
CONTINUOUS
 10
-122.10894
 20
44.4807
 11
-122.10894
 21
32.814033
  0
LINE
  8
別途部材
  6
CONTINUOUS
 10
-122.50894
 20
44.8807
 11
-122.50894
 21
32.814033
  0
LINE
  8
別途部材
  6
CONTINUOUS
 10
-122.10894
 20
44.4807
 11
-37.10894
 21
44.4807
  0
LINE
  8
別途部材
  6
CONTINUOUS
 10
-122.50894
 20
44.8807
 11
-37.10894
 21
44.8807
  0
LINE
  8
別途部材
  6
CONTINUOUS
 10
-122.50894
 20
20.747365
 11
-37.10894
 21
20.747365
  0
LINE
  8
別途部材
  6
CONTINUOUS
 10
-122.10894
 20
21.147365
 11
-37.10894
 21
21.147365
  0
LINE
  8
別途部材
  6
DOT
 62
    96
 10
47.89106
 20
-62.87628
 11
48.29106
 21
-63.87628
  0
ARC
  8
別途部材
  6
DOT
 10
36.224392
 20
-69.584615
 40
12.041667
 50
33.855033
 51
90.0
  0
LINE
  8
別途部材
  6
DOT
 10
36.224393
 20
-57.542947
 11
-37.10894
 21
-57.542947
  0
LINE
  8
別途部材
  6
DOT
 62
    96
 10
47.89106
 20
-62.87628
 11
-37.10894
 21
-62.87628
  0
LINE
  8
別途部材
  6
DOT
 10
48.29106
 20
-63.87628
 11
-37.10894
 21
-63.87628
  0
LINE
  8
別途部材
  6
DOT
 62
    96
 10
-122.10894
 20
-62.87628
 11
-122.50894
 21
-63.87628
  0
ARC
  8
別途部材
  6
DOT
 10
-110.442272
 20
-69.584615
 40
12.041667
 50
90.0
 51
146.144967
  0
LINE
  8
別途部材
  6
DOT
 10
-110.442273
 20
-57.542947
 11
-37.10894
 21
-57.542947
  0
LINE
  8
別途部材
  6
DOT
 62
    96
 10
-122.10894
 20
-62.87628
 11
-37.10894
 21
-62.87628
  0
LINE
  8
別途部材
  6
DOT
 10
-122.50894
 20
-63.87628
 11
-37.10894
 21
-63.87628
  0
INSERT
  2
*GRP_0012
  8
別途部材
  6
CONTINUOUS
 10
0.0
 20
0.0
  0
INSERT
  2
*GRP_0031
  8
別途部材
  6
DOT
 10
0.0
 20
0.0
  0
INSERT
  2
*GRP_0032
  8
別途部材
  6
DOT
 10
0.0
 20
0.0
  0
INSERT
  2
*GRP_0033
  8
別途部材
  6
DOT
 10
0.0
 20
0.0
  0
INSERT
  2
*GRP_0034
  8
別途部材
  6
DOT
 10
0.0
 20
0.0
  0
INSERT
  2
*GRP_0035
  8
別途部材
  6
DOT
 10
0.0
 20
0.0
  0
INSERT
  2
*GRP_0036
  8
別途部材
  6
DOT
 10
0.0
 20
0.0
  0
LINE
  8
曲げ物
  6
CONTINUOUS
 10
141.310947
 20
-83.118728
 11
141.310947
 21
-63.785395
  0
LINE
  8
曲げ物
  6
CONTINUOUS
 10
108.96428
 20
-83.118728
 11
108.96428
 21
-63.785395
  0
LINE
  8
曲げ物
  6
CONTINUOUS
 10
141.310947
 20
-63.785395
 11
108.96428
 21
-63.785395
  0
LINE
  8
曲げ物
  6
CONTINUOUS
 10
141.310947
 20
-83.118728
 11
108.96428
 21
-83.118728
  0
ENDSEC
  0
EOF
