  0
SECTION
  2
HEADER
  9
$EXTMIN
 10
-210.0
 20
-148.5
  9
$EXTMAX
 10
210.0
 20
148.5
  9
$PDMODE
 70
    32
  9
$PDSIZE
 40
1.5
  9
$LTSCALE
 40
10.0
  0
ENDSEC
  0
SECTION
  2
TABLES
  0
TABLE
  2
LTYPE
 70
    15
  0
LTYPE
  2
CONTINUOUS
 70
    64
  3
実線
 72
    65
 73
     0
 40
0.0
  0
LTYPE
  2
DASHED
 70
    64
  3
破線A
 72
    65
 73
     2
 40
0.6
 49
0.4
 49
-0.2
  0
LTYPE
  2
DASHEDX2
 70
    64
  3
破線B
 72
    65
 73
     2
 40
1.3
 49
0.9
 49
-0.4
  0
LTYPE
  2
DASHDOT
 70
    64
  3
１点鎖線A
 72
    65
 73
     4
 40
0.5375
 49
0.375
 49
-0.05
 49
0.0625
 49
-0.05
  0
LTYPE
  2
DASHDOTX2
 70
    64
  3
１点鎖線B
 72
    65
 73
     4
 40
1.075
 49
0.75
 49
-0.1
 49
0.125
 49
-0.1
  0
LTYPE
  2
DIVIDE2
 70
    64
  3
２点鎖線A
 72
    65
 73
     6
 40
0.5125
 49
0.3
 49
-0.0375
 49
0.05
 49
-0.0375
 49
0.05
 49
-0.0375
  0
LTYPE
  2
DIVIDE
 70
    64
  3
２点鎖線B
 72
    65
 73
     6
 40
1.05
 49
0.55
 49
-0.1
 49
0.1
 49
-0.1
 49
0.1
 49
-0.1
  0
LTYPE
  2
DOT
 70
    64
  3
点線A
 72
    65
 73
     2
 40
0.1125
 49
0.0625
 49
-0.05
  0
LTYPE
  2
DOTX2
 70
    64
  3
点線B
 72
    65
 73
     2
 40
0.275
 49
0.15
 49
-0.125
  0
LTYPE
  2
CONTINUOUS
 70
    64
  3
実線
 72
    65
 73
     0
 40
0.0
  0
LTYPE
  2
CONTINUOUS
 70
    64
  3
実線
 72
    65
 73
     0
 40
0.0
  0
LTYPE
  2
CONTINUOUS
 70
    64
  3
実線
 72
    65
 73
     0
 40
0.0
  0
LTYPE
  2
CONTINUOUS
 70
    64
  3
実線
 72
    65
 73
     0
 40
0.0
  0
LTYPE
  2
CONTINUOUS
 70
    64
  3
実線
 72
    65
 73
     0
 40
0.0
  0
LTYPE
  2
CONTINUOUS
 70
    64
  3
実線
 72
    65
 73
     0
 40
0.0
  0
ENDTAB
  0
TABLE
  2
LAYER
 70
    34
  0
LAYER
  2
通り芯
 70
     0
 62
    15
  6
CONTINUOUS
  0
LAYER
  2
補助線
 70
     0
 62
    16
  6
DOT
  0
LAYER
  2
躯体
 70
     0
 62
    31
  6
CONTINUOUS
  0
LAYER
  2
型材
 70
     0
 62
    32
  6
CONTINUOUS
  0
LAYER
  2
型材断面
 70
     0
 62
    47
  6
CONTINUOUS
  0
LAYER
  2
ガラス
 70
     0
 62
    48
  6
CONTINUOUS
  0
LAYER
  2
ゴム等
 70
     0
 62
    63
  6
CONTINUOUS
  0
LAYER
  2
ボルト／ビス
 70
     0
 62
    64
  6
CONTINUOUS
  0
LAYER
  2
文字
 70
     0
 62
    79
  6
CONTINUOUS
  0
LAYER
  2
寸法
 70
     0
 62
    80
  6
CONTINUOUS
  0
LAYER
  2
ﾊｯﾁﾝｸﾞ
 70
     0
 62
    95
  6
CONTINUOUS
  0
LAYER
  2
別途部材
 70
     0
 62
    96
  6
CONTINUOUS
  0
LAYER
  2
曲げ物
 70
     0
 62
   111
  6
CONTINUOUS
  0
LAYER
  2
鉄骨等
 70
     0
 62
   112
  6
CONTINUOUS
  0
LAYER
  2
St
 70
     0
 62
   127
  6
CONTINUOUS
  0
LAYER
  2
その他部品等
 70
     0
 62
   128
  6
CONTINUOUS
  0
LAYER
  2
ｶﾞｽｹｯﾄ
 70
     0
 62
   143
  6
CONTINUOUS
  0
LAYER
  2
ｽｹｯﾁ
 70
     0
 62
    14
  6
CONTINUOUS
  0
LAYER
  2
0
 70
     0
 62
    17
  6
CONTINUOUS
  0
LAYER
  2
1
 70
     0
 62
    30
  6
CONTINUOUS
  0
LAYER
  2
4
 70
     0
 62
    33
  6
CONTINUOUS
  0
LAYER
  2
ﾚｲﾔ3
 70
     0
 62
    46
  6
CONTINUOUS
  0
LAYER
  2
外形線
 70
     0
 62
    49
  6
CONTINUOUS
  0
LAYER
  2
部品
 70
     0
 62
    14
  6
CONTINUOUS
  0
LAYER
  2
サッシ芯
 70
     0
 62
    17
  6
DASHDOTX2
  0
LAYER
  2
寸法線
 70
     0
 62
    62
  6
CONTINUOUS
  0
LAYER
  2
姿図外形線
 70
     0
 62
    65
  6
CONTINUOUS
  0
LAYER
  2
姿補助線
 70
     0
 62
    30
  6
CONTINUOUS
  0
LAYER
  2
透視線
 70
     0
 62
    78
  6
DOT
  0
LAYER
  2
用紙
 70
     0
 62
    81
  6
CONTINUOUS
  0
LAYER
  2
実線図枠
 70
     0
 62
    94
  6
CONTINUOUS
  0
LAYER
  2
補助図枠
 70
     0
 62
    97
  6
CONTINUOUS
  0
LAYER
  2
建具記号
 70
     0
 62
   110
  6
CONTINUOUS
  0
LAYER
  2
補助文字
 70
     0
 62
   113
  6
CONTINUOUS
  0
ENDTAB
  0
TABLE
  2
STYLE
 70
    10
  0
STYLE
  2
STANDARD
 70
     0
 40
1.0
 41
1.0
 42
1.0
 50
0.0
 71
     0
  3
TXT
  4
BIGFONT
  0
STYLE
  2
TATE
 70
     4
 40
1.0
 41
1.0
 42
1.0
 50
0.0
 71
     0
  3
TXT
  4
BIGFONT
  0
STYLE
  2
TextStyle03
 70
     0
 40
1.0
 41
1.0
 42
1.0
 50
0.0
 71
     0
  3
MONOTXT
  4
BIGFONT
  0
STYLE
  2
TextStyle04
 70
     0
 40
1.0
 41
1.0
 42
1.0
 50
0.0
 71
     0
  3
MONOTXT
  4
BIGFONT
  0
STYLE
  2
TextStyle05
 70
     0
 40
1.0
 41
1.0
 42
1.0
 50
0.0
 71
     0
  3
MONOTXT
  4
BIGFONT
  0
STYLE
  2
TextStyle06
 70
     0
 40
1.0
 41
1.0
 42
1.0
 50
0.0
 71
     0
  3
MONOTXT
  4
BIGFONT
  0
STYLE
  2
TextStyle07
 70
     0
 40
1.0
 41
1.0
 42
1.0
 50
0.0
 71
     0
  3
MONOTXT
  4
BIGFONT
  0
STYLE
  2
TextStyle08
 70
     0
 40
1.0
 41
1.0
 42
1.0
 50
0.0
 71
     0
  3
MONOTXT
  4
BIGFONT
  0
STYLE
  2
TextStyle09
 70
     0
 40
1.0
 41
1.0
 42
1.0
 50
0.0
 71
     0
  3
MONOTXT
  4
BIGFONT
  0
STYLE
  2
TextStyle10
 70
     0
 40
1.0
 41
1.0
 42
1.0
 50
0.0
 71
     0
  3
MONOTXT
  4
BIGFONT
  0
ENDTAB
  0
ENDSEC
  0
SECTION
  2
BLOCKS
  0
BLOCK
  2
*GRP_0001
 70
    65
 10
0.0
 20
0.0
  0
LINE
  8
型材断面
  6
CONTINUOUS
 10
195.0
 20
133.5
 11
195.0
 21
-133.5
  0
LINE
  8
型材断面
  6
CONTINUOUS
 10
195.0
 20
-133.5
 11
-185.0
 21
-133.5
  0
LINE
  8
型材断面
  6
CONTINUOUS
 10
-185.0
 20
-133.5
 11
-185.0
 21
133.5
  0
LINE
  8
型材断面
  6
CONTINUOUS
 10
195.0
 20
133.5
 11
-185.0
 21
133.5
  0
LINE
  8
型材断面
  6
CONTINUOUS
 10
145.0
 20
-133.5
 11
145.0
 21
-118.5
  0
LINE
  8
型材断面
  6
CONTINUOUS
 10
195.0
 20
-118.5
 11
145.0
 21
-118.5
  0
ENDBLK
  0
BLOCK
  2
*DIM_0002
 70
    65
 10
0.0
 20
0.0
  0
LINE
  8
寸法
  6
BYBLOCK
 62
     0
 10
37.224393
 20
-64.87628
 11
62.194043
 21
-64.87628
  0
LINE
  8
寸法
  6
BYBLOCK
 62
     0
 10
62.194043
 20
-70.209613
 11
62.194043
 21
-64.87628
  0
POINT
  8
寸法
 62
     0
 10
62.194043
 20
-70.209613
  0
POINT
  8
寸法
 62
     0
 10
62.194043
 20
-64.87628
  0
TEXT
  7
TextStyle03
  8
寸法
  6
CONTINUOUS
 62
     0
 10
61.8
 20
-69.9875
  1
160
 40
3.0
 50
90.0
 72
     5
 11
61.8
 21
-65.1125
  0
ENDBLK
  0
BLOCK
  2
*DIM_0003
 70
    65
 10
0.0
 20
0.0
  0
LINE
  8
寸法
  6
BYBLOCK
 62
     0
 10
80.244043
 20
22.814033
 11
80.244043
 21
42.814033
  0
POINT
  8
寸法
 62
     0
 10
80.244043
 20
22.814033
  0
POINT
  8
寸法
 62
     0
 10
80.244043
 20
42.814033
  0
TEXT
  7
TextStyle03
  8
寸法
  6
CONTINUOUS
 62
     0
 10
79.85
 20
21.925
  1
呼称寸法　600
 40
3.0
 50
90.0
 72
     5
 11
79.85
 21
43.675
  0
ENDBLK
  0
BLOCK
  2
*DIM_0004
 70
    65
 10
0.0
 20
0.0
  0
LINE
  8
寸法
  6
BYBLOCK
 62
     0
 10
130.424325
 20
33.814033
 11
130.424325
 21
60.666798
  0
LINE
  8
寸法
  6
BYBLOCK
 62
     0
 10
135.757657
 20
60.666798
 11
130.424325
 21
60.666798
  0
POINT
  8
寸法
 62
     0
 10
135.757657
 20
60.666798
  0
POINT
  8
寸法
 62
     0
 10
130.424325
 20
60.666798
  0
TEXT
  7
TextStyle03
  8
寸法
  6
CONTINUOUS
 62
     0
 10
130.6375
 20
61.025
  1
160
 40
3.0
 72
     5
 11
135.5125
 21
61.025
  0
ENDBLK
  0
BLOCK
  2
*DIM_0005
 70
    65
 10
0.0
 20
0.0
  0
LINE
  8
寸法
  6
BYBLOCK
 62
     0
 10
142.310947
 20
-63.785395
 11
150.422478
 21
-63.785395
  0
LINE
  8
寸法
  6
BYBLOCK
 62
     0
 10
142.310947
 20
-83.118728
 11
150.422478
 21
-83.118728
  0
LINE
  8
寸法
  6
BYBLOCK
 62
     0
 10
150.422478
 20
-63.785395
 11
150.422478
 21
-83.118728
  0
POINT
  8
寸法
 62
     0
 10
150.422478
 20
-63.785395
  0
POINT
  8
寸法
 62
     0
 10
150.422478
 20
-83.118728
  0
TEXT
  7
TextStyle03
  8
寸法
  6
CONTINUOUS
 62
     0
 10
150.025
 20
-75.9125
  1
580
 40
3.0
 50
90.0
 72
     5
 11
150.025
 21
-71.0375
  0
ENDBLK
  0
BLOCK
  2
*DIM_0006
 70
    65
 10
0.0
 20
0.0
  0
LINE
  8
寸法
  6
BYBLOCK
 62
     0
 10
46.224393
 20
-13.121378
 11
-103.775608
 21
-13.121378
  0
POINT
  8
寸法
 62
     0
 10
46.224393
 20
-13.121378
  0
POINT
  8
寸法
 62
     0
 10
-103.775608
 20
-13.121378
  0
TEXT
  7
TextStyle03
  8
寸法
  6
CONTINUOUS
 62
     0
 10
-40.51875
 20
-12.75
  1
呼称寸法　4500
 40
3.0
 72
     5
 11
-17.08125
 21
-12.75
  0
ENDBLK
  0
BLOCK
  2
*DIM_0007
 70
    65
 10
0.0
 20
0.0
  0
LINE
  8
寸法
  6
BYBLOCK
 62
     0
 10
104.777615
 20
-62.785395
 11
104.777615
 21
-52.925658
  0
LINE
  8
寸法
  6
BYBLOCK
 62
     0
 10
141.310947
 20
-62.785395
 11
141.310947
 21
-52.925658
  0
LINE
  8
寸法
  6
BYBLOCK
 62
     0
 10
104.777615
 20
-52.925658
 11
141.310947
 21
-52.925658
  0
POINT
  8
寸法
 62
     0
 10
104.777615
 20
-52.925658
  0
POINT
  8
寸法
 62
     0
 10
141.310947
 20
-52.925658
  0
TEXT
  7
TextStyle03
  8
寸法
  6
CONTINUOUS
 62
     0
 10
119.74375
 20
-52.575
  1
1096
 40
3.0
 72
     5
 11
126.30625
 21
-52.575
  0
ENDBLK
  0
BLOCK
  2
*DIM_0008
 70
    65
 10
0.0
 20
0.0
  0
LINE
  8
寸法
  6
BYBLOCK
 62
     0
 10
-87.10894
 20
19.183902
 11
-87.10894
 21
14.03092
  0
LINE
  8
寸法
  6
BYBLOCK
 62
     0
 10
-28.775608
 20
19.183905
 11
-28.775608
 21
14.03092
  0
LINE
  8
寸法
  6
BYBLOCK
 62
     0
 10
-87.10894
 20
14.03092
 11
-28.775608
 21
14.03092
  0
POINT
  8
寸法
 62
     0
 10
-87.10894
 20
14.03092
  0
POINT
  8
寸法
 62
     0
 10
-28.775608
 20
14.03092
  0
TEXT
  7
TextStyle03
  8
寸法
  6
CONTINUOUS
 62
     0
 10
-61.23125
 20
14.4
  1
1750
 40
3.0
 72
     5
 11
-54.66875
 21
14.4
  0
ENDBLK
  0
BLOCK
  2
*DIM_0009
 70
    65
 10
0.0
 20
0.0
  0
LINE
  8
寸法
  6
BYBLOCK
 62
     0
 10
29.557725
 20
19.183902
 11
29.557725
 21
14.03092
  0
LINE
  8
寸法
  6
BYBLOCK
 62
     0
 10
-28.775608
 20
14.03092
 11
29.557725
 21
14.03092
  0
POINT
  8
寸法
 62
     0
 10
29.557725
 20
14.03092
  0
TEXT
  7
TextStyle03
  8
寸法
  6
CONTINUOUS
 62
     0
 10
-2.90625
 20
14.4
  1
1750
 40
3.0
 72
     5
 11
3.65625
 21
14.4
  0
ENDBLK
  0
BLOCK
  2
*DIM_0010
 70
    65
 10
0.0
 20
0.0
  0
LINE
  8
寸法
  6
BYBLOCK
 62
     0
 10
47.224393
 20
42.814035
 11
56.948675
 21
42.814035
  0
LINE
  8
寸法
  6
BYBLOCK
 62
     0
 10
49.854522
 20
39.114035
 11
56.948675
 21
39.114035
  0
LINE
  8
寸法
  6
BYBLOCK
 62
     0
 10
56.948675
 20
42.814035
 11
56.948675
 21
39.114035
  0
POINT
  8
寸法
 62
     0
 10
56.948675
 20
42.814035
  0
POINT
  8
寸法
 62
     0
 10
56.948675
 20
39.114035
  0
TEXT
  7
TextStyle03
  8
寸法
  6
CONTINUOUS
 62
     0
 10
56.625
 20
43.8125
  1
111
 40
3.0
 50
90.0
 72
     5
 11
56.625
 21
48.6875
  0
ENDBLK
  0
BLOCK
  2
*DIM_0011
 70
    65
 10
0.0
 20
0.0
  0
LINE
  8
寸法
  6
BYBLOCK
 62
     0
 10
47.224393
 20
22.81403
 11
56.948675
 21
22.814027
  0
LINE
  8
寸法
  6
BYBLOCK
 62
     0
 10
49.854522
 20
26.51403
 11
56.948675
 21
26.514027
  0
LINE
  8
寸法
  6
BYBLOCK
 62
     0
 10
56.948675
 20
22.814027
 11
56.948675
 21
26.514027
  0
POINT
  8
寸法
 62
     0
 10
56.948675
 20
22.814027
  0
POINT
  8
寸法
 62
     0
 10
56.948675
 20
26.514027
  0
TEXT
  7
TextStyle03
  8
寸法
  6
CONTINUOUS
 62
     0
 10
56.95
 20
16.5625
  1
111
 40
3.0
 50
90.0
 72
     5
 11
56.95
 21
21.4375
  0
ENDBLK
  0
BLOCK
  2
*GRP_0012
 70
    65
 10
0.0
 20
0.0
  0
LINE
  8
別途部材
  6
CONTINUOUS
 62
    96
 10
-105.442273
 20
-70.209613
 11
-105.842273
 21
-71.209613
  0
LINE
  8
別途部材
  6
CONTINUOUS
 62
    96
 10
-105.442273
 20
-70.209613
 11
-28.775608
 21
-70.209613
  0
LINE
  8
別途部材
  6
CONTINUOUS
 10
-105.842273
 20
-71.209613
 11
-28.775608
 21
-71.209613
  0
LINE
  8
別途部材
  6
CONTINUOUS
 10
-29.275608
 20
-63.87628
 11
-30.275608
 21
-64.87628
  0
LINE
  8
別途部材
  6
CONTINUOUS
 10
-31.275608
 20
-64.87628
 11
-32.275608
 21
-63.87628
  0
LINE
  8
別途部材
  6
CONTINUOUS
 10
-33.275608
 20
-63.87628
 11
-34.275608
 21
-64.87628
  0
LINE
  8
別途部材
  6
CONTINUOUS
 10
-32.275608
 20
-63.87628
 11
-33.275608
 21
-63.87628
  0
LINE
  8
別途部材
  6
CONTINUOUS
 10
-29.275608
 20
-63.87628
 11
-28.775608
 21
-63.87628
  0
LINE
  8
別途部材
  6
CONTINUOUS
 10
-35.275608
 20
-64.87628
 11
-36.275608
 21
-63.87628
  0
LINE
  8
別途部材
  6
CONTINUOUS
 10
-37.275608
 20
-63.87628
 11
-38.275608
 21
-64.87628
  0
LINE
  8
別途部材
  6
CONTINUOUS
 10
-36.275608
 20
-63.87628
 11
-37.275608
 21
-63.87628
  0
LINE
  8
別途部材
  6
CONTINUOUS
 10
-39.275608
 20
-64.87628
 11
-40.275608
 21
-63.87628
  0
LINE
  8
別途部材
  6
CONTINUOUS
 10
-41.275608
 20
-63.87628
 11
-42.275608
 21
-64.87628
  0
LINE
  8
別途部材
  6
CONTINUOUS
 10
-40.275608
 20
-63.87628
 11
-41.275608
 21
-63.87628
  0
LINE
  8
別途部材
  6
CONTINUOUS
 10
-43.275608
 20
-64.87628
 11
-44.275608
 21
-63.87628
  0
LINE
  8
別途部材
  6
CONTINUOUS
 10
-45.275608
 20
-63.87628
 11
-46.275608
 21
-64.87628
  0
LINE
  8
別途部材
  6
CONTINUOUS
 10
-44.275608
 20
-63.87628
 11
-45.275608
 21
-63.87628
  0
LINE
  8
別途部材
  6
CONTINUOUS
 10
-47.275608
 20
-64.87628
 11
-48.275608
 21
-63.87628
  0
LINE
  8
別途部材
  6
CONTINUOUS
 10
-49.275608
 20
-63.87628
 11
-50.275608
 21
-64.87628
  0
LINE
  8
別途部材
  6
CONTINUOUS
 10
-48.275608
 20
-63.87628
 11
-49.275608
 21
-63.87628
  0
LINE
  8
別途部材
  6
CONTINUOUS
 10
-51.275608
 20
-64.87628
 11
-52.275608
 21
-63.87628
  0
LINE
  8
別途部材
  6
CONTINUOUS
 10
-53.275608
 20
-63.87628
 11
-54.275608
 21
-64.87628
  0
LINE
  8
別途部材
  6
CONTINUOUS
 10
-52.275608
 20
-63.87628
 11
-53.275608
 21
-63.87628
  0
LINE
  8
別途部材
  6
CONTINUOUS
 10
-55.275608
 20
-64.87628
 11
-56.275608
 21
-63.87628
  0
LINE
  8
別途部材
  6
CONTINUOUS
 10
-57.275608
 20
-63.87628
 11
-58.275608
 21
-64.87628
  0
LINE
  8
別途部材
  6
CONTINUOUS
 10
-56.275608
 20
-63.87628
 11
-57.275608
 21
-63.87628
  0
LINE
  8
別途部材
  6
CONTINUOUS
 10
-59.275608
 20
-64.87628
 11
-60.275608
 21
-63.87628
  0
LINE
  8
別途部材
  6
CONTINUOUS
 10
-61.275608
 20
-63.87628
 11
-62.275608
 21
-64.87628
  0
LINE
  8
別途部材
  6
CONTINUOUS
 10
-60.275608
 20
-63.87628
 11
-61.275608
 21
-63.87628
  0
LINE
  8
別途部材
  6
CONTINUOUS
 10
-63.275608
 20
-64.87628
 11
-64.275608
 21
-63.87628
  0
LINE
  8
別途部材
  6
CONTINUOUS
 10
-65.275608
 20
-63.87628
 11
-66.275608
 21
-64.87628
  0
LINE
  8
別途部材
  6
CONTINUOUS
 10
-64.275608
 20
-63.87628
 11
-65.275608
 21
-63.87628
  0
LINE
  8
別途部材
  6
CONTINUOUS
 10
-67.275608
 20
-64.87628
 11
-68.275608
 21
-63.87628
  0
LINE
  8
別途部材
  6
CONTINUOUS
 10
-69.275608
 20
-63.87628
 11
-70.275608
 21
-64.87628
  0
LINE
  8
別途部材
  6
CONTINUOUS
 10
-68.275608
 20
-63.87628
 11
-69.275608
 21
-63.87628
  0
LINE
  8
別途部材
  6
CONTINUOUS
 10
-71.275608
 20
-64.87628
 11
-72.275608
 21
-63.87628
  0
LINE
  8
別途部材
  6
CONTINUOUS
 10
-73.275608
 20
-63.87628
 11
-74.275608
 21
-64.87628
  0
LINE
  8
別途部材
  6
CONTINUOUS
 10
-72.275608
 20
-63.87628
 11
-73.275608
 21
-63.87628
  0
LINE
  8
別途部材
  6
CONTINUOUS
 10
-70.275608
 20
-64.87628
 11
-71.275608
 21
-64.87628
  0
LINE
  8
別途部材
  6
CONTINUOUS
 10
-66.275608
 20
-64.87628
 11
-67.275608
 21
-64.87628
  0
LINE
  8
別途部材
  6
CONTINUOUS
 10
-62.275608
 20
-64.87628
 11
-63.275608
 21
-64.87628
  0
LINE
  8
別途部材
  6
CONTINUOUS
 10
-58.275608
 20
-64.87628
 11
-59.275608
 21
-64.87628
  0
LINE
  8
別途部材
  6
CONTINUOUS
 10
-54.275608
 20
-64.87628
 11
-55.275608
 21
-64.87628
  0
LINE
  8
別途部材
  6
CONTINUOUS
 10
-50.275608
 20
-64.87628
 11
-51.275608
 21
-64.87628
  0
LINE
  8
別途部材
  6
CONTINUOUS
 10
-46.275608
 20
-64.87628
 11
-47.275608
 21
-64.87628
  0
LINE
  8
別途部材
  6
CONTINUOUS
 10
-42.275608
 20
-64.87628
 11
-43.275608
 21
-64.87628
  0
LINE
  8
別途部材
  6
CONTINUOUS
 10
-38.275608
 20
-64.87628
 11
-39.275608
 21
-64.87628
  0
LINE
  8
別途部材
  6
CONTINUOUS
 10
-34.275608
 20
-64.87628
 11
-35.275608
 21
-64.87628
  0
LINE
  8
別途部材
  6
CONTINUOUS
 10
-31.275608
 20
-64.87628
 11
-30.275608
 21
-64.87628
  0
LINE
  8
別途部材
  6
CONTINUOUS
 10
-75.275608
 20
-64.87628
 11
-76.275608
 21
-63.87628
  0
LINE
  8
別途部材
  6
CONTINUOUS
 10
-77.275608
 20
-63.87628
 11
-78.275608
 21
-64.87628
  0
LINE
  8
別途部材
  6
CONTINUOUS
 10
-76.275608
 20
-63.87628
 11
-77.275608
 21
-63.87628
  0
LINE
  8
別途部材
  6
CONTINUOUS
 10
-79.275608
 20
-64.87628
 11
-80.275608
 21
-63.87628
  0
LINE
  8
別途部材
  6
CONTINUOUS
 10
-81.275608
 20
-63.87628
 11
-82.275608
 21
-64.87628
  0
LINE
  8
別途部材
  6
CONTINUOUS
 10
-80.275608
 20
-63.87628
 11
-81.275608
 21
-63.87628
  0
LINE
  8
別途部材
  6
CONTINUOUS
 10
-83.275608
 20
-64.87628
 11
-84.275608
 21
-63.87628
  0
LINE
  8
別途部材
  6
CONTINUOUS
 10
-85.275608
 20
-63.87628
 11
-86.275608
 21
-64.87628
  0
LINE
  8
別途部材
  6
CONTINUOUS
 10
-84.275608
 20
-63.87628
 11
-85.275608
 21
-63.87628
  0
LINE
  8
別途部材
  6
CONTINUOUS
 10
-87.275608
 20
-64.87628
 11
-88.275608
 21
-63.87628
  0
LINE
  8
別途部材
  6
CONTINUOUS
 10
-89.275608
 20
-63.87628
 11
-90.275608
 21
-64.87628
  0
LINE
  8
別途部材
  6
CONTINUOUS
 10
-88.275608
 20
-63.87628
 11
-89.275608
 21
-63.87628
  0
LINE
  8
別途部材
  6
CONTINUOUS
 10
-91.275608
 20
-64.87628
 11
-92.275608
 21
-63.87628
  0
LINE
  8
別途部材
  6
CONTINUOUS
 10
-93.275608
 20
-63.87628
 11
-94.275608
 21
-64.87628
  0
LINE
  8
別途部材
  6
CONTINUOUS
 10
-92.275608
 20
-63.87628
 11
-93.275608
 21
-63.87628
  0
LINE
  8
別途部材
  6
CONTINUOUS
 10
-90.275608
 20
-64.87628
 11
-91.275608
 21
-64.87628
  0
LINE
  8
別途部材
  6
CONTINUOUS
 10
-86.275608
 20
-64.87628
 11
-87.275608
 21
-64.87628
  0
LINE
  8
別途部材
  6
CONTINUOUS
 10
-82.275608
 20
-64.87628
 11
-83.275608
 21
-64.87628
  0
LINE
  8
別途部材
  6
CONTINUOUS
 10
-78.275608
 20
-64.87628
 11
-79.275608
 21
-64.87628
  0
LINE
  8
別途部材
  6
CONTINUOUS
 10
-74.275608
 20
-64.87628
 11
-75.275608
 21
-64.87628
  0
LINE
  8
別途部材
  6
CONTINUOUS
 10
-93.275608
 20
-63.87628
 11
-93.275608
 21
-70.209613
  0
LINE
  8
別途部材
  6
CONTINUOUS
 10
-94.275608
 20
-64.87628
 11
-94.275608
 21
-70.209613
  0
LINE
  8
別途部材
  6
CONTINUOUS
 10
-91.275608
 20
-64.87628
 11
-91.275608
 21
-70.209613
  0
LINE
  8
別途部材
  6
CONTINUOUS
 10
-92.275608
 20
-63.87628
 11
-92.275608
 21
-70.209613
  0
LINE
  8
別途部材
  6
CONTINUOUS
 10
-90.275608
 20
-64.87628
 11
-90.275608
 21
-70.209613
  0
LINE
  8
別途部材
  6
CONTINUOUS
 10
-88.275608
 20
-63.87628
 11
-88.275608
 21
-70.209613
  0
LINE
  8
別途部材
  6
CONTINUOUS
 10
-89.275608
 20
-63.87628
 11
-89.275608
 21
-70.209613
  0
LINE
  8
別途部材
  6
CONTINUOUS
 10
-87.275608
 20
-64.87628
 11
-87.275608
 21
-70.209613
  0
LINE
  8
別途部材
  6
CONTINUOUS
 10
-86.275608
 20
-64.87628
 11
-86.275608
 21
-70.209613
  0
LINE
  8
別途部材
  6
CONTINUOUS
 10
-85.275608
 20
-63.87628
 11
-85.275608
 21
-70.209613
  0
LINE
  8
別途部材
  6
CONTINUOUS
 10
-84.275608
 20
-63.87628
 11
-84.275608
 21
-70.209613
  0
LINE
  8
別途部材
  6
CONTINUOUS
 10
-81.275608
 20
-63.87628
 11
-81.275608
 21
-70.209613
  0
LINE
  8
別途部材
  6
CONTINUOUS
 10
-79.275608
 20
-64.87628
 11
-79.275608
 21
-70.209613
  0
LINE
  8
別途部材
  6
CONTINUOUS
 10
-80.275608
 20
-63.87628
 11
-80.275608
 21
-70.209613
  0
LINE
  8
別途部材
  6
CONTINUOUS
 10
-82.275608
 20
-64.87628
 11
-82.275608
 21
-70.209613
  0
LINE
  8
別途部材
  6
CONTINUOUS
 10
-83.275608
 20
-64.87628
 11
-83.275608
 21
-70.209613
  0
LINE
  8
別途部材
  6
CONTINUOUS
 10
-78.275608
 20
-64.87628
 11
-78.275608
 21
-70.209613
  0
LINE
  8
別途部材
  6
CONTINUOUS
 10
-76.275608
 20
-63.87628
 11
-76.275608
 21
-70.209613
  0
LINE
  8
別途部材
  6
CONTINUOUS
 10
-77.275608
 20
-63.87628
 11
-77.275608
 21
-70.209613
  0
LINE
  8
別途部材
  6
CONTINUOUS
 10
-75.275608
 20
-64.87628
 11
-75.275608
 21
-70.209613
  0
LINE
  8
別途部材
  6
CONTINUOUS
 10
-73.275608
 20
-63.87628
 11
-73.275608
 21
-70.209613
  0
LINE
  8
別途部材
  6
CONTINUOUS
 10
-74.275608
 20
-64.87628
 11
-74.275608
 21
-70.209613
  0
LINE
  8
別途部材
  6
CONTINUOUS
 10
-72.275608
 20
-63.87628
 11
-72.275608
 21
-70.209613
  0
LINE
  8
別途部材
  6
CONTINUOUS
 10
-71.275608
 20
-64.87628
 11
-71.275608
 21
-70.209613
  0
LINE
  8
別途部材
  6
CONTINUOUS
 10
-69.275608
 20
-63.87628
 11
-69.275608
 21
-70.209613
  0
LINE
  8
別途部材
  6
CONTINUOUS
 10
-70.275608
 20
-64.87628
 11
-70.275608
 21
-70.209613
  0
LINE
  8
別途部材
  6
CONTINUOUS
 10
-66.275608
 20
-64.87628
 11
-66.275608
 21
-70.209613
  0
LINE
  8
別途部材
  6
CONTINUOUS
 10
-67.275608
 20
-64.87628
 11
-67.275608
 21
-70.209613
  0
LINE
  8
別途部材
  6
CONTINUOUS
 10
-68.275608
 20
-63.87628
 11
-68.275608
 21
-70.209613
  0
LINE
  8
別途部材
  6
CONTINUOUS
 10
-65.275608
 20
-63.87628
 11
-65.275608
 21
-70.209613
  0
LINE
  8
別途部材
  6
CONTINUOUS
 10
-64.275608
 20
-63.87628
 11
-64.275608
 21
-70.209613
  0
LINE
  8
別途部材
  6
CONTINUOUS
 10
-63.275608
 20
-64.87628
 11
-63.275608
 21
-70.209613
  0
LINE
  8
別途部材
  6
CONTINUOUS
 10
-61.275608
 20
-63.87628
 11
-61.275608
 21
-70.209613
  0
LINE
  8
別途部材
  6
CONTINUOUS
 10
-57.275608
 20
-63.87628
 11
-57.275608
 21
-70.209613
  0
LINE
  8
別途部材
  6
CONTINUOUS
 10
-58.275608
 20
-64.87628
 11
-58.275608
 21
-70.209613
  0
LINE
  8
別途部材
  6
CONTINUOUS
 10
-59.275608
 20
-64.87628
 11
-59.275608
 21
-70.209613
  0
LINE
  8
別途部材
  6
CONTINUOUS
 10
-60.275608
 20
-63.87628
 11
-60.275608
 21
-70.209613
  0
LINE
  8
別途部材
  6
CONTINUOUS
 10
-62.275608
 20
-64.87628
 11
-62.275608
 21
-70.209613
  0
LINE
  8
別途部材
  6
CONTINUOUS
 10
-55.275608
 20
-64.87628
 11
-55.275608
 21
-70.209613
  0
LINE
  8
別途部材
  6
CONTINUOUS
 10
-56.275608
 20
-63.87628
 11
-56.275608
 21
-70.209613
  0
LINE
  8
別途部材
  6
CONTINUOUS
 10
-54.275608
 20
-64.87628
 11
-54.275608
 21
-70.209613
  0
LINE
  8
別途部材
  6
CONTINUOUS
 10
-53.275608
 20
-63.87628
 11
-53.275608
 21
-70.209613
  0
LINE
  8
別途部材
  6
CONTINUOUS
 10
-49.275608
 20
-63.87628
 11
-49.275608
 21
-70.209613
  0
LINE
  8
別途部材
  6
CONTINUOUS
 10
-48.275608
 20
-63.87628
 11
-48.275608
 21
-70.209613
  0
LINE
  8
別途部材
  6
CONTINUOUS
 10
-50.275608
 20
-64.87628
 11
-50.275608
 21
-70.209613
  0
LINE
  8
別途部材
  6
CONTINUOUS
 10
-51.275608
 20
-64.87628
 11
-51.275608
 21
-70.209613
  0
LINE
  8
別途部材
  6
CONTINUOUS
 10
-52.275608
 20
-63.87628
 11
-52.275608
 21
-70.209613
  0
LINE
  8
別途部材
  6
CONTINUOUS
 10
-47.275608
 20
-64.87628
 11
-47.275608
 21
-70.209613
  0
LINE
  8
別途部材
  6
CONTINUOUS
 10
-45.275608
 20
-63.87628
 11
-45.275608
 21
-70.209613
  0
LINE
  8
別途部材
  6
CONTINUOUS
 10
-44.275608
 20
-63.87628
 11
-44.275608
 21
-70.209613
  0
LINE
  8
別途部材
  6
CONTINUOUS
 10
-43.275608
 20
-64.87628
 11
-43.275608
 21
-70.209613
  0
LINE
  8
別途部材
  6
CONTINUOUS
 10
-42.275608
 20
-64.87628
 11
-42.275608
 21
-70.209613
  0
LINE
  8
別途部材
  6
CONTINUOUS
 10
-41.275608
 20
-63.87628
 11
-41.275608
 21
-70.209613
  0
LINE
  8
別途部材
  6
CONTINUOUS
 10
-46.275608
 20
-64.87628
 11
-46.275608
 21
-70.209613
  0
LINE
  8
別途部材
  6
CONTINUOUS
 10
-40.275608
 20
-63.87628
 11
-40.275608
 21
-70.209613
  0
LINE
  8
別途部材
  6
CONTINUOUS
 10
-39.275608
 20
-64.87628
 11
-39.275608
 21
-70.209613
  0
LINE
  8
別途部材
  6
CONTINUOUS
 10
-38.275608
 20
-64.87628
 11
-38.275608
 21
-70.209613
  0
LINE
  8
別途部材
  6
CONTINUOUS
 10
-36.275608
 20
-63.87628
 11
-36.275608
 21
-70.209613
  0
LINE
  8
別途部材
  6
CONTINUOUS
 10
-34.275608
 20
-64.87628
 11
-34.275608
 21
-70.209613
  0
LINE
  8
別途部材
  6
CONTINUOUS
 10
-33.275608
 20
-63.87628
 11
-33.275608
 21
-70.209613
  0
LINE
  8
別途部材
  6
CONTINUOUS
 10
-31.275608
 20
-64.87628
 11
-31.275608
 21
-70.209613
  0
LINE
  8
別途部材
  6
CONTINUOUS
 10
-30.275608
 20
-64.87628
 11
-30.275608
 21
-70.209613
  0
LINE
  8
別途部材
  6
CONTINUOUS
 10
-29.275608
 20
-63.87628
 11
-29.275608
 21
-70.209613
  0
LINE
  8
別途部材
  6
CONTINUOUS
 10
-32.275608
 20
-63.87628
 11
-32.275608
 21
-70.209613
  0
LINE
  8
別途部材
  6
CONTINUOUS
 10
-35.275608
 20
-64.87628
 11
-35.275608
 21
-70.209613
  0
LINE
  8
別途部材
  6
CONTINUOUS
 10
-37.275608
 20
-63.87628
 11
-37.275608
 21
-70.209613
  0
ARC
  8
別途部材
  6
CONTINUOUS
 10
-93.775605
 20
-76.917949
 40
12.041668
 50
92.379756
 51
146.144967
  0
LINE
  8
別途部材
  6
CONTINUOUS
 62
    96
 10
47.89106
 20
-70.209613
 11
48.29106
 21
-71.209613
  0
LINE
  8
別途部材
  6
CONTINUOUS
 62
    96
 10
47.89106
 20
-70.209613
 11
-28.775608
 21
-70.209613
  0
LINE
  8
別途部材
  6
CONTINUOUS
 10
48.29106
 20
-71.209613
 11
-28.775608
 21
-71.209613
  0
LINE
  8
別途部材
  6
CONTINUOUS
 10
-28.275608
 20
-63.87628
 11
-27.275608
 21
-64.87628
  0
LINE
  8
別途部材
  6
CONTINUOUS
 10
-26.275608
 20
-64.87628
 11
-25.275608
 21
-63.87628
  0
LINE
  8
別途部材
  6
CONTINUOUS
 10
-24.275608
 20
-63.87628
 11
-23.275608
 21
-64.87628
  0
LINE
  8
別途部材
  6
CONTINUOUS
 10
-25.275608
 20
-63.87628
 11
-24.275608
 21
-63.87628
  0
LINE
  8
別途部材
  6
CONTINUOUS
 10
-28.275608
 20
-63.87628
 11
-28.775608
 21
-63.87628
  0
LINE
  8
別途部材
  6
CONTINUOUS
 10
-22.275608
 20
-64.87628
 11
-21.275608
 21
-63.87628
  0
LINE
  8
別途部材
  6
CONTINUOUS
 10
-20.275608
 20
-63.87628
 11
-19.275608
 21
-64.87628
  0
LINE
  8
別途部材
  6
CONTINUOUS
 10
-21.275608
 20
-63.87628
 11
-20.275608
 21
-63.87628
  0
LINE
  8
別途部材
  6
CONTINUOUS
 10
-18.275608
 20
-64.87628
 11
-17.275608
 21
-63.87628
  0
LINE
  8
別途部材
  6
CONTINUOUS
 10
-16.275608
 20
-63.87628
 11
-15.275608
 21
-64.87628
  0
LINE
  8
別途部材
  6
CONTINUOUS
 10
-17.275608
 20
-63.87628
 11
-16.275608
 21
-63.87628
  0
LINE
  8
別途部材
  6
CONTINUOUS
 10
-14.275608
 20
-64.87628
 11
-13.275608
 21
-63.87628
  0
LINE
  8
別途部材
  6
CONTINUOUS
 10
-12.275608
 20
-63.87628
 11
-11.275608
 21
-64.87628
  0
LINE
  8
別途部材
  6
CONTINUOUS
 10
-13.275608
 20
-63.87628
 11
-12.275608
 21
-63.87628
  0
LINE
  8
別途部材
  6
CONTINUOUS
 10
-10.275608
 20
-64.87628
 11
-9.275608
 21
-63.87628
  0
LINE
  8
別途部材
  6
CONTINUOUS
 10
-8.275608
 20
-63.87628
 11
-7.275608
 21
-64.87628
  0
LINE
  8
別途部材
  6
CONTINUOUS
 10
-9.275608
 20
-63.87628
 11
-8.275608
 21
-63.87628
  0
LINE
  8
別途部材
  6
CONTINUOUS
 10
-6.275608
 20
-64.87628
 11
-5.275608
 21
-63.87628
  0
LINE
  8
別途部材
  6
CONTINUOUS
 10
-4.275608
 20
-63.87628
 11
-3.275608
 21
-64.87628
  0
LINE
  8
別途部材
  6
CONTINUOUS
 10
-5.275608
 20
-63.87628
 11
-4.275608
 21
-63.87628
  0
LINE
  8
別途部材
  6
CONTINUOUS
 10
-2.275608
 20
-64.87628
 11
-1.275608
 21
-63.87628
  0
LINE
  8
別途部材
  6
CONTINUOUS
 10
-0.275608
 20
-63.87628
 11
0.724393
 21
-64.87628
  0
LINE
  8
別途部材
  6
CONTINUOUS
 10
-1.275608
 20
-63.87628
 11
-0.275608
 21
-63.87628
  0
LINE
  8
別途部材
  6
CONTINUOUS
 10
1.724393
 20
-64.87628
 11
2.724393
 21
-63.87628
  0
LINE
  8
別途部材
  6
CONTINUOUS
 10
3.724393
 20
-63.87628
 11
4.724393
 21
-64.87628
  0
LINE
  8
別途部材
  6
CONTINUOUS
 10
2.724393
 20
-63.87628
 11
3.724393
 21
-63.87628
  0
LINE
  8
別途部材
  6
CONTINUOUS
 10
5.724393
 20
-64.87628
 11
6.724393
 21
-63.87628
  0
LINE
  8
別途部材
  6
CONTINUOUS
 10
7.724393
 20
-63.87628
 11
8.724393
 21
-64.87628
  0
LINE
  8
別途部材
  6
CONTINUOUS
 10
6.724393
 20
-63.87628
 11
7.724393
 21
-63.87628
  0
LINE
  8
別途部材
  6
CONTINUOUS
 10
9.724393
 20
-64.87628
 11
10.724393
 21
-63.87628
  0
LINE
  8
別途部材
  6
CONTINUOUS
 10
11.724393
 20
-63.87628
 11
12.724393
 21
-64.87628
  0
LINE
  8
別途部材
  6
CONTINUOUS
 10
10.724393
 20
-63.87628
 11
11.724393
 21
-63.87628
  0
LINE
  8
別途部材
  6
CONTINUOUS
 10
13.724393
 20
-64.87628
 11
14.724393
 21
-63.87628
  0
LINE
  8
別途部材
  6
CONTINUOUS
 10
15.724393
 20
-63.87628
 11
16.724393
 21
-64.87628
  0
LINE
  8
別途部材
  6
CONTINUOUS
 10
14.724393
 20
-63.87628
 11
15.724393
 21
-63.87628
  0
LINE
  8
別途部材
  6
CONTINUOUS
 10
12.724393
 20
-64.87628
 11
13.724393
 21
-64.87628
  0
LINE
  8
別途部材
  6
CONTINUOUS
 10
8.724393
 20
-64.87628
 11
9.724393
 21
-64.87628
  0
LINE
  8
別途部材
  6
CONTINUOUS
 10
4.724393
 20
-64.87628
 11
5.724393
 21
-64.87628
  0
LINE
  8
別途部材
  6
CONTINUOUS
 10
0.724393
 20
-64.87628
 11
1.724393
 21
-64.87628
  0
LINE
  8
別途部材
  6
CONTINUOUS
 10
-3.275608
 20
-64.87628
 11
-2.275608
 21
-64.87628
  0
LINE
  8
別途部材
  6
CONTINUOUS
 10
-7.275608
 20
-64.87628
 11
-6.275608
 21
-64.87628
  0
LINE
  8
別途部材
  6
CONTINUOUS
 10
-11.275608
 20
-64.87628
 11
-10.275608
 21
-64.87628
  0
LINE
  8
別途部材
  6
CONTINUOUS
 10
-15.275608
 20
-64.87628
 11
-14.275608
 21
-64.87628
  0
LINE
  8
別途部材
  6
CONTINUOUS
 10
-19.275608
 20
-64.87628
 11
-18.275608
 21
-64.87628
  0
LINE
  8
別途部材
  6
CONTINUOUS
 10
-23.275608
 20
-64.87628
 11
-22.275608
 21
-64.87628
  0
LINE
  8
別途部材
  6
CONTINUOUS
 10
-26.275608
 20
-64.87628
 11
-27.275608
 21
-64.87628
  0
LINE
  8
別途部材
  6
CONTINUOUS
 10
17.724393
 20
-64.87628
 11
18.724393
 21
-63.87628
  0
LINE
  8
別途部材
  6
CONTINUOUS
 10
19.724393
 20
-63.87628
 11
20.724393
 21
-64.87628
  0
LINE
  8
別途部材
  6
CONTINUOUS
 10
18.724393
 20
-63.87628
 11
19.724393
 21
-63.87628
  0
LINE
  8
別途部材
  6
CONTINUOUS
 10
21.724393
 20
-64.87628
 11
22.724393
 21
-63.87628
  0
LINE
  8
別途部材
  6
CONTINUOUS
 10
23.724393
 20
-63.87628
 11
24.724393
 21
-64.87628
  0
LINE
  8
別途部材
  6
CONTINUOUS
 10
22.724393
 20
-63.87628
 11
23.724393
 21
-63.87628
  0
LINE
  8
別途部材
  6
CONTINUOUS
 10
25.724393
 20
-64.87628
 11
26.724393
 21
-63.87628
  0
LINE
  8
別途部材
  6
CONTINUOUS
 10
27.724393
 20
-63.87628
 11
28.724393
 21
-64.87628
  0
LINE
  8
別途部材
  6
CONTINUOUS
 10
26.724393
 20
-63.87628
 11
27.724393
 21
-63.87628
  0
LINE
  8
別途部材
  6
CONTINUOUS
 10
29.724393
 20
-64.87628
 11
30.724393
 21
-63.87628
  0
LINE
  8
別途部材
  6
CONTINUOUS
 10
31.724393
 20
-63.87628
 11
32.724393
 21
-64.87628
  0
LINE
  8
別途部材
  6
CONTINUOUS
 10
30.724393
 20
-63.87628
 11
31.724393
 21
-63.87628
  0
LINE
  8
別途部材
  6
CONTINUOUS
 10
33.724393
 20
-64.87628
 11
34.724393
 21
-63.87628
  0
LINE
  8
別途部材
  6
CONTINUOUS
 10
35.724393
 20
-63.87628
 11
36.724393
 21
-64.87628
  0
LINE
  8
別途部材
  6
CONTINUOUS
 10
34.724393
 20
-63.87628
 11
35.724393
 21
-63.87628
  0
LINE
  8
別途部材
  6
CONTINUOUS
 10
32.724393
 20
-64.87628
 11
33.724393
 21
-64.87628
  0
LINE
  8
別途部材
  6
CONTINUOUS
 10
28.724393
 20
-64.87628
 11
29.724393
 21
-64.87628
  0
LINE
  8
別途部材
  6
CONTINUOUS
 10
24.724393
 20
-64.87628
 11
25.724393
 21
-64.87628
  0
LINE
  8
別途部材
  6
CONTINUOUS
 10
20.724393
 20
-64.87628
 11
21.724393
 21
-64.87628
  0
LINE
  8
別途部材
  6
CONTINUOUS
 10
16.724393
 20
-64.87628
 11
17.724393
 21
-64.87628
  0
LINE
  8
別途部材
  6
CONTINUOUS
 10
35.724393
 20
-63.87628
 11
35.724393
 21
-70.209613
  0
LINE
  8
別途部材
  6
CONTINUOUS
 10
36.724393
 20
-64.87628
 11
36.724393
 21
-70.209613
  0
LINE
  8
別途部材
  6
CONTINUOUS
 10
33.724393
 20
-64.87628
 11
33.724393
 21
-70.209613
  0
LINE
  8
別途部材
  6
CONTINUOUS
 10
34.724393
 20
-63.87628
 11
34.724393
 21
-70.209613
  0
LINE
  8
別途部材
  6
CONTINUOUS
 10
32.724393
 20
-64.87628
 11
32.724393
 21
-70.209613
  0
LINE
  8
別途部材
  6
CONTINUOUS
 10
30.724393
 20
-63.87628
 11
30.724393
 21
-70.209613
  0
LINE
  8
別途部材
  6
CONTINUOUS
 10
31.724393
 20
-63.87628
 11
31.724393
 21
-70.209613
  0
LINE
  8
別途部材
  6
CONTINUOUS
 10
29.724393
 20
-64.87628
 11
29.724393
 21
-70.209613
  0
LINE
  8
別途部材
  6
CONTINUOUS
 10
28.724393
 20
-64.87628
 11
28.724393
 21
-70.209613
  0
LINE
  8
別途部材
  6
CONTINUOUS
 10
27.724393
 20
-63.87628
 11
27.724393
 21
-70.209613
  0
LINE
  8
別途部材
  6
CONTINUOUS
 10
26.724393
 20
-63.87628
 11
26.724393
 21
-70.209613
  0
LINE
  8
別途部材
  6
CONTINUOUS
 10
23.724393
 20
-63.87628
 11
23.724393
 21
-70.209613
  0
LINE
  8
別途部材
  6
CONTINUOUS
 10
21.724393
 20
-64.87628
 11
21.724393
 21
-70.209613
  0
LINE
  8
別途部材
  6
CONTINUOUS
 10
22.724393
 20
-63.87628
 11
22.724393
 21
-70.209613
  0
LINE
  8
別途部材
  6
CONTINUOUS
 10
24.724393
 20
-64.87628
 11
24.724393
 21
-70.209613
  0
LINE
  8
別途部材
  6
CONTINUOUS
 10
25.724393
 20
-64.87628
 11
25.724393
 21
-70.209613
  0
LINE
  8
別途部材
  6
CONTINUOUS
 10
20.724393
 20
-64.87628
 11
20.724393
 21
-70.209613
  0
LINE
  8
別途部材
  6
CONTINUOUS
 10
18.724393
 20
-63.87628
 11
18.724393
 21
-70.209613
  0
LINE
  8
別途部材
  6
CONTINUOUS
 10
19.724393
 20
-63.87628
 11
19.724393
 21
-70.209613
  0
LINE
  8
別途部材
  6
CONTINUOUS
 10
17.724393
 20
-64.87628
 11
17.724393
 21
-70.209613
  0
LINE
  8
別途部材
  6
CONTINUOUS
 10
15.724393
 20
-63.87628
 11
15.724393
 21
-70.209613
  0
LINE
  8
別途部材
  6
CONTINUOUS
 10
16.724393
 20
-64.87628
 11
16.724393
 21
-70.209613
  0
LINE
  8
別途部材
  6
CONTINUOUS
 10
14.724393
 20
-63.87628
 11
14.724393
 21
-70.209613
  0
LINE
  8
別途部材
  6
CONTINUOUS
 10
13.724393
 20
-64.87628
 11
13.724393
 21
-70.209613
  0
LINE
  8
別途部材
  6
CONTINUOUS
 10
11.724393
 20
-63.87628
 11
11.724393
 21
-70.209613
  0
LINE
  8
別途部材
  6
CONTINUOUS
 10
12.724393
 20
-64.87628
 11
12.724393
 21
-70.209613
  0
LINE
  8
別途部材
  6
CONTINUOUS
 10
8.724393
 20
-64.87628
 11
8.724393
 21
-70.209613
  0
LINE
  8
別途部材
  6
CONTINUOUS
 10
9.724393
 20
-64.87628
 11
9.724393
 21
-70.209613
  0
LINE
  8
別途部材
  6
CONTINUOUS
 10
10.724393
 20
-63.87628
 11
10.724393
 21
-70.209613
  0
LINE
  8
別途部材
  6
CONTINUOUS
 10
7.724393
 20
-63.87628
 11
7.724393
 21
-70.209613
  0
LINE
  8
別途部材
  6
CONTINUOUS
 10
6.724393
 20
-63.87628
 11
6.724393
 21
-70.209613
  0
LINE
  8
別途部材
  6
CONTINUOUS
 10
5.724393
 20
-64.87628
 11
5.724393
 21
-70.209613
  0
LINE
  8
別途部材
  6
CONTINUOUS
 10
3.724393
 20
-63.87628
 11
3.724393
 21
-70.209613
  0
LINE
  8
別途部材
  6
CONTINUOUS
 10
-0.275608
 20
-63.87628
 11
-0.275608
 21
-70.209613
  0
LINE
  8
別途部材
  6
CONTINUOUS
 10
0.724393
 20
-64.87628
 11
0.724393
 21
-70.209613
  0
LINE
  8
別途部材
  6
CONTINUOUS
 10
1.724393
 20
-64.87628
 11
1.724393
 21
-70.209613
  0
LINE
  8
別途部材
  6
CONTINUOUS
 10
2.724393
 20
-63.87628
 11
2.724393
 21
-70.209613
  0
LINE
  8
別途部材
  6
CONTINUOUS
 10
4.724393
 20
-64.87628
 11
4.724393
 21
-70.209613
  0
LINE
  8
別途部材
  6
CONTINUOUS
 10
-2.275608
 20
-64.87628
 11
-2.275608
 21
-70.209613
  0
LINE
  8
別途部材
  6
CONTINUOUS
 10
-1.275608
 20
-63.87628
 11
-1.275608
 21
-70.209613
  0
LINE
  8
別途部材
  6
CONTINUOUS
 10
-3.275608
 20
-64.87628
 11
-3.275608
 21
-70.209613
  0
LINE
  8
別途部材
  6
CONTINUOUS
 10
-4.275608
 20
-63.87628
 11
-4.275608
 21
-70.209613
  0
LINE
  8
別途部材
  6
CONTINUOUS
 10
-8.275608
 20
-63.87628
 11
-8.275608
 21
-70.209613
  0
LINE
  8
別途部材
  6
CONTINUOUS
 10
-9.275608
 20
-63.87628
 11
-9.275608
 21
-70.209613
  0
LINE
  8
別途部材
  6
CONTINUOUS
 10
-7.275608
 20
-64.87628
 11
-7.275608
 21
-70.209613
  0
LINE
  8
別途部材
  6
CONTINUOUS
 10
-6.275608
 20
-64.87628
 11
-6.275608
 21
-70.209613
  0
LINE
  8
別途部材
  6
CONTINUOUS
 10
-5.275608
 20
-63.87628
 11
-5.275608
 21
-70.209613
  0
LINE
  8
別途部材
  6
CONTINUOUS
 10
-10.275608
 20
-64.87628
 11
-10.275608
 21
-70.209613
  0
LINE
  8
別途部材
  6
CONTINUOUS
 10
-12.275608
 20
-63.87628
 11
-12.275608
 21
-70.209613
  0
LINE
  8
別途部材
  6
CONTINUOUS
 10
-13.275608
 20
-63.87628
 11
-13.275608
 21
-70.209613
  0
LINE
  8
別途部材
  6
CONTINUOUS
 10
-14.275608
 20
-64.87628
 11
-14.275608
 21
-70.209613
  0
LINE
  8
別途部材
  6
CONTINUOUS
 10
-15.275608
 20
-64.87628
 11
-15.275608
 21
-70.209613
  0
LINE
  8
別途部材
  6
CONTINUOUS
 10
-16.275608
 20
-63.87628
 11
-16.275608
 21
-70.209613
  0
LINE
  8
別途部材
  6
CONTINUOUS
 10
-11.275608
 20
-64.87628
 11
-11.275608
 21
-70.209613
  0
LINE
  8
別途部材
  6
CONTINUOUS
 10
-17.275608
 20
-63.87628
 11
-17.275608
 21
-70.209613
  0
LINE
  8
別途部材
  6
CONTINUOUS
 10
-18.275608
 20
-64.87628
 11
-18.275608
 21
-70.209613
  0
LINE
  8
別途部材
  6
CONTINUOUS
 10
-19.275608
 20
-64.87628
 11
-19.275608
 21
-70.209613
  0
LINE
  8
別途部材
  6
CONTINUOUS
 10
-21.275608
 20
-63.87628
 11
-21.275608
 21
-70.209613
  0
LINE
  8
別途部材
  6
CONTINUOUS
 10
-23.275608
 20
-64.87628
 11
-23.275608
 21
-70.209613
  0
LINE
  8
別途部材
  6
CONTINUOUS
 10
-24.275608
 20
-63.87628
 11
-24.275608
 21
-70.209613
  0
LINE
  8
別途部材
  6
CONTINUOUS
 10
-26.275608
 20
-64.87628
 11
-26.275608
 21
-70.209613
  0
LINE
  8
別途部材
  6
CONTINUOUS
 10
-27.275608
 20
-64.87628
 11
-27.275608
 21
-70.209613
  0
LINE
  8
別途部材
  6
CONTINUOUS
 10
-28.275608
 20
-63.87628
 11
-28.275608
 21
-70.209613
  0
LINE
  8
別途部材
  6
CONTINUOUS
 10
-25.275608
 20
-63.87628
 11
-25.275608
 21
-70.209613
  0
LINE
  8
別途部材
  6
CONTINUOUS
 10
-22.275608
 20
-64.87628
 11
-22.275608
 21
-70.209613
  0
LINE
  8
別途部材
  6
CONTINUOUS
 10
-20.275608
 20
-63.87628
 11
-20.275608
 21
-70.209613
  0
ARC
  8
別途部材
  6
CONTINUOUS
 10
36.224392
 20
-76.917949
 40
12.041668
 50
33.855033
 51
87.620244
  0
ENDBLK
  0
BLOCK
  2
*GRP_0013
 70
    65
 10
0.0
 20
0.0
  0
LINE
  8
補助線
  6
BYBLOCK
 62
    64
 10
-83.701145
 20
-75.132365
 11
-83.85007
 21
-75.20719
  0
LINE
  8
補助線
  6
BYBLOCK
 62
    64
 10
-83.81302
 20
-75.095313
 11
-83.738195
 21
-75.24424
  0
LINE
  8
補助線
  6
BYBLOCK
 62
    64
 10
-73.782665
 20
-70.149007
 11
-73.931592
 21
-70.223833
  0
LINE
  8
補助線
  6
BYBLOCK
 62
    64
 10
-73.894542
 20
-70.111955
 11
-73.819718
 21
-70.260883
  0
LINE
  8
補助線
  6
BYBLOCK
 62
    64
 10
-64.013115
 20
-65.240475
 11
-63.864188
 21
-65.16565
  0
LINE
  8
補助線
  6
BYBLOCK
 62
    64
 10
-63.976065
 20
-65.128597
 11
-63.90124
 21
-65.277525
  0
LINE
  8
型材断面
  6
CONTINUOUS
 10
-84.447585
 20
-74.5748
 11
-84.669888
 21
-75.246053
  0
LINE
  8
型材断面
  6
CONTINUOUS
 10
-84.669888
 20
-75.246053
 11
-84.370585
 21
-75.841758
  0
LINE
  8
型材断面
  6
CONTINUOUS
 10
-84.370585
 20
-75.841758
 11
-83.699333
 21
-76.06406
  0
LINE
  8
型材断面
  6
CONTINUOUS
 10
-64.014927
 20
-64.308782
 11
-63.343672
 21
-64.531085
  0
LINE
  8
型材断面
  6
CONTINUOUS
 10
-63.343672
 20
-64.531085
 11
-63.04437
 21
-65.12679
  0
LINE
  8
型材断面
  6
CONTINUOUS
 10
-63.04437
 20
-65.12679
 11
-63.266675
 21
-65.798042
  0
LINE
  8
型材断面
  6
CONTINUOUS
 10
-84.447585
 20
-74.5748
 11
-64.014927
 21
-64.308782
  0
LINE
  8
型材断面
  6
CONTINUOUS
 10
-83.699333
 20
-76.06406
 11
-63.266675
 21
-65.798042
  0
CIRCLE
  8
ボルト／ビス
  6
CONTINUOUS
 10
-83.775608
 20
-75.169777
 40
0.250185
  0
CIRCLE
  8
ボルト／ビス
  6
CONTINUOUS
 10
-83.775608
 20
-75.169777
 40
0.301025
  0
LINE
  8
ボルト／ビス
  6
CONTINUOUS
 62
    64
 10
-84.025372
 20
-75.155275
 11
-83.887928
 21
-74.946225
  0
LINE
  8
ボルト／ビス
  6
CONTINUOUS
 62
    64
 10
-83.638162
 20
-74.960728
 11
-83.887928
 21
-74.946225
  0
LINE
  8
ボルト／ビス
  6
CONTINUOUS
 62
    64
 10
-83.913052
 20
-75.378827
 11
-83.663288
 21
-75.39333
  0
LINE
  8
ボルト／ビス
  6
CONTINUOUS
 62
    64
 10
-83.525842
 20
-75.18428
 11
-83.663288
 21
-75.39333
  0
LINE
  8
ボルト／ビス
  6
CONTINUOUS
 62
    64
 10
-84.025372
 20
-75.155275
 11
-83.913052
 21
-75.378827
  0
LINE
  8
ボルト／ビス
  6
CONTINUOUS
 62
    64
 10
-83.638162
 20
-74.960728
 11
-83.525842
 21
-75.18428
  0
CIRCLE
  8
ボルト／ビス
  6
CONTINUOUS
 62
    64
 10
-83.775608
 20
-75.169777
 40
0.216668
  0
CIRCLE
  8
ボルト／ビス
  6
CONTINUOUS
 10
-73.85713
 20
-70.18642
 40
0.250185
  0
CIRCLE
  8
ボルト／ビス
  6
CONTINUOUS
 10
-73.85713
 20
-70.18642
 40
0.301025
  0
LINE
  8
ボルト／ビス
  6
CONTINUOUS
 62
    64
 10
-74.106895
 20
-70.171915
 11
-73.96945
 21
-69.962865
  0
LINE
  8
ボルト／ビス
  6
CONTINUOUS
 62
    64
 10
-73.719685
 20
-69.977368
 11
-73.96945
 21
-69.962865
  0
LINE
  8
ボルト／ビス
  6
CONTINUOUS
 62
    64
 10
-73.994575
 20
-70.39547
 11
-73.744808
 21
-70.409975
  0
LINE
  8
ボルト／ビス
  6
CONTINUOUS
 62
    64
 10
-73.607365
 20
-70.200925
 11
-73.744808
 21
-70.409975
  0
LINE
  8
ボルト／ビス
  6
CONTINUOUS
 62
    64
 10
-74.106895
 20
-70.171915
 11
-73.994575
 21
-70.39547
  0
LINE
  8
ボルト／ビス
  6
CONTINUOUS
 62
    64
 10
-73.719685
 20
-69.977368
 11
-73.607365
 21
-70.200925
  0
CIRCLE
  8
ボルト／ビス
  6
CONTINUOUS
 62
    64
 10
-73.85713
 20
-70.18642
 40
0.216668
  0
CIRCLE
  8
ボルト／ビス
  6
CONTINUOUS
 10
-63.938652
 20
-65.203063
 40
0.250185
  0
CIRCLE
  8
ボルト／ビス
  6
CONTINUOUS
 10
-63.938652
 20
-65.203063
 40
0.301025
  0
LINE
  8
ボルト／ビス
  6
CONTINUOUS
 62
    64
 10
-63.801207
 20
-64.994013
 11
-64.050972
 21
-64.97951
  0
LINE
  8
ボルト／ビス
  6
CONTINUOUS
 62
    64
 10
-64.188418
 20
-65.18856
 11
-64.050972
 21
-64.97951
  0
LINE
  8
ボルト／ビス
  6
CONTINUOUS
 62
    64
 10
-63.688887
 20
-65.217568
 11
-63.82633
 21
-65.426615
  0
LINE
  8
ボルト／ビス
  6
CONTINUOUS
 62
    64
 10
-64.076098
 20
-65.412112
 11
-63.82633
 21
-65.426615
  0
LINE
  8
ボルト／ビス
  6
CONTINUOUS
 62
    64
 10
-63.801207
 20
-64.994013
 11
-63.688887
 21
-65.217568
  0
LINE
  8
ボルト／ビス
  6
CONTINUOUS
 62
    64
 10
-64.188418
 20
-65.18856
 11
-64.076098
 21
-65.412112
  0
CIRCLE
  8
ボルト／ビス
  6
CONTINUOUS
 62
    64
 10
-63.938652
 20
-65.203063
 40
0.216668
  0
ENDBLK
  0
BLOCK
  2
*GRP_0014
 70
    65
 10
0.0
 20
0.0
  0
LINE
  8
補助線
  6
BYBLOCK
 62
    64
 10
-64.013115
 20
-75.132365
 11
-63.86419
 21
-75.20719
  0
LINE
  8
補助線
  6
BYBLOCK
 62
    64
 10
-63.90124
 20
-75.095313
 11
-63.976065
 21
-75.24424
  0
LINE
  8
補助線
  6
BYBLOCK
 62
    64
 10
-73.931595
 20
-70.149007
 11
-73.782668
 21
-70.223833
  0
LINE
  8
補助線
  6
BYBLOCK
 62
    64
 10
-73.819718
 20
-70.111955
 11
-73.894542
 21
-70.260883
  0
LINE
  8
補助線
  6
BYBLOCK
 62
    64
 10
-83.701145
 20
-65.240475
 11
-83.850072
 21
-65.16565
  0
LINE
  8
補助線
  6
BYBLOCK
 62
    64
 10
-83.738195
 20
-65.128597
 11
-83.81302
 21
-65.277525
  0
LINE
  8
型材断面
  6
CONTINUOUS
 10
-63.266675
 20
-74.5748
 11
-63.044373
 21
-75.246053
  0
LINE
  8
型材断面
  6
CONTINUOUS
 10
-63.044373
 20
-75.246053
 11
-63.343675
 21
-75.841758
  0
LINE
  8
型材断面
  6
CONTINUOUS
 10
-63.343675
 20
-75.841758
 11
-64.014927
 21
-76.06406
  0
LINE
  8
型材断面
  6
CONTINUOUS
 10
-83.699333
 20
-64.308782
 11
-84.370587
 21
-64.531085
  0
LINE
  8
型材断面
  6
CONTINUOUS
 10
-84.370587
 20
-64.531085
 11
-84.66989
 21
-65.12679
  0
LINE
  8
型材断面
  6
CONTINUOUS
 10
-84.66989
 20
-65.12679
 11
-84.447585
 21
-65.798042
  0
LINE
  8
型材断面
  6
CONTINUOUS
 10
-63.266675
 20
-74.5748
 11
-83.699333
 21
-64.308782
  0
LINE
  8
型材断面
  6
CONTINUOUS
 10
-64.014927
 20
-76.06406
 11
-84.447585
 21
-65.798042
  0
CIRCLE
  8
ボルト／ビス
  6
CONTINUOUS
 10
-63.938652
 20
-75.169777
 40
0.250185
  0
CIRCLE
  8
ボルト／ビス
  6
CONTINUOUS
 10
-63.938652
 20
-75.169777
 40
0.301025
  0
LINE
  8
ボルト／ビス
  6
CONTINUOUS
 62
    64
 10
-63.688887
 20
-75.155275
 11
-63.826332
 21
-74.946225
  0
LINE
  8
ボルト／ビス
  6
CONTINUOUS
 62
    64
 10
-64.076098
 20
-74.960728
 11
-63.826332
 21
-74.946225
  0
LINE
  8
ボルト／ビス
  6
CONTINUOUS
 62
    64
 10
-63.801207
 20
-75.378827
 11
-64.050972
 21
-75.39333
  0
LINE
  8
ボルト／ビス
  6
CONTINUOUS
 62
    64
 10
-64.188418
 20
-75.18428
 11
-64.050972
 21
-75.39333
  0
LINE
  8
ボルト／ビス
  6
CONTINUOUS
 62
    64
 10
-63.688887
 20
-75.155275
 11
-63.801207
 21
-75.378827
  0
LINE
  8
ボルト／ビス
  6
CONTINUOUS
 62
    64
 10
-64.076098
 20
-74.960728
 11
-64.188418
 21
-75.18428
  0
CIRCLE
  8
ボルト／ビス
  6
CONTINUOUS
 62
    64
 10
-63.938652
 20
-75.169777
 40
0.216668
  0
CIRCLE
  8
ボルト／ビス
  6
CONTINUOUS
 10
-73.85713
 20
-70.18642
 40
0.250185
  0
CIRCLE
  8
ボルト／ビス
  6
CONTINUOUS
 10
-73.85713
 20
-70.18642
 40
0.301025
  0
LINE
  8
ボルト／ビス
  6
CONTINUOUS
 62
    64
 10
-73.607365
 20
-70.171915
 11
-73.74481
 21
-69.962865
  0
LINE
  8
ボルト／ビス
  6
CONTINUOUS
 62
    64
 10
-73.994575
 20
-69.977368
 11
-73.74481
 21
-69.962865
  0
LINE
  8
ボルト／ビス
  6
CONTINUOUS
 62
    64
 10
-73.719685
 20
-70.39547
 11
-73.969452
 21
-70.409975
  0
LINE
  8
ボルト／ビス
  6
CONTINUOUS
 62
    64
 10
-74.106895
 20
-70.200925
 11
-73.969452
 21
-70.409975
  0
LINE
  8
ボルト／ビス
  6
CONTINUOUS
 62
    64
 10
-73.607365
 20
-70.171915
 11
-73.719685
 21
-70.39547
  0
LINE
  8
ボルト／ビス
  6
CONTINUOUS
 62
    64
 10
-73.994575
 20
-69.977368
 11
-74.106895
 21
-70.200925
  0
CIRCLE
  8
ボルト／ビス
  6
CONTINUOUS
 62
    64
 10
-73.85713
 20
-70.18642
 40
0.216668
  0
CIRCLE
  8
ボルト／ビス
  6
CONTINUOUS
 10
-83.775608
 20
-65.203063
 40
0.250185
  0
CIRCLE
  8
ボルト／ビス
  6
CONTINUOUS
 10
-83.775608
 20
-65.203063
 40
0.301025
  0
LINE
  8
ボルト／ビス
  6
CONTINUOUS
 62
    64
 10
-83.913052
 20
-64.994013
 11
-83.663288
 21
-64.97951
  0
LINE
  8
ボルト／ビス
  6
CONTINUOUS
 62
    64
 10
-83.525842
 20
-65.18856
 11
-83.663288
 21
-64.97951
  0
LINE
  8
ボルト／ビス
  6
CONTINUOUS
 62
    64
 10
-84.025372
 20
-65.217568
 11
-83.88793
 21
-65.426615
  0
LINE
  8
ボルト／ビス
  6
CONTINUOUS
 62
    64
 10
-83.638162
 20
-65.412112
 11
-83.88793
 21
-65.426615
  0
LINE
  8
ボルト／ビス
  6
CONTINUOUS
 62
    64
 10
-83.913052
 20
-64.994013
 11
-84.025372
 21
-65.217568
  0
LINE
  8
ボルト／ビス
  6
CONTINUOUS
 62
    64
 10
-83.525842
 20
-65.18856
 11
-83.638162
 21
-65.412112
  0
CIRCLE
  8
ボルト／ビス
  6
CONTINUOUS
 62
    64
 10
-83.775608
 20
-65.203063
 40
0.216668
  0
ENDBLK
  0
BLOCK
  2
*GRP_0015
 70
    65
 10
0.0
 20
0.0
  0
LINE
  8
補助線
  6
BYBLOCK
 62
    64
 10
26.14993
 20
-75.132365
 11
26.298855
 21
-75.20719
  0
LINE
  8
補助線
  6
BYBLOCK
 62
    64
 10
26.261805
 20
-75.095313
 11
26.18698
 21
-75.24424
  0
LINE
  8
補助線
  6
BYBLOCK
 62
    64
 10
16.23145
 20
-70.149007
 11
16.380378
 21
-70.223833
  0
LINE
  8
補助線
  6
BYBLOCK
 62
    64
 10
16.343327
 20
-70.111955
 11
16.268503
 21
-70.260883
  0
LINE
  8
補助線
  6
BYBLOCK
 62
    64
 10
6.4619
 20
-65.240475
 11
6.312973
 21
-65.16565
  0
LINE
  8
補助線
  6
BYBLOCK
 62
    64
 10
6.42485
 20
-65.128597
 11
6.350025
 21
-65.277525
  0
LINE
  8
型材断面
  6
CONTINUOUS
 10
26.89637
 20
-74.5748
 11
27.118672
 21
-75.246053
  0
LINE
  8
型材断面
  6
CONTINUOUS
 10
27.118672
 20
-75.246053
 11
26.81937
 21
-75.841758
  0
LINE
  8
型材断面
  6
CONTINUOUS
 10
26.81937
 20
-75.841758
 11
26.148118
 21
-76.06406
  0
LINE
  8
型材断面
  6
CONTINUOUS
 10
6.463712
 20
-64.308782
 11
5.792457
 21
-64.531085
  0
LINE
  8
型材断面
  6
CONTINUOUS
 10
5.792457
 20
-64.531085
 11
5.493155
 21
-65.12679
  0
LINE
  8
型材断面
  6
CONTINUOUS
 10
5.493155
 20
-65.12679
 11
5.71546
 21
-65.798042
  0
LINE
  8
型材断面
  6
CONTINUOUS
 10
26.89637
 20
-74.5748
 11
6.463712
 21
-64.308782
  0
LINE
  8
型材断面
  6
CONTINUOUS
 10
26.148118
 20
-76.06406
 11
5.71546
 21
-65.798042
  0
CIRCLE
  8
ボルト／ビス
  6
CONTINUOUS
 10
26.224393
 20
-75.169777
 40
0.250185
  0
CIRCLE
  8
ボルト／ビス
  6
CONTINUOUS
 10
26.224393
 20
-75.169777
 40
0.301025
  0
LINE
  8
ボルト／ビス
  6
CONTINUOUS
 62
    64
 10
26.474158
 20
-75.155275
 11
26.336713
 21
-74.946225
  0
LINE
  8
ボルト／ビス
  6
CONTINUOUS
 62
    64
 10
26.086947
 20
-74.960728
 11
26.336713
 21
-74.946225
  0
LINE
  8
ボルト／ビス
  6
CONTINUOUS
 62
    64
 10
26.361838
 20
-75.378827
 11
26.112073
 21
-75.39333
  0
LINE
  8
ボルト／ビス
  6
CONTINUOUS
 62
    64
 10
25.974627
 20
-75.18428
 11
26.112073
 21
-75.39333
  0
LINE
  8
ボルト／ビス
  6
CONTINUOUS
 62
    64
 10
26.474158
 20
-75.155275
 11
26.361838
 21
-75.378827
  0
LINE
  8
ボルト／ビス
  6
CONTINUOUS
 62
    64
 10
26.086947
 20
-74.960728
 11
25.974627
 21
-75.18428
  0
CIRCLE
  8
ボルト／ビス
  6
CONTINUOUS
 62
    64
 10
26.224393
 20
-75.169777
 40
0.216668
  0
CIRCLE
  8
ボルト／ビス
  6
CONTINUOUS
 10
16.305915
 20
-70.18642
 40
0.250185
  0
CIRCLE
  8
ボルト／ビス
  6
CONTINUOUS
 10
16.305915
 20
-70.18642
 40
0.301025
  0
LINE
  8
ボルト／ビス
  6
CONTINUOUS
 62
    64
 10
16.55568
 20
-70.171915
 11
16.418235
 21
-69.962865
  0
LINE
  8
ボルト／ビス
  6
CONTINUOUS
 62
    64
 10
16.16847
 20
-69.977368
 11
16.418235
 21
-69.962865
  0
LINE
  8
ボルト／ビス
  6
CONTINUOUS
 62
    64
 10
16.44336
 20
-70.39547
 11
16.193592
 21
-70.409975
  0
LINE
  8
ボルト／ビス
  6
CONTINUOUS
 62
    64
 10
16.05615
 20
-70.200925
 11
16.193592
 21
-70.409975
  0
LINE
  8
ボルト／ビス
  6
CONTINUOUS
 62
    64
 10
16.55568
 20
-70.171915
 11
16.44336
 21
-70.39547
  0
LINE
  8
ボルト／ビス
  6
CONTINUOUS
 62
    64
 10
16.16847
 20
-69.977368
 11
16.05615
 21
-70.200925
  0
CIRCLE
  8
ボルト／ビス
  6
CONTINUOUS
 62
    64
 10
16.305915
 20
-70.18642
 40
0.216668
  0
CIRCLE
  8
ボルト／ビス
  6
CONTINUOUS
 10
6.387437
 20
-65.203063
 40
0.250185
  0
CIRCLE
  8
ボルト／ビス
  6
CONTINUOUS
 10
6.387437
 20
-65.203063
 40
0.301025
  0
LINE
  8
ボルト／ビス
  6
CONTINUOUS
 62
    64
 10
6.249993
 20
-64.994013
 11
6.499757
 21
-64.97951
  0
LINE
  8
ボルト／ビス
  6
CONTINUOUS
 62
    64
 10
6.637203
 20
-65.18856
 11
6.499757
 21
-64.97951
  0
LINE
  8
ボルト／ビス
  6
CONTINUOUS
 62
    64
 10
6.137673
 20
-65.217568
 11
6.275115
 21
-65.426615
  0
LINE
  8
ボルト／ビス
  6
CONTINUOUS
 62
    64
 10
6.524883
 20
-65.412112
 11
6.275115
 21
-65.426615
  0
LINE
  8
ボルト／ビス
  6
CONTINUOUS
 62
    64
 10
6.249993
 20
-64.994013
 11
6.137673
 21
-65.217568
  0
LINE
  8
ボルト／ビス
  6
CONTINUOUS
 62
    64
 10
6.637203
 20
-65.18856
 11
6.524883
 21
-65.412112
  0
CIRCLE
  8
ボルト／ビス
  6
CONTINUOUS
 62
    64
 10
6.387437
 20
-65.203063
 40
0.216668
  0
ENDBLK
  0
BLOCK
  2
*GRP_0016
 70
    65
 10
0.0
 20
0.0
  0
LINE
  8
補助線
  6
BYBLOCK
 62
    64
 10
6.4619
 20
-75.132365
 11
6.312975
 21
-75.20719
  0
LINE
  8
補助線
  6
BYBLOCK
 62
    64
 10
6.350025
 20
-75.095313
 11
6.42485
 21
-75.24424
  0
LINE
  8
補助線
  6
BYBLOCK
 62
    64
 10
16.38038
 20
-70.149007
 11
16.231452
 21
-70.223833
  0
LINE
  8
補助線
  6
BYBLOCK
 62
    64
 10
16.268503
 20
-70.111955
 11
16.343327
 21
-70.260883
  0
LINE
  8
補助線
  6
BYBLOCK
 62
    64
 10
26.14993
 20
-65.240475
 11
26.298857
 21
-65.16565
  0
LINE
  8
補助線
  6
BYBLOCK
 62
    64
 10
26.18698
 20
-65.128597
 11
26.261805
 21
-65.277525
  0
LINE
  8
型材断面
  6
CONTINUOUS
 10
5.71546
 20
-74.5748
 11
5.493158
 21
-75.246053
  0
LINE
  8
型材断面
  6
CONTINUOUS
 10
5.493158
 20
-75.246053
 11
5.79246
 21
-75.841758
  0
LINE
  8
型材断面
  6
CONTINUOUS
 10
5.79246
 20
-75.841758
 11
6.463712
 21
-76.06406
  0
LINE
  8
型材断面
  6
CONTINUOUS
 10
26.148118
 20
-64.308782
 11
26.819372
 21
-64.531085
  0
LINE
  8
型材断面
  6
CONTINUOUS
 10
26.819372
 20
-64.531085
 11
27.118675
 21
-65.12679
  0
LINE
  8
型材断面
  6
CONTINUOUS
 10
27.118675
 20
-65.12679
 11
26.89637
 21
-65.798042
  0
LINE
  8
型材断面
  6
CONTINUOUS
 10
5.71546
 20
-74.5748
 11
26.148118
 21
-64.308782
  0
LINE
  8
型材断面
  6
CONTINUOUS
 10
6.463712
 20
-76.06406
 11
26.89637
 21
-65.798042
  0
CIRCLE
  8
ボルト／ビス
  6
CONTINUOUS
 10
6.387437
 20
-75.169777
 40
0.250185
  0
CIRCLE
  8
ボルト／ビス
  6
CONTINUOUS
 10
6.387437
 20
-75.169777
 40
0.301025
  0
LINE
  8
ボルト／ビス
  6
CONTINUOUS
 62
    64
 10
6.137673
 20
-75.155275
 11
6.275117
 21
-74.946225
  0
LINE
  8
ボルト／ビス
  6
CONTINUOUS
 62
    64
 10
6.524883
 20
-74.960728
 11
6.275117
 21
-74.946225
  0
LINE
  8
ボルト／ビス
  6
CONTINUOUS
 62
    64
 10
6.249993
 20
-75.378827
 11
6.499757
 21
-75.39333
  0
LINE
  8
ボルト／ビス
  6
CONTINUOUS
 62
    64
 10
6.637203
 20
-75.18428
 11
6.499757
 21
-75.39333
  0
LINE
  8
ボルト／ビス
  6
CONTINUOUS
 62
    64
 10
6.137673
 20
-75.155275
 11
6.249993
 21
-75.378827
  0
LINE
  8
ボルト／ビス
  6
CONTINUOUS
 62
    64
 10
6.524883
 20
-74.960728
 11
6.637203
 21
-75.18428
  0
CIRCLE
  8
ボルト／ビス
  6
CONTINUOUS
 62
    64
 10
6.387437
 20
-75.169777
 40
0.216668
  0
CIRCLE
  8
ボルト／ビス
  6
CONTINUOUS
 10
16.305915
 20
-70.18642
 40
0.250185
  0
CIRCLE
  8
ボルト／ビス
  6
CONTINUOUS
 10
16.305915
 20
-70.18642
 40
0.301025
  0
LINE
  8
ボルト／ビス
  6
CONTINUOUS
 62
    64
 10
16.05615
 20
-70.171915
 11
16.193595
 21
-69.962865
  0
LINE
  8
ボルト／ビス
  6
CONTINUOUS
 62
    64
 10
16.44336
 20
-69.977368
 11
16.193595
 21
-69.962865
  0
LINE
  8
ボルト／ビス
  6
CONTINUOUS
 62
    64
 10
16.16847
 20
-70.39547
 11
16.418238
 21
-70.409975
  0
LINE
  8
ボルト／ビス
  6
CONTINUOUS
 62
    64
 10
16.55568
 20
-70.200925
 11
16.418238
 21
-70.409975
  0
LINE
  8
ボルト／ビス
  6
CONTINUOUS
 62
    64
 10
16.05615
 20
-70.171915
 11
16.16847
 21
-70.39547
  0
LINE
  8
ボルト／ビス
  6
CONTINUOUS
 62
    64
 10
16.44336
 20
-69.977368
 11
16.55568
 21
-70.200925
  0
CIRCLE
  8
ボルト／ビス
  6
CONTINUOUS
 62
    64
 10
16.305915
 20
-70.18642
 40
0.216668
  0
CIRCLE
  8
ボルト／ビス
  6
CONTINUOUS
 10
26.224393
 20
-65.203063
 40
0.250185
  0
CIRCLE
  8
ボルト／ビス
  6
CONTINUOUS
 10
26.224393
 20
-65.203063
 40
0.301025
  0
LINE
  8
ボルト／ビス
  6
CONTINUOUS
 62
    64
 10
26.361838
 20
-64.994013
 11
26.112073
 21
-64.97951
  0
LINE
  8
ボルト／ビス
  6
CONTINUOUS
 62
    64
 10
25.974627
 20
-65.18856
 11
26.112073
 21
-64.97951
  0
LINE
  8
ボルト／ビス
  6
CONTINUOUS
 62
    64
 10
26.474158
 20
-65.217568
 11
26.336715
 21
-65.426615
  0
LINE
  8
ボルト／ビス
  6
CONTINUOUS
 62
    64
 10
26.086947
 20
-65.412112
 11
26.336715
 21
-65.426615
  0
LINE
  8
ボルト／ビス
  6
CONTINUOUS
 62
    64
 10
26.361838
 20
-64.994013
 11
26.474158
 21
-65.217568
  0
LINE
  8
ボルト／ビス
  6
CONTINUOUS
 62
    64
 10
25.974627
 20
-65.18856
 11
26.086947
 21
-65.412112
  0
CIRCLE
  8
ボルト／ビス
  6
CONTINUOUS
 62
    64
 10
26.224393
 20
-65.203063
 40
0.216668
  0
ENDBLK
  0
BLOCK
  2
*DIM_0017
 70
    65
 10
0.0
 20
0.0
  0
LINE
  8
寸法
  6
BYBLOCK
 62
     0
 10
134.134442
 20
44.797367
 11
80.244043
 21
44.797367
  0
LINE
  8
寸法
  6
BYBLOCK
 62
     0
 10
80.244043
 20
42.814033
 11
80.244043
 21
44.797367
  0
POINT
  8
寸法
 62
     0
 10
80.244043
 20
42.814033
  0
POINT
  8
寸法
 62
     0
 10
80.244043
 20
44.797367
  0
TEXT
  7
TextStyle03
  8
寸法
  6
CONTINUOUS
 62
     0
 10
79.85
 20
47.26875
  1
59.5
 40
3.0
 50
90.0
 72
     5
 11
79.85
 21
53.83125
  0
ENDBLK
  0
BLOCK
  2
*DIM_0018
 70
    65
 10
0.0
 20
0.0
  0
LINE
  8
寸法
  6
BYBLOCK
 62
     0
 10
134.134442
 20
20.8307
 11
80.244043
 21
20.8307
  0
LINE
  8
寸法
  6
BYBLOCK
 62
     0
 10
80.244043
 20
22.814033
 11
80.244043
 21
20.8307
  0
POINT
  8
寸法
 62
     0
 10
80.244043
 20
22.814033
  0
POINT
  8
寸法
 62
     0
 10
80.244043
 20
20.8307
  0
TEXT
  7
TextStyle03
  8
寸法
  6
CONTINUOUS
 62
     0
 10
79.85
 20
11.76875
  1
59.5
 40
3.0
 50
90.0
 72
     5
 11
79.85
 21
18.33125
  0
ENDBLK
  0
BLOCK
  2
*DIM_0019
 70
    65
 10
0.0
 20
0.0
  0
LINE
  8
寸法
  6
BYBLOCK
 62
     0
 10
135.757657
 20
47.4807
 11
135.757657
 21
60.666798
  0
LINE
  8
寸法
  6
BYBLOCK
 62
     0
 10
142.79116
 20
47.797367
 11
142.79116
 21
60.666798
  0
LINE
  8
寸法
  6
BYBLOCK
 62
     0
 10
135.757657
 20
60.666798
 11
142.79116
 21
60.666798
  0
POINT
  8
寸法
 62
     0
 10
135.757657
 20
60.666798
  0
POINT
  8
寸法
 62
     0
 10
142.79116
 20
60.666798
  0
TEXT
  7
TextStyle03
  8
寸法
  6
CONTINUOUS
 62
     0
 10
136.8125
 20
61.025
  1
211
 40
3.0
 72
     5
 11
141.6875
 21
61.025
  0
ENDBLK
  0
BLOCK
  2
*DIM_0020
 70
    65
 10
0.0
 20
0.0
  0
LINE
  8
寸法
  6
BYBLOCK
 62
     0
 10
50.89106
 20
-70.209613
 11
62.194043
 21
-70.209613
  0
LINE
  8
寸法
  6
BYBLOCK
 62
     0
 10
51.207727
 20
-77.243115
 11
62.194043
 21
-77.243115
  0
LINE
  8
寸法
  6
BYBLOCK
 62
     0
 10
62.194043
 20
-70.209613
 11
62.194043
 21
-77.243115
  0
POINT
  8
寸法
 62
     0
 10
62.194043
 20
-70.209613
  0
POINT
  8
寸法
 62
     0
 10
62.194043
 20
-77.243115
  0
TEXT
  7
TextStyle03
  8
寸法
  6
CONTINUOUS
 62
     0
 10
61.8
 20
-76.1875
  1
211
 40
3.0
 50
90.0
 72
     5
 11
61.8
 21
-71.3125
  0
ENDBLK
  0
BLOCK
  2
*DIM_0021
 70
    65
 10
0.0
 20
0.0
  0
LINE
  8
寸法
  6
BYBLOCK
 62
     0
 10
48.207727
 20
-68.586398
 11
48.207727
 21
-13.121378
  0
LINE
  8
寸法
  6
BYBLOCK
 62
     0
 10
46.224393
 20
-13.121378
 11
48.207727
 21
-13.121378
  0
POINT
  8
寸法
 62
     0
 10
46.224393
 20
-13.121378
  0
POINT
  8
寸法
 62
     0
 10
48.207727
 20
-13.121378
  0
TEXT
  7
TextStyle03
  8
寸法
  6
CONTINUOUS
 62
     0
 10
50.66875
 20
-12.75
  1
59.5
 40
3.0
 72
     5
 11
57.23125
 21
-12.75
  0
ENDBLK
  0
BLOCK
  2
*DIM_0022
 70
    65
 10
0.0
 20
0.0
  0
LINE
  8
寸法
  6
BYBLOCK
 62
     0
 10
-105.758943
 20
-68.586398
 11
-105.758943
 21
-13.121378
  0
LINE
  8
寸法
  6
BYBLOCK
 62
     0
 10
-103.775608
 20
-13.121378
 11
-105.758943
 21
-13.121378
  0
POINT
  8
寸法
 62
     0
 10
-103.775608
 20
-13.121378
  0
POINT
  8
寸法
 62
     0
 10
-105.758943
 20
-13.121378
  0
TEXT
  7
TextStyle03
  8
寸法
  6
CONTINUOUS
 62
     0
 10
-114.80625
 20
-12.75
  1
59.5
 40
3.0
 72
     5
 11
-108.24375
 21
-12.75
  0
ENDBLK
  0
BLOCK
  2
*DIM_0023
 70
    65
 10
0.0
 20
0.0
  0
LINE
  8
寸法
  6
BYBLOCK
 62
     0
 10
-106.775608
 20
39.4807
 11
-120.068445
 21
39.4807
  0
LINE
  8
寸法
  6
BYBLOCK
 62
     0
 10
-106.775608
 20
26.147365
 11
-120.068445
 21
26.147365
  0
LINE
  8
寸法
  6
BYBLOCK
 62
     0
 10
-120.068445
 20
39.4807
 11
-120.068445
 21
26.147365
  0
POINT
  8
寸法
 62
     0
 10
-120.068445
 20
39.4807
  0
POINT
  8
寸法
 62
     0
 10
-120.068445
 20
26.147365
  0
TEXT
  7
TextStyle03
  8
寸法
  6
CONTINUOUS
 62
     0
 10
-120.45
 20
30.3625
  1
400
 40
3.0
 50
90.0
 72
     5
 11
-120.45
 21
35.2375
  0
ENDBLK
  0
BLOCK
  2
*DIM_0024
 70
    65
 10
0.0
 20
0.0
  0
LINE
  8
寸法
  6
BYBLOCK
 62
     0
 10
-95.442275
 20
45.814033
 11
-95.442275
 21
74.922105
  0
LINE
  8
寸法
  6
BYBLOCK
 62
     0
 10
-68.775608
 20
45.814033
 11
-68.775608
 21
74.922105
  0
LINE
  8
寸法
  6
BYBLOCK
 62
     0
 10
-95.442275
 20
74.922105
 11
-68.775608
 21
74.922105
  0
POINT
  8
寸法
 62
     0
 10
-95.442275
 20
74.922105
  0
POINT
  8
寸法
 62
     0
 10
-68.775608
 20
74.922105
  0
TEXT
  7
TextStyle03
  8
寸法
  6
CONTINUOUS
 62
     0
 10
-84.5625
 20
75.3
  1
800
 40
3.0
 72
     5
 11
-79.6875
 21
75.3
  0
ENDBLK
  0
BLOCK
  2
*DIM_0025
 70
    65
 10
0.0
 20
0.0
  0
LINE
  8
寸法
  6
BYBLOCK
 62
     0
 10
-42.10894
 20
45.814033
 11
-42.10894
 21
74.922105
  0
LINE
  8
寸法
  6
BYBLOCK
 62
     0
 10
-68.775608
 20
74.922105
 11
-42.10894
 21
74.922105
  0
POINT
  8
寸法
 62
     0
 10
-42.10894
 20
74.922105
  0
TEXT
  7
TextStyle03
  8
寸法
  6
CONTINUOUS
 62
     0
 10
-57.8875
 20
75.3
  1
800
 40
3.0
 72
     5
 11
-53.0125
 21
75.3
  0
ENDBLK
  0
BLOCK
  2
*DIM_0026
 70
    65
 10
0.0
 20
0.0
  0
LINE
  8
寸法
  6
BYBLOCK
 62
     0
 10
-15.442275
 20
45.814033
 11
-15.442275
 21
74.922105
  0
LINE
  8
寸法
  6
BYBLOCK
 62
     0
 10
-42.10894
 20
74.922105
 11
-15.442275
 21
74.922105
  0
POINT
  8
寸法
 62
     0
 10
-15.442275
 20
74.922105
  0
TEXT
  7
TextStyle03
  8
寸法
  6
CONTINUOUS
 62
     0
 10
-31.2125
 20
75.3
  1
800
 40
3.0
 72
     5
 11
-26.3375
 21
75.3
  0
ENDBLK
  0
BLOCK
  2
*DIM_0027
 70
    65
 10
0.0
 20
0.0
  0
LINE
  8
寸法
  6
BYBLOCK
 62
     0
 10
11.224393
 20
45.814033
 11
11.224393
 21
74.922105
  0
LINE
  8
寸法
  6
BYBLOCK
 62
     0
 10
-15.442275
 20
74.922105
 11
11.224393
 21
74.922105
  0
POINT
  8
寸法
 62
     0
 10
11.224393
 20
74.922105
  0
TEXT
  7
TextStyle03
  8
寸法
  6
CONTINUOUS
 62
     0
 10
-4.5625
 20
75.3
  1
800
 40
3.0
 72
     5
 11
0.3125
 21
75.3
  0
ENDBLK
  0
BLOCK
  2
*DIM_0028
 70
    65
 10
0.0
 20
0.0
  0
LINE
  8
寸法
  6
BYBLOCK
 62
     0
 10
37.89106
 20
45.814033
 11
37.89106
 21
74.922105
  0
LINE
  8
寸法
  6
BYBLOCK
 62
     0
 10
11.224393
 20
74.922105
 11
37.89106
 21
74.922105
  0
POINT
  8
寸法
 62
     0
 10
37.89106
 20
74.922105
  0
TEXT
  7
TextStyle03
  8
寸法
  6
CONTINUOUS
 62
     0
 10
22.1125
 20
75.3
  1
800
 40
3.0
 72
     5
 11
26.9875
 21
75.3
  0
ENDBLK
  0
BLOCK
  2
*GRP_0030
 70
    65
 10
0.0
 20
0.0
  0
LINE
  8
ボルト／ビス
  6
CONTINUOUS
 10
135.757657
 20
22.147365
 11
135.290992
 21
22.147365
  0
LINE
  8
ボルト／ビス
  6
CONTINUOUS
 10
135.757657
 20
21.780697
 11
135.690992
 21
21.780697
  0
LINE
  8
ボルト／ビス
  6
CONTINUOUS
 10
135.690992
 20
21.780697
 11
135.690992
 21
22.51403
  0
LINE
  8
ボルト／ビス
  6
CONTINUOUS
 10
135.690992
 20
22.51403
 11
135.757657
 21
22.51403
  0
LINE
  8
ボルト／ビス
  6
CONTINUOUS
 10
135.757657
 20
21.780697
 11
135.757657
 21
22.51403
  0
LINE
  8
ボルト／ビス
  6
CONTINUOUS
 10
135.657657
 20
21.847365
 11
135.690992
 21
21.847365
  0
LINE
  8
ボルト／ビス
  6
CONTINUOUS
 10
135.657657
 20
21.847365
 11
135.657657
 21
22.447365
  0
LINE
  8
ボルト／ビス
  6
CONTINUOUS
 10
135.657657
 20
22.447365
 11
135.690992
 21
22.447365
  0
LINE
  8
ボルト／ビス
  6
CONTINUOUS
 62
    64
 10
135.457657
 20
21.98699
 11
135.469333
 21
21.954915
  0
ARC
  8
ボルト／ビス
  6
CONTINUOUS
 62
    64
 10
135.562638
 20
22.003029
 40
0.104978
 50
152.721967
 51
180.0
  0
ARC
  8
ボルト／ビス
  6
CONTINUOUS
 62
    64
 10
135.860062
 20
22.147366
 40
0.402402
 50
166.165002
 51
193.834985
  0
LINE
  8
ボルト／ビス
  6
CONTINUOUS
 62
    64
 10
135.457657
 20
22.30774
 11
135.469333
 21
22.339815
  0
ARC
  8
ボルト／ビス
  6
CONTINUOUS
 62
    64
 10
135.562638
 20
22.291704
 40
0.104978
 50
180.0
 51
207.278033
  0
LINE
  8
ボルト／ビス
  6
CONTINUOUS
 62
    64
 10
135.457657
 20
21.98699
 11
135.457657
 21
22.30774
  0
LINE
  8
ボルト／ビス
  6
CONTINUOUS
 62
    64
 10
135.469333
 20
22.339815
 11
135.590993
 21
22.339815
  0
LINE
  8
ボルト／ビス
  6
CONTINUOUS
 62
    64
 10
135.469333
 20
22.24359
 11
135.590993
 21
22.24359
  0
LINE
  8
ボルト／ビス
  6
CONTINUOUS
 62
    64
 10
135.469333
 20
21.954915
 11
135.590993
 21
21.954915
  0
LINE
  8
ボルト／ビス
  6
CONTINUOUS
 62
    64
 10
135.469333
 20
22.05114
 11
135.590993
 21
22.05114
  0
LINE
  8
ボルト／ビス
  6
CONTINUOUS
 10
135.590993
 20
21.954915
 11
135.590993
 21
22.339815
  0
LINE
  8
ボルト／ビス
  6
CONTINUOUS
 10
135.590993
 20
21.947365
 11
135.657657
 21
21.947365
  0
LINE
  8
ボルト／ビス
  6
CONTINUOUS
 10
135.590993
 20
21.947365
 11
135.590993
 21
22.347365
  0
LINE
  8
ボルト／ビス
  6
CONTINUOUS
 10
135.590993
 20
22.347365
 11
135.657657
 21
22.347365
  0
ENDBLK
  0
BLOCK
  2
*GRP_0031
 70
    65
 10
0.0
 20
0.0
  0
LINE
  8
ボルト／ビス
  6
CONTINUOUS
 10
135.757657
 20
43.4807
 11
135.290992
 21
43.4807
  0
LINE
  8
ボルト／ビス
  6
CONTINUOUS
 10
135.757657
 20
43.114033
 11
135.690992
 21
43.114033
  0
LINE
  8
ボルト／ビス
  6
CONTINUOUS
 10
135.690992
 20
43.114033
 11
135.690992
 21
43.847365
  0
LINE
  8
ボルト／ビス
  6
CONTINUOUS
 10
135.690992
 20
43.847365
 11
135.757657
 21
43.847365
  0
LINE
  8
ボルト／ビス
  6
CONTINUOUS
 10
135.757657
 20
43.114033
 11
135.757657
 21
43.847365
  0
LINE
  8
ボルト／ビス
  6
CONTINUOUS
 10
135.657657
 20
43.1807
 11
135.690992
 21
43.1807
  0
LINE
  8
ボルト／ビス
  6
CONTINUOUS
 10
135.657657
 20
43.1807
 11
135.657657
 21
43.7807
  0
LINE
  8
ボルト／ビス
  6
CONTINUOUS
 10
135.657657
 20
43.7807
 11
135.690992
 21
43.7807
  0
LINE
  8
ボルト／ビス
  6
CONTINUOUS
 62
    64
 10
135.457657
 20
43.320325
 11
135.469333
 21
43.28825
  0
ARC
  8
ボルト／ビス
  6
CONTINUOUS
 62
    64
 10
135.562638
 20
43.336364
 40
0.104978
 50
152.721967
 51
180.0
  0
ARC
  8
ボルト／ビス
  6
CONTINUOUS
 62
    64
 10
135.860062
 20
43.480701
 40
0.402402
 50
166.165002
 51
193.834985
  0
LINE
  8
ボルト／ビス
  6
CONTINUOUS
 62
    64
 10
135.457657
 20
43.641075
 11
135.469333
 21
43.67315
  0
ARC
  8
ボルト／ビス
  6
CONTINUOUS
 62
    64
 10
135.562638
 20
43.625039
 40
0.104978
 50
180.0
 51
207.278033
  0
LINE
  8
ボルト／ビス
  6
CONTINUOUS
 62
    64
 10
135.457657
 20
43.320325
 11
135.457657
 21
43.641075
  0
LINE
  8
ボルト／ビス
  6
CONTINUOUS
 62
    64
 10
135.469333
 20
43.67315
 11
135.590993
 21
43.67315
  0
LINE
  8
ボルト／ビス
  6
CONTINUOUS
 62
    64
 10
135.469333
 20
43.576925
 11
135.590993
 21
43.576925
  0
LINE
  8
ボルト／ビス
  6
CONTINUOUS
 62
    64
 10
135.469333
 20
43.28825
 11
135.590993
 21
43.28825
  0
LINE
  8
ボルト／ビス
  6
CONTINUOUS
 62
    64
 10
135.469333
 20
43.384475
 11
135.590993
 21
43.384475
  0
LINE
  8
ボルト／ビス
  6
CONTINUOUS
 10
135.590993
 20
43.28825
 11
135.590993
 21
43.67315
  0
LINE
  8
ボルト／ビス
  6
CONTINUOUS
 10
135.590993
 20
43.2807
 11
135.657657
 21
43.2807
  0
LINE
  8
ボルト／ビス
  6
CONTINUOUS
 10
135.590993
 20
43.2807
 11
135.590993
 21
43.6807
  0
LINE
  8
ボルト／ビス
  6
CONTINUOUS
 10
135.590993
 20
43.6807
 11
135.657657
 21
43.6807
  0
ENDBLK
  0
BLOCK
  2
*GRP_0032
 70
    65
 10
0.0
 20
0.0
  0
LINE
  8
ボルト／ビス
  6
CONTINUOUS
 10
46.89106
 20
-70.209613
 11
46.89106
 21
-69.742947
  0
LINE
  8
ボルト／ビス
  6
CONTINUOUS
 10
47.257727
 20
-70.209613
 11
47.257727
 21
-70.142947
  0
LINE
  8
ボルト／ビス
  6
CONTINUOUS
 10
47.257727
 20
-70.142947
 11
46.524395
 21
-70.142947
  0
LINE
  8
ボルト／ビス
  6
CONTINUOUS
 10
46.524395
 20
-70.142947
 11
46.524395
 21
-70.209613
  0
LINE
  8
ボルト／ビス
  6
CONTINUOUS
 10
47.257727
 20
-70.209613
 11
46.524395
 21
-70.209613
  0
LINE
  8
ボルト／ビス
  6
CONTINUOUS
 10
47.19106
 20
-70.109612
 11
47.19106
 21
-70.142947
  0
LINE
  8
ボルト／ビス
  6
CONTINUOUS
 10
47.19106
 20
-70.109612
 11
46.59106
 21
-70.109612
  0
LINE
  8
ボルト／ビス
  6
CONTINUOUS
 10
46.59106
 20
-70.109612
 11
46.59106
 21
-70.142947
  0
LINE
  8
ボルト／ビス
  6
CONTINUOUS
 62
    64
 10
47.051435
 20
-69.909613
 11
47.08351
 21
-69.921288
  0
ARC
  8
ボルト／ビス
  6
CONTINUOUS
 62
    64
 10
47.035398
 20
-70.014594
 40
0.104978
 50
90.0
 51
117.278033
  0
ARC
  8
ボルト／ビス
  6
CONTINUOUS
 62
    64
 10
46.89106
 20
-70.312018
 40
0.402402
 50
76.165015
 51
103.834998
  0
LINE
  8
ボルト／ビス
  6
CONTINUOUS
 62
    64
 10
46.730685
 20
-69.909613
 11
46.69861
 21
-69.921288
  0
ARC
  8
ボルト／ビス
  6
CONTINUOUS
 62
    64
 10
46.746723
 20
-70.014594
 40
0.104978
 50
62.721967
 51
90.0
  0
LINE
  8
ボルト／ビス
  6
CONTINUOUS
 62
    64
 10
47.051435
 20
-69.909613
 11
46.730685
 21
-69.909613
  0
LINE
  8
ボルト／ビス
  6
CONTINUOUS
 62
    64
 10
46.69861
 20
-69.921288
 11
46.69861
 21
-70.042947
  0
LINE
  8
ボルト／ビス
  6
CONTINUOUS
 62
    64
 10
46.794835
 20
-69.921288
 11
46.794835
 21
-70.042947
  0
LINE
  8
ボルト／ビス
  6
CONTINUOUS
 62
    64
 10
47.08351
 20
-69.921288
 11
47.08351
 21
-70.042947
  0
LINE
  8
ボルト／ビス
  6
CONTINUOUS
 62
    64
 10
46.987285
 20
-69.921288
 11
46.987285
 21
-70.042947
  0
LINE
  8
ボルト／ビス
  6
CONTINUOUS
 10
47.08351
 20
-70.042947
 11
46.69861
 21
-70.042947
  0
LINE
  8
ボルト／ビス
  6
CONTINUOUS
 10
47.09106
 20
-70.042947
 11
47.09106
 21
-70.109612
  0
LINE
  8
ボルト／ビス
  6
CONTINUOUS
 10
47.09106
 20
-70.042947
 11
46.69106
 21
-70.042947
  0
LINE
  8
ボルト／ビス
  6
CONTINUOUS
 10
46.69106
 20
-70.042947
 11
46.69106
 21
-70.109612
  0
ENDBLK
  0
BLOCK
  2
*GRP_0033
 70
    65
 10
0.0
 20
0.0
  0
LINE
  8
ボルト／ビス
  6
DOT
 10
46.89106
 20
-62.87628
 11
46.89106
 21
-62.409615
  0
LINE
  8
ボルト／ビス
  6
DOT
 10
47.257727
 20
-62.87628
 11
47.257727
 21
-62.809615
  0
LINE
  8
ボルト／ビス
  6
DOT
 10
47.257727
 20
-62.809615
 11
46.524395
 21
-62.809615
  0
LINE
  8
ボルト／ビス
  6
DOT
 10
46.524395
 20
-62.809615
 11
46.524395
 21
-62.87628
  0
LINE
  8
ボルト／ビス
  6
DOT
 10
47.257727
 20
-62.87628
 11
46.524395
 21
-62.87628
  0
LINE
  8
ボルト／ビス
  6
DOT
 10
47.19106
 20
-62.77628
 11
47.19106
 21
-62.809615
  0
LINE
  8
ボルト／ビス
  6
DOT
 10
47.19106
 20
-62.77628
 11
46.59106
 21
-62.77628
  0
LINE
  8
ボルト／ビス
  6
DOT
 10
46.59106
 20
-62.77628
 11
46.59106
 21
-62.809615
  0
LINE
  8
ボルト／ビス
  6
DOT
 62
    64
 10
47.051435
 20
-62.57628
 11
47.08351
 21
-62.587955
  0
ARC
  8
ボルト／ビス
  6
DOT
 62
    64
 10
47.035398
 20
-62.681261
 40
0.104978
 50
90.0
 51
117.278033
  0
ARC
  8
ボルト／ビス
  6
DOT
 62
    64
 10
46.891061
 20
-62.978685
 40
0.402402
 50
76.165015
 51
103.834998
  0
LINE
  8
ボルト／ビス
  6
DOT
 62
    64
 10
46.730685
 20
-62.57628
 11
46.69861
 21
-62.587955
  0
ARC
  8
ボルト／ビス
  6
DOT
 62
    64
 10
46.746723
 20
-62.681261
 40
0.104978
 50
62.721967
 51
90.0
  0
LINE
  8
ボルト／ビス
  6
DOT
 62
    64
 10
47.051435
 20
-62.57628
 11
46.730685
 21
-62.57628
  0
LINE
  8
ボルト／ビス
  6
DOT
 62
    64
 10
46.69861
 20
-62.587955
 11
46.69861
 21
-62.709615
  0
LINE
  8
ボルト／ビス
  6
DOT
 62
    64
 10
46.794835
 20
-62.587955
 11
46.794835
 21
-62.709615
  0
LINE
  8
ボルト／ビス
  6
DOT
 62
    64
 10
47.08351
 20
-62.587955
 11
47.08351
 21
-62.709615
  0
LINE
  8
ボルト／ビス
  6
DOT
 62
    64
 10
46.987285
 20
-62.587955
 11
46.987285
 21
-62.709615
  0
LINE
  8
ボルト／ビス
  6
DOT
 10
47.08351
 20
-62.709615
 11
46.69861
 21
-62.709615
  0
LINE
  8
ボルト／ビス
  6
DOT
 10
47.09106
 20
-62.709615
 11
47.09106
 21
-62.77628
  0
LINE
  8
ボルト／ビス
  6
DOT
 10
47.09106
 20
-62.709615
 11
46.69106
 21
-62.709615
  0
LINE
  8
ボルト／ビス
  6
DOT
 10
46.69106
 20
-62.709615
 11
46.69106
 21
-62.77628
  0
ENDBLK
  0
BLOCK
  2
*GRP_0034
 70
    65
 10
0.0
 20
0.0
  0
LINE
  8
ボルト／ビス
  6
CONTINUOUS
 10
-104.442275
 20
-70.209613
 11
-104.442275
 21
-69.742947
  0
LINE
  8
ボルト／ビス
  6
CONTINUOUS
 10
-104.808943
 20
-70.209613
 11
-104.808943
 21
-70.142947
  0
LINE
  8
ボルト／ビス
  6
CONTINUOUS
 10
-104.808943
 20
-70.142947
 11
-104.07561
 21
-70.142947
  0
LINE
  8
ボルト／ビス
  6
CONTINUOUS
 10
-104.07561
 20
-70.142947
 11
-104.07561
 21
-70.209613
  0
LINE
  8
ボルト／ビス
  6
CONTINUOUS
 10
-104.808943
 20
-70.209613
 11
-104.07561
 21
-70.209613
  0
LINE
  8
ボルト／ビス
  6
CONTINUOUS
 10
-104.742275
 20
-70.109612
 11
-104.742275
 21
-70.142947
  0
LINE
  8
ボルト／ビス
  6
CONTINUOUS
 10
-104.742275
 20
-70.109612
 11
-104.142275
 21
-70.109612
  0
LINE
  8
ボルト／ビス
  6
CONTINUOUS
 10
-104.142275
 20
-70.109612
 11
-104.142275
 21
-70.142947
  0
LINE
  8
ボルト／ビス
  6
CONTINUOUS
 62
    64
 10
-104.60265
 20
-69.909613
 11
-104.634725
 21
-69.921288
  0
ARC
  8
ボルト／ビス
  6
CONTINUOUS
 62
    64
 10
-104.586613
 20
-70.014594
 40
0.104978
 50
62.721967
 51
90.0
  0
ARC
  8
ボルト／ビス
  6
CONTINUOUS
 62
    64
 10
-104.442275
 20
-70.312018
 40
0.402402
 50
76.165002
 51
103.834985
  0
LINE
  8
ボルト／ビス
  6
CONTINUOUS
 62
    64
 10
-104.2819
 20
-69.909613
 11
-104.249825
 21
-69.921288
  0
ARC
  8
ボルト／ビス
  6
CONTINUOUS
 62
    64
 10
-104.297938
 20
-70.014594
 40
0.104978
 50
90.0
 51
117.278033
  0
LINE
  8
ボルト／ビス
  6
CONTINUOUS
 62
    64
 10
-104.60265
 20
-69.909613
 11
-104.2819
 21
-69.909613
  0
LINE
  8
ボルト／ビス
  6
CONTINUOUS
 62
    64
 10
-104.249825
 20
-69.921288
 11
-104.249825
 21
-70.042947
  0
LINE
  8
ボルト／ビス
  6
CONTINUOUS
 62
    64
 10
-104.34605
 20
-69.921288
 11
-104.34605
 21
-70.042947
  0
LINE
  8
ボルト／ビス
  6
CONTINUOUS
 62
    64
 10
-104.634725
 20
-69.921288
 11
-104.634725
 21
-70.042947
  0
LINE
  8
ボルト／ビス
  6
CONTINUOUS
 62
    64
 10
-104.5385
 20
-69.921288
 11
-104.5385
 21
-70.042947
  0
LINE
  8
ボルト／ビス
  6
CONTINUOUS
 10
-104.634725
 20
-70.042947
 11
-104.249825
 21
-70.042947
  0
LINE
  8
ボルト／ビス
  6
CONTINUOUS
 10
-104.642275
 20
-70.042947
 11
-104.642275
 21
-70.109612
  0
LINE
  8
ボルト／ビス
  6
CONTINUOUS
 10
-104.642275
 20
-70.042947
 11
-104.242275
 21
-70.042947
  0
LINE
  8
ボルト／ビス
  6
CONTINUOUS
 10
-104.242275
 20
-70.042947
 11
-104.242275
 21
-70.109612
  0
ENDBLK
  0
BLOCK
  2
*GRP_0035
 70
    65
 10
0.0
 20
0.0
  0
LINE
  8
ボルト／ビス
  6
DOT
 10
-104.442275
 20
-62.87628
 11
-104.442275
 21
-62.409615
  0
LINE
  8
ボルト／ビス
  6
DOT
 10
-104.808943
 20
-62.87628
 11
-104.808943
 21
-62.809615
  0
LINE
  8
ボルト／ビス
  6
DOT
 10
-104.808943
 20
-62.809615
 11
-104.07561
 21
-62.809615
  0
LINE
  8
ボルト／ビス
  6
DOT
 10
-104.07561
 20
-62.809615
 11
-104.07561
 21
-62.87628
  0
LINE
  8
ボルト／ビス
  6
DOT
 10
-104.808943
 20
-62.87628
 11
-104.07561
 21
-62.87628
  0
LINE
  8
ボルト／ビス
  6
DOT
 10
-104.742275
 20
-62.77628
 11
-104.742275
 21
-62.809615
  0
LINE
  8
ボルト／ビス
  6
DOT
 10
-104.742275
 20
-62.77628
 11
-104.142275
 21
-62.77628
  0
LINE
  8
ボルト／ビス
  6
DOT
 10
-104.142275
 20
-62.77628
 11
-104.142275
 21
-62.809615
  0
LINE
  8
ボルト／ビス
  6
DOT
 62
    64
 10
-104.60265
 20
-62.57628
 11
-104.634725
 21
-62.587955
  0
ARC
  8
ボルト／ビス
  6
DOT
 62
    64
 10
-104.586613
 20
-62.681261
 40
0.104978
 50
62.721967
 51
90.0
  0
ARC
  8
ボルト／ビス
  6
DOT
 62
    64
 10
-104.442276
 20
-62.978685
 40
0.402402
 50
76.165002
 51
103.834985
  0
LINE
  8
ボルト／ビス
  6
DOT
 62
    64
 10
-104.2819
 20
-62.57628
 11
-104.249825
 21
-62.587955
  0
ARC
  8
ボルト／ビス
  6
DOT
 62
    64
 10
-104.297938
 20
-62.681261
 40
0.104978
 50
90.0
 51
117.278033
  0
LINE
  8
ボルト／ビス
  6
DOT
 62
    64
 10
-104.60265
 20
-62.57628
 11
-104.2819
 21
-62.57628
  0
LINE
  8
ボルト／ビス
  6
DOT
 62
    64
 10
-104.249825
 20
-62.587955
 11
-104.249825
 21
-62.709615
  0
LINE
  8
ボルト／ビス
  6
DOT
 62
    64
 10
-104.34605
 20
-62.587955
 11
-104.34605
 21
-62.709615
  0
LINE
  8
ボルト／ビス
  6
DOT
 62
    64
 10
-104.634725
 20
-62.587955
 11
-104.634725
 21
-62.709615
  0
LINE
  8
ボルト／ビス
  6
DOT
 62
    64
 10
-104.5385
 20
-62.587955
 11
-104.5385
 21
-62.709615
  0
LINE
  8
ボルト／ビス
  6
DOT
 10
-104.634725
 20
-62.709615
 11
-104.249825
 21
-62.709615
  0
LINE
  8
ボルト／ビス
  6
DOT
 10
-104.642275
 20
-62.709615
 11
-104.642275
 21
-62.77628
  0
LINE
  8
ボルト／ビス
  6
DOT
 10
-104.642275
 20
-62.709615
 11
-104.242275
 21
-62.709615
  0
LINE
  8
ボルト／ビス
  6
DOT
 10
-104.242275
 20
-62.709615
 11
-104.242275
 21
-62.77628
  0
ENDBLK
  0
BLOCK
  2
*DIM_0036
 70
    65
 10
0.0
 20
0.0
  0
LINE
  8
寸法
  6
BYBLOCK
 62
     0
 10
39.224393
 20
-57.542947
 11
62.194043
 21
-57.542947
  0
LINE
  8
寸法
  6
BYBLOCK
 62
     0
 10
62.194043
 20
-64.87628
 11
62.194043
 21
-57.542947
  0
POINT
  8
寸法
 62
     0
 10
62.194043
 20
-64.87628
  0
POINT
  8
寸法
 62
     0
 10
62.194043
 20
-57.542947
  0
TEXT
  7
TextStyle03
  8
寸法
  6
CONTINUOUS
 62
     0
 10
62.75
 20
-55.7375
  1
上昇高さ220
 40
3.0
 50
90.0
 72
     5
 11
62.75
 21
-37.3625
  0
ENDBLK
  0
ENDSEC
  0
SECTION
  2
ENTITIES
  0
POLYLINE
  8
通り芯
  6
CONTINUOUS
 66
     1
 70
     1
  0
VERTEX
  8
通り芯
 10
-210.0
 20
-148.5
  0
VERTEX
  8
通り芯
 10
210.0
 20
-148.5
  0
VERTEX
  8
通り芯
 10
210.0
 20
148.5
  0
VERTEX
  8
通り芯
 10
-210.0
 20
148.5
  0
SEQEND
  0
INSERT
  2
*GRP_0001
  8
型材断面
  6
CONTINUOUS
 10
0.0
 20
0.0
  0
LINE
  8
型材断面
  6
DASHDOT
 10
46.224393
 20
-77.836442
 11
46.224393
 21
42.814033
  0
LINE
  8
型材断面
  6
DASHDOT
 10
-28.775608
 20
-77.836442
 11
-28.775608
 21
42.814033
  0
LINE
  8
型材断面
  6
DASHDOT
 10
-103.775608
 20
-77.836442
 11
-103.775608
 21
42.814033
  0
POLYLINE
  8
型材断面
  6
CONTINUOUS
 66
     1
 70
     1
  0
VERTEX
  8
型材断面
 10
-19.388875
 20
13.03811
  0
VERTEX
  8
型材断面
 10
-38.160805
 20
13.03811
  0
VERTEX
  8
型材断面
 10
-38.160805
 20
8.301267
  0
VERTEX
  8
型材断面
 10
-19.388875
 20
8.301267
  0
SEQEND
  0
POLYLINE
  8
型材断面
  6
CONTINUOUS
 66
     1
 70
     1
  0
VERTEX
  8
型材断面
 10
-19.388875
 20
52.589955
  0
VERTEX
  8
型材断面
 10
-38.160805
 20
52.589955
  0
VERTEX
  8
型材断面
 10
-38.160805
 20
57.326798
  0
VERTEX
  8
型材断面
 10
-19.388875
 20
57.326798
  0
SEQEND
  0
LINE
  8
型材断面
  6
DASHDOT
 10
143.901155
 20
42.814033
 11
-103.775608
 21
42.814033
  0
LINE
  8
型材断面
  6
DASHDOT
 10
143.901155
 20
22.814033
 11
-103.775608
 21
22.814033
  0
LINE
  8
型材断面
  6
DASHDOT
 10
143.901155
 20
32.814033
 11
-103.775608
 21
32.814033
  0
LINE
  8
型材断面
  6
DOT
 10
7.574393
 20
22.814033
 11
7.574393
 21
42.814033
  0
LINE
  8
型材断面
  6
DASHDOT
 10
8.824393
 20
22.814033
 11
8.824393
 21
42.814033
  0
LINE
  8
型材断面
  6
DOT
 10
10.074393
 20
22.814033
 11
10.074393
 21
42.814033
  0
LINE
  8
型材断面
  6
DOT
 10
-65.125608
 20
22.814033
 11
-65.125608
 21
42.814033
  0
LINE
  8
型材断面
  6
DASHDOT
 10
-66.375608
 20
22.814033
 11
-66.375608
 21
42.814033
  0
LINE
  8
型材断面
  6
DOT
 10
-67.625608
 20
22.814033
 11
-67.625608
 21
42.814033
  0
LINE
  8
型材断面
  6
DOT
 10
-30.025608
 20
22.814033
 11
-30.025608
 21
42.814033
  0
LINE
  8
型材断面
  6
DASHDOT
 10
-28.775608
 20
22.814033
 11
-28.775608
 21
42.814033
  0
LINE
  8
型材断面
  6
DOT
 10
-27.525608
 20
22.814033
 11
-27.525608
 21
42.814033
  0
LINE
  8
型材断面
  6
CONTINUOUS
 10
-87.10894
 20
45.444162
 11
-88.60457
 21
48.03467
  0
LINE
  8
型材断面
  6
CONTINUOUS
 10
-87.10894
 20
45.444162
 11
-85.61331
 21
48.03467
  0
LINE
  8
型材断面
  6
CONTINUOUS
 10
-85.61331
 20
48.03467
 11
-88.60457
 21
48.03467
  0
LINE
  8
型材断面
  6
CONTINUOUS
 10
-144.627815
 20
80.791505
 11
-144.03176
 21
78.200998
  0
LINE
  8
型材断面
  6
CONTINUOUS
 10
-144.627815
 20
80.791505
 11
-145.223873
 21
78.200998
  0
LINE
  8
型材断面
  6
CONTINUOUS
 10
-145.223873
 20
78.200998
 11
-144.03176
 21
78.200998
  0
LINE
  8
型材断面
  6
CONTINUOUS
 10
-150.650403
 20
74.922105
 11
-104.408625
 21
74.922105
  0
LINE
  8
型材断面
  6
CONTINUOUS
 10
-144.627815
 20
87.32138
 11
-146.123445
 21
84.730873
  0
LINE
  8
型材断面
  6
CONTINUOUS
 10
-144.627815
 20
87.32138
 11
-143.132185
 21
84.730873
  0
LINE
  8
型材断面
  6
CONTINUOUS
 10
-143.132185
 20
84.730873
 11
-146.123445
 21
84.730873
  0
LINE
  8
型材断面
  6
CONTINUOUS
 10
-150.650403
 20
83.792277
 11
-104.408625
 21
83.792277
  0
LINE
  8
型材断面
  6
CONTINUOUS
 10
-150.650403
 20
69.134073
 11
-104.408625
 21
69.134073
  0
LINE
  8
型材断面
  6
CONTINUOUS
 10
-106.405738
 20
32.814033
 11
-108.996245
 21
34.309663
  0
LINE
  8
型材断面
  6
CONTINUOUS
 10
-106.405738
 20
32.814033
 11
-108.996245
 21
31.318403
  0
LINE
  8
型材断面
  6
CONTINUOUS
 10
-108.996245
 20
31.318403
 11
-108.996245
 21
34.309663
  0
LINE
  8
型材断面
  6
CONTINUOUS
 10
-87.10894
 20
20.183902
 11
-88.60457
 21
17.593395
  0
LINE
  8
型材断面
  6
CONTINUOUS
 10
-87.10894
 20
20.183902
 11
-85.61331
 21
17.593395
  0
LINE
  8
型材断面
  6
CONTINUOUS
 10
-85.61331
 20
17.593395
 11
-88.60457
 21
17.593395
  0
LINE
  8
型材断面
  6
CONTINUOUS
 10
29.557725
 20
45.444162
 11
31.053355
 21
48.03467
  0
LINE
  8
型材断面
  6
CONTINUOUS
 10
29.557725
 20
45.444162
 11
28.062095
 21
48.03467
  0
LINE
  8
型材断面
  6
CONTINUOUS
 10
28.062095
 20
48.03467
 11
31.053355
 21
48.03467
  0
LINE
  8
型材断面
  6
CONTINUOUS
 10
48.854522
 20
32.814033
 11
51.44503
 21
34.309663
  0
LINE
  8
型材断面
  6
CONTINUOUS
 10
48.854522
 20
32.814033
 11
51.44503
 21
31.318403
  0
LINE
  8
型材断面
  6
CONTINUOUS
 10
51.44503
 20
31.318403
 11
51.44503
 21
34.309663
  0
LINE
  8
型材断面
  6
CONTINUOUS
 10
29.557725
 20
20.183902
 11
31.053355
 21
17.593395
  0
LINE
  8
型材断面
  6
CONTINUOUS
 10
29.557725
 20
20.183902
 11
28.062095
 21
17.593395
  0
LINE
  8
型材断面
  6
CONTINUOUS
 10
28.062095
 20
17.593395
 11
31.053355
 21
17.593395
  0
LINE
  8
型材断面
  6
CONTINUOUS
 10
-28.775608
 20
45.44416
 11
-27.279978
 21
48.034668
  0
LINE
  8
型材断面
  6
CONTINUOUS
 10
-28.775608
 20
45.44416
 11
-30.271238
 21
48.034668
  0
LINE
  8
型材断面
  6
CONTINUOUS
 10
-30.271238
 20
48.034668
 11
-27.279978
 21
48.034668
  0
LINE
  8
型材断面
  6
CONTINUOUS
 10
-28.775608
 20
20.1839
 11
-27.279978
 21
17.593392
  0
LINE
  8
型材断面
  6
CONTINUOUS
 10
-28.775608
 20
20.1839
 11
-30.271238
 21
17.593392
  0
LINE
  8
型材断面
  6
CONTINUOUS
 10
-30.271238
 20
17.593392
 11
-27.279978
 21
17.593392
  0
LINE
  8
型材断面
  6
CONTINUOUS
 10
48.854522
 20
39.114035
 11
51.445032
 21
38.517982
  0
LINE
  8
型材断面
  6
CONTINUOUS
 10
48.854522
 20
39.114035
 11
51.44503
 21
39.710095
  0
LINE
  8
型材断面
  6
CONTINUOUS
 10
51.44503
 20
39.710095
 11
51.445032
 21
38.517982
  0
LINE
  8
型材断面
  6
CONTINUOUS
 10
48.854522
 20
26.51403
 11
51.445032
 21
27.110082
  0
LINE
  8
型材断面
  6
CONTINUOUS
 10
48.854522
 20
26.51403
 11
51.44503
 21
25.91797
  0
LINE
  8
型材断面
  6
CONTINUOUS
 10
51.44503
 20
25.91797
 11
51.445032
 21
27.110082
  0
LINE
  8
型材断面
  6
CONTINUOUS
 10
-106.405738
 20
39.114035
 11
-108.996248
 21
38.517982
  0
LINE
  8
型材断面
  6
CONTINUOUS
 10
-106.405738
 20
39.114035
 11
-108.996245
 21
39.710095
  0
LINE
  8
型材断面
  6
CONTINUOUS
 10
-108.996245
 20
39.710095
 11
-108.996248
 21
38.517982
  0
LINE
  8
型材断面
  6
CONTINUOUS
 10
-106.405738
 20
26.51403
 11
-108.996248
 21
27.110082
  0
LINE
  8
型材断面
  6
CONTINUOUS
 10
-106.405738
 20
26.51403
 11
-108.996245
 21
25.91797
  0
LINE
  8
型材断面
  6
CONTINUOUS
 10
-108.996245
 20
25.91797
 11
-108.996248
 21
27.110082
  0
INSERT
  2
*GRP_0013
  8
型材断面
  6
CONTINUOUS
 10
0.0
 20
0.0
  0
INSERT
  2
*GRP_0014
  8
型材断面
  6
CONTINUOUS
 10
0.0
 20
0.0
  0
INSERT
  2
*GRP_0015
  8
型材断面
  6
CONTINUOUS
 10
0.0
 20
0.0
  0
INSERT
  2
*GRP_0016
  8
型材断面
  6
CONTINUOUS
 10
0.0
 20
0.0
  0
LINE
  8
型材断面
  6
CONTINUOUS
 62
    47
 10
143.29116
 20
21.3307
 11
143.29116
 21
32.814033
  0
LINE
  8
型材断面
  6
CONTINUOUS
 62
    47
 10
143.29116
 20
21.3307
 11
142.79116
 21
21.3307
  0
LINE
  8
型材断面
  6
CONTINUOUS
 62
    47
 10
142.79116
 20
32.814033
 11
142.79116
 21
20.8307
  0
LINE
  8
型材断面
  6
CONTINUOUS
 62
    47
 10
142.79116
 20
20.8307
 11
139.474493
 21
20.8307
  0
LINE
  8
型材断面
  6
CONTINUOUS
 62
    47
 10
139.47447
 20
32.814033
 11
139.474493
 21
20.8307
  0
LINE
  8
型材断面
  6
CONTINUOUS
 62
    47
 10
139.307775
 20
32.814033
 11
139.307775
 21
20.8307
  0
LINE
  8
型材断面
  6
CONTINUOUS
 62
    47
 10
137.134442
 20
32.814033
 11
137.134442
 21
20.8307
  0
LINE
  8
型材断面
  6
CONTINUOUS
 62
    47
 10
137.134442
 20
20.8307
 11
139.307775
 21
20.8307
  0
LINE
  8
型材断面
  6
CONTINUOUS
 62
    47
 10
137.134442
 20
21.714033
 11
136.757657
 21
21.714033
  0
LINE
  8
型材断面
  6
CONTINUOUS
 62
    47
 10
143.29116
 20
44.297367
 11
143.29116
 21
32.814033
  0
LINE
  8
型材断面
  6
CONTINUOUS
 62
    47
 10
143.29116
 20
44.297367
 11
142.79116
 21
44.297367
  0
LINE
  8
型材断面
  6
CONTINUOUS
 62
    47
 10
142.79116
 20
32.814033
 11
142.79116
 21
44.797367
  0
LINE
  8
型材断面
  6
CONTINUOUS
 62
    47
 10
142.79116
 20
44.797367
 11
139.474493
 21
44.797367
  0
LINE
  8
型材断面
  6
CONTINUOUS
 62
    47
 10
139.47447
 20
32.814033
 11
139.474493
 21
44.797367
  0
LINE
  8
型材断面
  6
CONTINUOUS
 62
    47
 10
139.307775
 20
32.814033
 11
139.307775
 21
44.797367
  0
LINE
  8
型材断面
  6
CONTINUOUS
 62
    47
 10
137.134442
 20
32.814033
 11
137.134442
 21
44.797367
  0
LINE
  8
型材断面
  6
CONTINUOUS
 62
    47
 10
137.134442
 20
44.797367
 11
139.307775
 21
44.797367
  0
LINE
  8
型材断面
  6
CONTINUOUS
 62
    47
 10
137.134442
 20
43.914033
 11
136.757657
 21
43.914033
  0
LINE
  8
型材断面
  6
CONTINUOUS
 62
    47
 10
-105.258943
 20
-77.743115
 11
-105.258943
 21
-77.243115
  0
LINE
  8
型材断面
  6
CONTINUOUS
 62
    47
 10
-105.758943
 20
-77.243115
 11
-105.758943
 21
-73.926447
  0
LINE
  8
型材断面
  6
CONTINUOUS
 62
    47
 10
-105.758943
 20
-71.586398
 11
-105.758943
 21
-73.75973
  0
LINE
  8
型材断面
  6
CONTINUOUS
 62
    47
 10
-104.87561
 20
-71.586398
 11
-104.87561
 21
-71.209613
  0
LINE
  8
型材断面
  6
CONTINUOUS
 62
    47
 10
-105.258943
 20
-77.743115
 11
-28.775608
 21
-77.743115
  0
LINE
  8
型材断面
  6
CONTINUOUS
 62
    47
 10
-105.758943
 20
-77.243115
 11
-28.775608
 21
-77.243115
  0
LINE
  8
型材断面
  6
CONTINUOUS
 62
    47
 10
-105.758943
 20
-73.926447
 11
-28.775608
 21
-73.926303
  0
LINE
  8
型材断面
  6
CONTINUOUS
 62
    47
 10
-105.758943
 20
-73.75973
 11
-28.775608
 21
-73.75973
  0
LINE
  8
型材断面
  6
CONTINUOUS
 62
    47
 10
-105.758943
 20
-71.586398
 11
-28.775608
 21
-71.586398
  0
LINE
  8
型材断面
  6
CONTINUOUS
 62
    47
 10
47.707727
 20
-77.743115
 11
47.707727
 21
-77.243115
  0
LINE
  8
型材断面
  6
CONTINUOUS
 62
    47
 10
48.207727
 20
-77.243115
 11
48.207727
 21
-73.926447
  0
LINE
  8
型材断面
  6
CONTINUOUS
 62
    47
 10
48.207727
 20
-71.586398
 11
48.207727
 21
-73.75973
  0
LINE
  8
型材断面
  6
CONTINUOUS
 62
    47
 10
47.324395
 20
-71.586398
 11
47.324395
 21
-71.209613
  0
LINE
  8
型材断面
  6
CONTINUOUS
 62
    47
 10
47.707727
 20
-77.743115
 11
-28.775608
 21
-77.743115
  0
LINE
  8
型材断面
  6
CONTINUOUS
 62
    47
 10
48.207727
 20
-77.243115
 11
-28.775608
 21
-77.243115
  0
LINE
  8
型材断面
  6
CONTINUOUS
 62
    47
 10
48.207727
 20
-73.926447
 11
-28.775608
 21
-73.926303
  0
LINE
  8
型材断面
  6
CONTINUOUS
 62
    47
 10
48.207727
 20
-73.75973
 11
-28.775608
 21
-73.75973
  0
LINE
  8
型材断面
  6
CONTINUOUS
 62
    47
 10
48.207727
 20
-71.586398
 11
-28.775608
 21
-71.586398
  0
LINE
  8
型材断面
  6
CONTINUOUS
 10
-150.650403
 20
63.34604
 11
-104.408625
 21
63.34604
  0
TEXT
  7
TextStyle03
  8
文字
  6
CONTINUOUS
 10
122.775
 20
-76.7
  1
網入り6.8t
 40
3.0
 72
     5
 11
139.4625
 21
-76.7
  0
TEXT
  7
TextStyle03
  8
文字
  6
CONTINUOUS
 10
-37.125
 20
9.325
  1
可動装置側
 40
3.0
 72
     5
 11
-20.625
 21
9.325
  0
TEXT
  7
TextStyle03
  8
文字
  6
CONTINUOUS
 10
-37.125
 20
53.3
  1
可動装置側
 40
3.0
 72
     5
 11
-20.625
 21
53.3
  0
TEXT
  7
TextStyle03
  8
文字
  6
CONTINUOUS
 10
129.45
 20
-81.375
  1
×４枚
 40
3.0
 72
     5
 11
139.2
 21
-81.375
  0
TEXT
  7
TextStyle03
  8
文字
  6
CONTINUOUS
 10
-141.8
 20
79.425
  1
はケーシング位置を示す
 40
3.0
 72
     5
 11
-105.05
 21
79.425
  0
TEXT
  7
TextStyle03
  8
文字
  6
CONTINUOUS
 10
-141.8
 20
76.05
  1
４ヶ所中1ヶ所に設定
 40
3.0
 72
     5
 11
-110.1125
 21
76.05
  0
TEXT
  7
TextStyle03
  8
文字
  6
CONTINUOUS
 10
-141.8
 20
84.95
  1
は排水穴位置を示す
 40
3.0
 72
     5
 11
-111.8
 21
84.95
  0
TEXT
  7
TextStyle03
  8
文字
  6
CONTINUOUS
 10
-124.8
 20
11.275
  1
アンカーピッチ
 40
3.0
 50
90.0
 72
     5
 11
-124.8
 21
34.525
  0
TEXT
  7
TextStyle03
  8
文字
  6
CONTINUOUS
 10
-88.825
 20
79.9
  1
アンカーピッチ
 40
3.0
 72
     5
 11
-65.575
 21
79.9
  0
TEXT
  7
TextStyle03
  8
文字
  6
CONTINUOUS
 10
-145.625
 20
64.3
  1
アームユニット数　４ヶ所
 40
3.0
 72
     5
 11
-105.5
 21
64.3
  0
TEXT
  7
TextStyle03
  8
文字
  6
CONTINUOUS
 10
-145.525
 20
70.075
  1
アンカー数量　１６ヶ所
 40
3.0
 72
     5
 11
-108.775
 21
70.075
  0
TEXT
  7
TextStyle03
  8
文字
  6
CONTINUOUS
 10
78.1
 20
125.25
  1
シリーズ：ＴＤ２Ｌ
 40
5.0
 72
     5
 11
128.1
 21
125.25
  0
TEXT
  7
TextStyle03
  8
文字
  6
CONTINUOUS
 10
78.1
 20
119.625
  1
　　　　　（上下可動）600×4500タイプ
 40
5.0
 72
     5
 11
181.5375
 21
119.625
  0
TEXT
  7
TextStyle03
  8
文字
  6
CONTINUOUS
 10
78.1
 20
114.0
  1
図面名　：外観姿図
 40
5.0
 72
     5
 11
128.1
 21
114.0
  0
TEXT
  7
TextStyle03
  8
文字
  6
CONTINUOUS
 10
78.1
 20
108.375
  1
　　　　　　
 40
5.0
 72
     5
 11
111.225
 21
108.375
  0
TEXT
  7
TextStyle03
  8
文字
  6
CONTINUOUS
 10
76.7
 20
105.2
  1
ＮＳコード：ＮＳＤＺＬ
 40
5.0
 72
     5
 11
137.95
 21
105.2
  0
INSERT
  2
*DIM_0002
  8
寸法
  6
CONTINUOUS
 10
0.0
 20
0.0
  0
INSERT
  2
*DIM_0003
  8
寸法
  6
CONTINUOUS
 10
0.0
 20
0.0
  0
INSERT
  2
*DIM_0004
  8
寸法
  6
CONTINUOUS
 10
0.0
 20
0.0
  0
INSERT
  2
*DIM_0005
  8
寸法
  6
CONTINUOUS
 10
0.0
 20
0.0
  0
INSERT
  2
*DIM_0006
  8
寸法
  6
CONTINUOUS
 10
0.0
 20
0.0
  0
INSERT
  2
*DIM_0007
  8
寸法
  6
CONTINUOUS
 10
0.0
 20
0.0
  0
INSERT
  2
*DIM_0008
  8
寸法
  6
CONTINUOUS
 10
0.0
 20
0.0
  0
INSERT
  2
*DIM_0009
  8
寸法
  6
CONTINUOUS
 10
0.0
 20
0.0
  0
INSERT
  2
*DIM_0010
  8
寸法
  6
CONTINUOUS
 10
0.0
 20
0.0
  0
INSERT
  2
*DIM_0011
  8
寸法
  6
CONTINUOUS
 10
0.0
 20
0.0
  0
INSERT
  2
*DIM_0017
  8
寸法
  6
CONTINUOUS
 10
0.0
 20
0.0
  0
INSERT
  2
*DIM_0018
  8
寸法
  6
CONTINUOUS
 10
0.0
 20
0.0
  0
INSERT
  2
*DIM_0019
  8
寸法
  6
CONTINUOUS
 10
0.0
 20
0.0
  0
INSERT
  2
*DIM_0020
  8
寸法
  6
CONTINUOUS
 10
0.0
 20
0.0
  0
INSERT
  2
*DIM_0021
  8
寸法
  6
CONTINUOUS
 10
0.0
 20
0.0
  0
INSERT
  2
*DIM_0022
  8
寸法
  6
CONTINUOUS
 10
0.0
 20
0.0
  0
INSERT
  2
*DIM_0023
  8
寸法
  6
CONTINUOUS
 10
0.0
 20
0.0
  0
INSERT
  2
*DIM_0024
  8
寸法
  6
CONTINUOUS
 10
0.0
 20
0.0
  0
INSERT
  2
*DIM_0025
  8
寸法
  6
CONTINUOUS
 10
0.0
 20
0.0
  0
INSERT
  2
*DIM_0026
  8
寸法
  6
CONTINUOUS
 10
0.0
 20
0.0
  0
INSERT
  2
*DIM_0027
  8
寸法
  6
CONTINUOUS
 10
0.0
 20
0.0
  0
INSERT
  2
*DIM_0028
  8
寸法
  6
CONTINUOUS
 10
0.0
 20
0.0
  0
INSERT
  2
*DIM_0036
  8
寸法
  6
CONTINUOUS
 10
0.0
 20
0.0
  0
LINE
  8
別途部材
  6
CONTINUOUS
 10
48.29106
 20
20.747365
 11
47.89106
 21
21.147365
  0
LINE
  8
別途部材
  6
CONTINUOUS
 10
46.224393
 20
22.814033
 11
38.165137
 21
30.87329
  0
LINE
  8
別途部材
  6
CONTINUOUS
 62
    96
 10
135.757657
 20
21.147365
 11
136.757657
 21
20.747365
  0
LINE
  8
別途部材
  6
CONTINUOUS
 62
    96
 10
135.757657
 20
21.147365
 11
135.757657
 21
32.814033
  0
LINE
  8
別途部材
  6
CONTINUOUS
 10
136.757657
 20
20.747365
 11
136.757657
 21
32.814033
  0
LINE
  8
別途部材
  6
CONTINUOUS
 62
    96
 10
135.757657
 20
44.4807
 11
136.757657
 21
44.8807
  0
LINE
  8
別途部材
  6
CONTINUOUS
 62
    96
 10
135.757657
 20
44.4807
 11
135.757657
 21
32.814033
  0
LINE
  8
別途部材
  6
CONTINUOUS
 10
136.757657
 20
44.8807
 11
136.757657
 21
32.814033
  0
ARC
  8
別途部材
  6
CONTINUOUS
 10
142.465993
 20
32.814033
 40
12.041667
 50
123.855033
 51
236.144967
  0
LINE
  8
別途部材
  6
CONTINUOUS
 10
47.89106
 20
21.147365
 11
47.89106
 21
32.814033
  0
LINE
  8
別途部材
  6
CONTINUOUS
 10
48.29106
 20
20.747365
 11
48.29106
 21
32.814033
  0
LINE
  8
別途部材
  6
CONTINUOUS
 10
48.29106
 20
44.8807
 11
47.89106
 21
44.4807
  0
LINE
  8
別途部材
  6
CONTINUOUS
 10
46.224393
 20
42.814033
 11
38.165137
 21
34.754775
  0
LINE
  8
別途部材
  6
CONTINUOUS
 10
47.89106
 20
44.4807
 11
47.89106
 21
32.814033
  0
LINE
  8
別途部材
  6
CONTINUOUS
 10
48.29106
 20
44.8807
 11
48.29106
 21
32.814033
  0
LINE
  8
別途部材
  6
CONTINUOUS
 10
47.89106
 20
44.4807
 11
-28.775608
 21
44.4807
  0
LINE
  8
別途部材
  6
CONTINUOUS
 10
48.29106
 20
44.8807
 11
-28.775608
 21
44.8807
  0
LINE
  8
別途部材
  6
CONTINUOUS
 10
48.29106
 20
20.747365
 11
-28.775608
 21
20.747365
  0
LINE
  8
別途部材
  6
CONTINUOUS
 10
47.89106
 20
21.147365
 11
-28.775608
 21
21.147365
  0
LINE
  8
別途部材
  6
CONTINUOUS
 10
-105.842275
 20
20.747365
 11
-105.442275
 21
21.147365
  0
LINE
  8
別途部材
  6
CONTINUOUS
 10
-103.775608
 20
22.814033
 11
-95.716352
 21
30.87329
  0
LINE
  8
別途部材
  6
CONTINUOUS
 10
-105.442275
 20
21.147365
 11
-105.442275
 21
32.814033
  0
LINE
  8
別途部材
  6
CONTINUOUS
 10
-105.842275
 20
20.747365
 11
-105.842275
 21
32.814033
  0
LINE
  8
別途部材
  6
CONTINUOUS
 10
-105.842275
 20
44.8807
 11
-105.442275
 21
44.4807
  0
LINE
  8
別途部材
  6
CONTINUOUS
 10
-103.775608
 20
42.814033
 11
-95.716352
 21
34.754775
  0
LINE
  8
別途部材
  6
CONTINUOUS
 10
-105.442275
 20
44.4807
 11
-105.442275
 21
32.814033
  0
LINE
  8
別途部材
  6
CONTINUOUS
 10
-105.842275
 20
44.8807
 11
-105.842275
 21
32.814033
  0
LINE
  8
別途部材
  6
CONTINUOUS
 10
-105.442275
 20
44.4807
 11
-28.775608
 21
44.4807
  0
LINE
  8
別途部材
  6
CONTINUOUS
 10
-105.842275
 20
44.8807
 11
-28.775608
 21
44.8807
  0
LINE
  8
別途部材
  6
CONTINUOUS
 10
-105.842275
 20
20.747365
 11
-28.775608
 21
20.747365
  0
LINE
  8
別途部材
  6
CONTINUOUS
 10
-105.442275
 20
21.147365
 11
-28.775608
 21
21.147365
  0
LINE
  8
別途部材
  6
DOT
 62
    96
 10
47.89106
 20
-62.87628
 11
48.29106
 21
-63.87628
  0
ARC
  8
別途部材
  6
DOT
 10
36.224392
 20
-69.584615
 40
12.041667
 50
33.855033
 51
90.0
  0
LINE
  8
別途部材
  6
DOT
 10
36.224393
 20
-57.542947
 11
-28.775608
 21
-57.542947
  0
LINE
  8
別途部材
  6
DOT
 62
    96
 10
47.89106
 20
-62.87628
 11
-28.775608
 21
-62.87628
  0
LINE
  8
別途部材
  6
DOT
 10
48.29106
 20
-63.87628
 11
-28.775608
 21
-63.87628
  0
LINE
  8
別途部材
  6
DOT
 62
    96
 10
-105.442275
 20
-62.87628
 11
-105.842275
 21
-63.87628
  0
ARC
  8
別途部材
  6
DOT
 10
-93.775607
 20
-69.584615
 40
12.041667
 50
90.0
 51
146.144967
  0
LINE
  8
別途部材
  6
DOT
 10
-93.775608
 20
-57.542947
 11
-28.775608
 21
-57.542947
  0
LINE
  8
別途部材
  6
DOT
 62
    96
 10
-105.442275
 20
-62.87628
 11
-28.775608
 21
-62.87628
  0
LINE
  8
別途部材
  6
DOT
 10
-105.842275
 20
-63.87628
 11
-28.775608
 21
-63.87628
  0
INSERT
  2
*GRP_0012
  8
別途部材
  6
CONTINUOUS
 10
0.0
 20
0.0
  0
INSERT
  2
*GRP_0030
  8
別途部材
  6
DOT
 10
0.0
 20
0.0
  0
INSERT
  2
*GRP_0031
  8
別途部材
  6
DOT
 10
0.0
 20
0.0
  0
INSERT
  2
*GRP_0032
  8
別途部材
  6
DOT
 10
0.0
 20
0.0
  0
INSERT
  2
*GRP_0033
  8
別途部材
  6
DOT
 10
0.0
 20
0.0
  0
INSERT
  2
*GRP_0034
  8
別途部材
  6
DOT
 10
0.0
 20
0.0
  0
INSERT
  2
*GRP_0035
  8
別途部材
  6
DOT
 10
0.0
 20
0.0
  0
LINE
  8
曲げ物
  6
CONTINUOUS
 10
141.310947
 20
-83.118728
 11
141.310947
 21
-63.785395
  0
LINE
  8
曲げ物
  6
CONTINUOUS
 10
104.777615
 20
-83.118728
 11
104.777615
 21
-63.785395
  0
LINE
  8
曲げ物
  6
CONTINUOUS
 10
141.310947
 20
-63.785395
 11
104.777615
 21
-63.785395
  0
LINE
  8
曲げ物
  6
CONTINUOUS
 10
141.310947
 20
-83.118728
 11
104.777615
 21
-83.118728
  0
ENDSEC
  0
EOF
