  0
SECTION
  2
HEADER
  9
$EXTMIN
 10
-210.0
 20
-148.5
  9
$EXTMAX
 10
210.0
 20
148.5
  9
$PDMODE
 70
    32
  9
$PDSIZE
 40
1.5
  9
$LTSCALE
 40
10.0
  0
ENDSEC
  0
SECTION
  2
TABLES
  0
TABLE
  2
LTYPE
 70
    15
  0
LTYPE
  2
CONTINUOUS
 70
    64
  3
実線
 72
    65
 73
     0
 40
0.0
  0
LTYPE
  2
DASHED
 70
    64
  3
破線A
 72
    65
 73
     2
 40
0.6
 49
0.4
 49
-0.2
  0
LTYPE
  2
DASHEDX2
 70
    64
  3
破線B
 72
    65
 73
     2
 40
1.3
 49
0.9
 49
-0.4
  0
LTYPE
  2
DASHDOT
 70
    64
  3
１点鎖線A
 72
    65
 73
     4
 40
0.5375
 49
0.375
 49
-0.05
 49
0.0625
 49
-0.05
  0
LTYPE
  2
DASHDOTX2
 70
    64
  3
１点鎖線B
 72
    65
 73
     4
 40
1.075
 49
0.75
 49
-0.1
 49
0.125
 49
-0.1
  0
LTYPE
  2
DIVIDE2
 70
    64
  3
２点鎖線A
 72
    65
 73
     6
 40
0.5125
 49
0.3
 49
-0.0375
 49
0.05
 49
-0.0375
 49
0.05
 49
-0.0375
  0
LTYPE
  2
DIVIDE
 70
    64
  3
２点鎖線B
 72
    65
 73
     6
 40
1.05
 49
0.55
 49
-0.1
 49
0.1
 49
-0.1
 49
0.1
 49
-0.1
  0
LTYPE
  2
DOT
 70
    64
  3
点線A
 72
    65
 73
     2
 40
0.1125
 49
0.0625
 49
-0.05
  0
LTYPE
  2
DOTX2
 70
    64
  3
点線B
 72
    65
 73
     2
 40
0.275
 49
0.15
 49
-0.125
  0
LTYPE
  2
CONTINUOUS
 70
    64
  3
実線
 72
    65
 73
     0
 40
0.0
  0
LTYPE
  2
CONTINUOUS
 70
    64
  3
実線
 72
    65
 73
     0
 40
0.0
  0
LTYPE
  2
CONTINUOUS
 70
    64
  3
実線
 72
    65
 73
     0
 40
0.0
  0
LTYPE
  2
CONTINUOUS
 70
    64
  3
実線
 72
    65
 73
     0
 40
0.0
  0
LTYPE
  2
CONTINUOUS
 70
    64
  3
実線
 72
    65
 73
     0
 40
0.0
  0
LTYPE
  2
CONTINUOUS
 70
    64
  3
実線
 72
    65
 73
     0
 40
0.0
  0
ENDTAB
  0
TABLE
  2
LAYER
 70
    34
  0
LAYER
  2
通り芯
 70
     0
 62
    15
  6
CONTINUOUS
  0
LAYER
  2
補助線
 70
     0
 62
    16
  6
DOT
  0
LAYER
  2
躯体
 70
     0
 62
    31
  6
CONTINUOUS
  0
LAYER
  2
型材
 70
     0
 62
    32
  6
CONTINUOUS
  0
LAYER
  2
型材断面
 70
     0
 62
    47
  6
CONTINUOUS
  0
LAYER
  2
ガラス
 70
     0
 62
    48
  6
CONTINUOUS
  0
LAYER
  2
ゴム等
 70
     0
 62
    63
  6
CONTINUOUS
  0
LAYER
  2
ボルト／ビス
 70
     0
 62
    64
  6
CONTINUOUS
  0
LAYER
  2
文字
 70
     0
 62
    79
  6
CONTINUOUS
  0
LAYER
  2
寸法
 70
     0
 62
    80
  6
CONTINUOUS
  0
LAYER
  2
ﾊｯﾁﾝｸﾞ
 70
     0
 62
    95
  6
CONTINUOUS
  0
LAYER
  2
別途部材
 70
     0
 62
    96
  6
CONTINUOUS
  0
LAYER
  2
曲げ物
 70
     0
 62
   111
  6
CONTINUOUS
  0
LAYER
  2
鉄骨等
 70
     0
 62
   112
  6
CONTINUOUS
  0
LAYER
  2
St
 70
     0
 62
   127
  6
CONTINUOUS
  0
LAYER
  2
その他部品等
 70
     0
 62
   128
  6
CONTINUOUS
  0
LAYER
  2
ｶﾞｽｹｯﾄ
 70
     0
 62
   143
  6
CONTINUOUS
  0
LAYER
  2
ｽｹｯﾁ
 70
     0
 62
    14
  6
CONTINUOUS
  0
LAYER
  2
0
 70
     0
 62
    17
  6
CONTINUOUS
  0
LAYER
  2
1
 70
     0
 62
    30
  6
CONTINUOUS
  0
LAYER
  2
4
 70
     0
 62
    33
  6
CONTINUOUS
  0
LAYER
  2
ﾚｲﾔ3
 70
     0
 62
    46
  6
CONTINUOUS
  0
LAYER
  2
外形線
 70
     0
 62
    49
  6
CONTINUOUS
  0
LAYER
  2
部品
 70
     0
 62
    14
  6
CONTINUOUS
  0
LAYER
  2
サッシ芯
 70
     0
 62
    17
  6
DASHDOTX2
  0
LAYER
  2
寸法線
 70
     0
 62
    62
  6
CONTINUOUS
  0
LAYER
  2
姿図外形線
 70
     0
 62
    65
  6
CONTINUOUS
  0
LAYER
  2
姿補助線
 70
     0
 62
    30
  6
CONTINUOUS
  0
LAYER
  2
透視線
 70
     0
 62
    78
  6
DOT
  0
LAYER
  2
用紙
 70
     0
 62
    81
  6
CONTINUOUS
  0
LAYER
  2
実線図枠
 70
     0
 62
    94
  6
CONTINUOUS
  0
LAYER
  2
補助図枠
 70
     0
 62
    97
  6
CONTINUOUS
  0
LAYER
  2
建具記号
 70
     0
 62
   110
  6
CONTINUOUS
  0
LAYER
  2
補助文字
 70
     0
 62
   113
  6
CONTINUOUS
  0
ENDTAB
  0
TABLE
  2
STYLE
 70
    10
  0
STYLE
  2
STANDARD
 70
     0
 40
1.0
 41
1.0
 42
1.0
 50
0.0
 71
     0
  3
TXT
  4
BIGFONT
  0
STYLE
  2
TATE
 70
     4
 40
1.0
 41
1.0
 42
1.0
 50
0.0
 71
     0
  3
TXT
  4
BIGFONT
  0
STYLE
  2
TextStyle03
 70
     0
 40
1.0
 41
1.0
 42
1.0
 50
0.0
 71
     0
  3
MONOTXT
  4
BIGFONT
  0
STYLE
  2
TextStyle04
 70
     0
 40
1.0
 41
1.0
 42
1.0
 50
0.0
 71
     0
  3
MONOTXT
  4
BIGFONT
  0
STYLE
  2
TextStyle05
 70
     0
 40
1.0
 41
1.0
 42
1.0
 50
0.0
 71
     0
  3
MONOTXT
  4
BIGFONT
  0
STYLE
  2
TextStyle06
 70
     0
 40
1.0
 41
1.0
 42
1.0
 50
0.0
 71
     0
  3
MONOTXT
  4
BIGFONT
  0
STYLE
  2
TextStyle07
 70
     0
 40
1.0
 41
1.0
 42
1.0
 50
0.0
 71
     0
  3
MONOTXT
  4
BIGFONT
  0
STYLE
  2
TextStyle08
 70
     0
 40
1.0
 41
1.0
 42
1.0
 50
0.0
 71
     0
  3
MONOTXT
  4
BIGFONT
  0
STYLE
  2
TextStyle09
 70
     0
 40
1.0
 41
1.0
 42
1.0
 50
0.0
 71
     0
  3
MONOTXT
  4
BIGFONT
  0
STYLE
  2
TextStyle10
 70
     0
 40
1.0
 41
1.0
 42
1.0
 50
0.0
 71
     0
  3
MONOTXT
  4
BIGFONT
  0
ENDTAB
  0
ENDSEC
  0
SECTION
  2
BLOCKS
  0
BLOCK
  2
*GRP_0001
 70
    65
 10
0.0
 20
0.0
  0
LINE
  8
型材断面
  6
CONTINUOUS
 10
195.0
 20
133.5
 11
195.0
 21
-133.5
  0
LINE
  8
型材断面
  6
CONTINUOUS
 10
195.0
 20
-133.5
 11
-185.0
 21
-133.5
  0
LINE
  8
型材断面
  6
CONTINUOUS
 10
-185.0
 20
-133.5
 11
-185.0
 21
133.5
  0
LINE
  8
型材断面
  6
CONTINUOUS
 10
195.0
 20
133.5
 11
-185.0
 21
133.5
  0
LINE
  8
型材断面
  6
CONTINUOUS
 10
145.0
 20
-133.5
 11
145.0
 21
-118.5
  0
LINE
  8
型材断面
  6
CONTINUOUS
 10
195.0
 20
-118.5
 11
145.0
 21
-118.5
  0
ENDBLK
  0
BLOCK
  2
*DIM_0002
 70
    65
 10
0.0
 20
0.0
  0
LINE
  8
寸法
  6
BYBLOCK
 62
     0
 10
13.246443
 20
-62.95793
 11
61.549425
 21
-62.95793
  0
LINE
  8
寸法
  6
BYBLOCK
 62
     0
 10
61.549425
 20
-79.624597
 11
61.549425
 21
-62.95793
  0
POINT
  8
寸法
 62
     0
 10
61.549425
 20
-62.95793
  0
TEXT
  7
TextStyle03
  8
寸法
  6
CONTINUOUS
 62
     0
 10
61.175
 20
-73.7375
  1
500
 40
3.0
 50
90.0
 72
     5
 11
61.175
 21
-68.8625
  0
ENDBLK
  0
BLOCK
  2
*DIM_0003
 70
    65
 10
0.0
 20
0.0
  0
LINE
  8
寸法
  6
BYBLOCK
 62
     0
 10
82.949083
 20
64.756625
 11
82.21224
 21
64.756625
  0
LINE
  8
寸法
  6
BYBLOCK
 62
     0
 10
82.949083
 20
-1.910042
 11
82.21224
 21
-1.910042
  0
LINE
  8
寸法
  6
BYBLOCK
 62
     0
 10
82.21224
 20
64.756625
 11
82.21224
 21
-1.910042
  0
POINT
  8
寸法
 62
     0
 10
82.21224
 20
64.756625
  0
POINT
  8
寸法
 62
     0
 10
82.21224
 20
-1.910042
  0
TEXT
  7
TextStyle03
  8
寸法
  6
CONTINUOUS
 62
     0
 10
81.825
 20
19.68125
  1
呼称寸法　2000
 40
3.0
 50
90.0
 72
     5
 11
81.825
 21
43.11875
  0
ENDBLK
  0
BLOCK
  2
*DIM_0004
 70
    65
 10
0.0
 20
0.0
  0
LINE
  8
寸法
  6
BYBLOCK
 62
     0
 10
118.446372
 20
32.42329
 11
118.446372
 21
86.5884
  0
LINE
  8
寸法
  6
BYBLOCK
 62
     0
 10
135.11304
 20
86.5884
 11
118.446372
 21
86.5884
  0
POINT
  8
寸法
 62
     0
 10
135.11304
 20
86.5884
  0
POINT
  8
寸法
 62
     0
 10
118.446372
 20
86.5884
  0
TEXT
  7
TextStyle03
  8
寸法
  6
CONTINUOUS
 62
     0
 10
124.3375
 20
86.95
  1
500
 40
3.0
 72
     5
 11
129.2125
 21
86.95
  0
ENDBLK
  0
BLOCK
  2
*DIM_0005
 70
    65
 10
0.0
 20
0.0
  0
LINE
  8
寸法
  6
CONTINUOUS
 62
     0
 10
100.883267
 20
-57.292845
 11
100.883267
 21
-49.101008
  0
LINE
  8
寸法
  6
CONTINUOUS
 62
     0
 10
133.229935
 20
-57.292845
 11
133.229935
 21
-49.101008
  0
LINE
  8
寸法
  6
CONTINUOUS
 62
     0
 10
100.883267
 20
-49.101008
 11
133.229935
 21
-49.101008
  0
POINT
  8
寸法
 62
     0
 10
100.883267
 20
-49.101008
  0
POINT
  8
寸法
 62
     0
 10
133.229935
 20
-49.101008
  0
TEXT
  7
TextStyle03
  8
寸法
  6
CONTINUOUS
 62
     0
 10
112.925
 20
-48.725
  1
970.4
 40
3.0
 72
     5
 11
121.175
 21
-48.725
  0
ENDBLK
  0
BLOCK
  2
*DIM_0006
 70
    65
 10
0.0
 20
0.0
  0
LINE
  8
寸法
  6
BYBLOCK
 62
     0
 10
134.229935
 20
-58.292845
 11
143.185845
 21
-58.292845
  0
LINE
  8
寸法
  6
BYBLOCK
 62
     0
 10
134.229935
 20
-90.759512
 11
143.185845
 21
-90.759512
  0
LINE
  8
寸法
  6
BYBLOCK
 62
     0
 10
143.185845
 20
-58.292845
 11
143.185845
 21
-90.759512
  0
POINT
  8
寸法
 62
     0
 10
143.185845
 20
-58.292845
  0
POINT
  8
寸法
 62
     0
 10
143.185845
 20
-90.759512
  0
TEXT
  7
TextStyle03
  8
寸法
  6
CONTINUOUS
 62
     0
 10
142.8
 20
-76.9625
  1
974
 40
3.0
 50
90.0
 72
     5
 11
142.8
 21
-72.0875
  0
ENDBLK
  0
BLOCK
  2
*DIM_0007
 70
    65
 10
0.0
 20
0.0
  0
LINE
  8
寸法
  6
BYBLOCK
 62
     0
 10
-104.420225
 20
-5.54017
 11
-104.420225
 21
-10.11842
  0
LINE
  8
寸法
  6
BYBLOCK
 62
     0
 10
-37.753557
 20
-5.54017
 11
-37.753557
 21
-10.11842
  0
LINE
  8
寸法
  6
BYBLOCK
 62
     0
 10
-104.420225
 20
-10.11842
 11
-37.753557
 21
-10.11842
  0
POINT
  8
寸法
 62
     0
 10
-104.420225
 20
-10.11842
  0
POINT
  8
寸法
 62
     0
 10
-37.753557
 20
-10.11842
  0
TEXT
  7
TextStyle03
  8
寸法
  6
CONTINUOUS
 62
     0
 10
-74.38125
 20
-9.75
  1
2000
 40
3.0
 72
     5
 11
-67.81875
 21
-9.75
  0
ENDBLK
  0
BLOCK
  2
*DIM_0008
 70
    65
 10
0.0
 20
0.0
  0
LINE
  8
寸法
  6
BYBLOCK
 62
     0
 10
28.91311
 20
-5.54017
 11
28.91311
 21
-10.11842
  0
LINE
  8
寸法
  6
BYBLOCK
 62
     0
 10
-37.753557
 20
-10.11842
 11
28.91311
 21
-10.11842
  0
POINT
  8
寸法
 62
     0
 10
28.91311
 20
-10.11842
  0
TEXT
  7
TextStyle03
  8
寸法
  6
CONTINUOUS
 62
     0
 10
-7.70625
 20
-9.75
  1
2000
 40
3.0
 72
     5
 11
-1.14375
 21
-9.75
  0
ENDBLK
  0
BLOCK
  2
*DIM_0009
 70
    65
 10
0.0
 20
0.0
  0
LINE
  8
寸法
  6
BYBLOCK
 62
     0
 10
46.579775
 20
64.756627
 11
56.304058
 21
64.756627
  0
LINE
  8
寸法
  6
BYBLOCK
 62
     0
 10
49.209905
 20
61.056627
 11
56.304058
 21
61.056627
  0
LINE
  8
寸法
  6
BYBLOCK
 62
     0
 10
56.304058
 20
64.756627
 11
56.304058
 21
61.056627
  0
POINT
  8
寸法
 62
     0
 10
56.304058
 20
64.756627
  0
POINT
  8
寸法
 62
     0
 10
56.304058
 20
61.056627
  0
TEXT
  7
TextStyle03
  8
寸法
  6
CONTINUOUS
 62
     0
 10
55.975
 20
65.7125
  1
111
 40
3.0
 50
90.0
 72
     5
 11
55.975
 21
70.5875
  0
ENDBLK
  0
BLOCK
  2
*DIM_0010
 70
    65
 10
0.0
 20
0.0
  0
LINE
  8
寸法
  6
BYBLOCK
 62
     0
 10
46.579775
 20
-1.910042
 11
56.304058
 21
-1.910045
  0
LINE
  8
寸法
  6
BYBLOCK
 62
     0
 10
49.209905
 20
1.789957
 11
56.304058
 21
1.789955
  0
LINE
  8
寸法
  6
BYBLOCK
 62
     0
 10
56.304058
 20
-1.910045
 11
56.304058
 21
1.789955
  0
POINT
  8
寸法
 62
     0
 10
56.304058
 20
-1.910045
  0
POINT
  8
寸法
 62
     0
 10
56.304058
 20
1.789955
  0
TEXT
  7
TextStyle03
  8
寸法
  6
CONTINUOUS
 62
     0
 10
55.925
 20
-7.7625
  1
111
 40
3.0
 50
90.0
 72
     5
 11
55.925
 21
-2.8875
  0
ENDBLK
  0
BLOCK
  2
*GRP_0011
 70
    65
 10
0.0
 20
0.0
  0
LINE
  8
別途部材
  6
CONTINUOUS
 62
    96
 10
-122.753557
 20
-79.624597
 11
-123.153557
 21
-80.624597
  0
LINE
  8
別途部材
  6
CONTINUOUS
 62
    96
 10
-122.753557
 20
-79.624597
 11
-37.753557
 21
-79.624597
  0
LINE
  8
別途部材
  6
CONTINUOUS
 10
-123.153557
 20
-80.624597
 11
-37.753557
 21
-80.624597
  0
LINE
  8
別途部材
  6
CONTINUOUS
 10
-38.253557
 20
-79.624597
 11
-38.253557
 21
-61.95793
  0
LINE
  8
別途部材
  6
CONTINUOUS
 10
-41.253557
 20
-79.624597
 11
-41.253557
 21
-61.95793
  0
LINE
  8
別途部材
  6
CONTINUOUS
 10
-38.253557
 20
-61.95793
 11
-39.253557
 21
-62.95793
  0
LINE
  8
別途部材
  6
CONTINUOUS
 10
-42.253557
 20
-79.624597
 11
-42.253557
 21
-61.95793
  0
LINE
  8
別途部材
  6
CONTINUOUS
 10
-40.253557
 20
-62.95793
 11
-41.253557
 21
-61.95793
  0
LINE
  8
別途部材
  6
CONTINUOUS
 10
-42.253557
 20
-61.95793
 11
-43.253557
 21
-62.95793
  0
LINE
  8
別途部材
  6
CONTINUOUS
 10
-41.253557
 20
-61.95793
 11
-42.253557
 21
-61.95793
  0
LINE
  8
別途部材
  6
CONTINUOUS
 10
-38.253557
 20
-61.95793
 11
-37.753557
 21
-61.95793
  0
LINE
  8
別途部材
  6
CONTINUOUS
 10
-44.253557
 20
-62.95793
 11
-45.253557
 21
-61.95793
  0
LINE
  8
別途部材
  6
CONTINUOUS
 10
-46.253557
 20
-61.95793
 11
-47.253557
 21
-62.95793
  0
LINE
  8
別途部材
  6
CONTINUOUS
 10
-45.253557
 20
-61.95793
 11
-46.253557
 21
-61.95793
  0
LINE
  8
別途部材
  6
CONTINUOUS
 10
-40.253557
 20
-79.624597
 11
-40.253557
 21
-62.95793
  0
LINE
  8
別途部材
  6
CONTINUOUS
 10
-43.253557
 20
-79.624597
 11
-43.253557
 21
-62.95793
  0
LINE
  8
別途部材
  6
CONTINUOUS
 10
-44.253557
 20
-79.624597
 11
-44.253557
 21
-62.95793
  0
LINE
  8
別途部材
  6
CONTINUOUS
 10
-45.253557
 20
-79.624597
 11
-45.253557
 21
-61.95793
  0
LINE
  8
別途部材
  6
CONTINUOUS
 10
-46.253557
 20
-79.624597
 11
-46.253557
 21
-61.95793
  0
LINE
  8
別途部材
  6
CONTINUOUS
 10
-47.253557
 20
-79.624597
 11
-47.253557
 21
-62.95793
  0
LINE
  8
別途部材
  6
CONTINUOUS
 10
-48.253557
 20
-62.95793
 11
-49.253557
 21
-61.95793
  0
LINE
  8
別途部材
  6
CONTINUOUS
 10
-50.253557
 20
-61.95793
 11
-51.253557
 21
-62.95793
  0
LINE
  8
別途部材
  6
CONTINUOUS
 10
-49.253557
 20
-61.95793
 11
-50.253557
 21
-61.95793
  0
LINE
  8
別途部材
  6
CONTINUOUS
 10
-48.253557
 20
-79.624597
 11
-48.253557
 21
-62.95793
  0
LINE
  8
別途部材
  6
CONTINUOUS
 10
-49.253557
 20
-79.624597
 11
-49.253557
 21
-61.95793
  0
LINE
  8
別途部材
  6
CONTINUOUS
 10
-50.253557
 20
-79.624597
 11
-50.253557
 21
-61.95793
  0
LINE
  8
別途部材
  6
CONTINUOUS
 10
-51.253557
 20
-79.624597
 11
-51.253557
 21
-62.95793
  0
LINE
  8
別途部材
  6
CONTINUOUS
 10
-53.253557
 20
-79.624597
 11
-53.253557
 21
-61.95793
  0
LINE
  8
別途部材
  6
CONTINUOUS
 10
-54.253557
 20
-79.624597
 11
-54.253557
 21
-61.95793
  0
LINE
  8
別途部材
  6
CONTINUOUS
 10
-52.253557
 20
-62.95793
 11
-53.253557
 21
-61.95793
  0
LINE
  8
別途部材
  6
CONTINUOUS
 10
-54.253557
 20
-61.95793
 11
-55.253557
 21
-62.95793
  0
LINE
  8
別途部材
  6
CONTINUOUS
 10
-53.253557
 20
-61.95793
 11
-54.253557
 21
-61.95793
  0
LINE
  8
別途部材
  6
CONTINUOUS
 10
-56.253557
 20
-62.95793
 11
-57.253557
 21
-61.95793
  0
LINE
  8
別途部材
  6
CONTINUOUS
 10
-58.253557
 20
-61.95793
 11
-59.253557
 21
-62.95793
  0
LINE
  8
別途部材
  6
CONTINUOUS
 10
-57.253557
 20
-61.95793
 11
-58.253557
 21
-61.95793
  0
LINE
  8
別途部材
  6
CONTINUOUS
 10
-52.253557
 20
-79.624597
 11
-52.253557
 21
-62.95793
  0
LINE
  8
別途部材
  6
CONTINUOUS
 10
-55.253557
 20
-79.624597
 11
-55.253557
 21
-62.95793
  0
LINE
  8
別途部材
  6
CONTINUOUS
 10
-56.253557
 20
-79.624597
 11
-56.253557
 21
-62.95793
  0
LINE
  8
別途部材
  6
CONTINUOUS
 10
-57.253557
 20
-79.624597
 11
-57.253557
 21
-61.95793
  0
LINE
  8
別途部材
  6
CONTINUOUS
 10
-58.253557
 20
-79.624597
 11
-58.253557
 21
-61.95793
  0
LINE
  8
別途部材
  6
CONTINUOUS
 10
-59.253557
 20
-79.624597
 11
-59.253557
 21
-62.95793
  0
LINE
  8
別途部材
  6
CONTINUOUS
 10
-60.253557
 20
-62.95793
 11
-61.253557
 21
-61.95793
  0
LINE
  8
別途部材
  6
CONTINUOUS
 10
-62.253557
 20
-61.95793
 11
-63.253557
 21
-62.95793
  0
LINE
  8
別途部材
  6
CONTINUOUS
 10
-61.253557
 20
-61.95793
 11
-62.253557
 21
-61.95793
  0
LINE
  8
別途部材
  6
CONTINUOUS
 10
-60.253557
 20
-79.624597
 11
-60.253557
 21
-62.95793
  0
LINE
  8
別途部材
  6
CONTINUOUS
 10
-61.253557
 20
-79.624597
 11
-61.253557
 21
-61.95793
  0
LINE
  8
別途部材
  6
CONTINUOUS
 10
-62.253557
 20
-79.624597
 11
-62.253557
 21
-61.95793
  0
LINE
  8
別途部材
  6
CONTINUOUS
 10
-63.253557
 20
-79.624597
 11
-63.253557
 21
-62.95793
  0
LINE
  8
別途部材
  6
CONTINUOUS
 10
-65.253557
 20
-79.624597
 11
-65.253557
 21
-61.95793
  0
LINE
  8
別途部材
  6
CONTINUOUS
 10
-66.253557
 20
-79.624597
 11
-66.253557
 21
-61.95793
  0
LINE
  8
別途部材
  6
CONTINUOUS
 10
-64.253557
 20
-62.95793
 11
-65.253557
 21
-61.95793
  0
LINE
  8
別途部材
  6
CONTINUOUS
 10
-66.253557
 20
-61.95793
 11
-67.253557
 21
-62.95793
  0
LINE
  8
別途部材
  6
CONTINUOUS
 10
-65.253557
 20
-61.95793
 11
-66.253557
 21
-61.95793
  0
LINE
  8
別途部材
  6
CONTINUOUS
 10
-68.253557
 20
-62.95793
 11
-69.253557
 21
-61.95793
  0
LINE
  8
別途部材
  6
CONTINUOUS
 10
-70.253557
 20
-61.95793
 11
-71.253557
 21
-62.95793
  0
LINE
  8
別途部材
  6
CONTINUOUS
 10
-69.253557
 20
-61.95793
 11
-70.253557
 21
-61.95793
  0
LINE
  8
別途部材
  6
CONTINUOUS
 10
-64.253557
 20
-79.624597
 11
-64.253557
 21
-62.95793
  0
LINE
  8
別途部材
  6
CONTINUOUS
 10
-67.253557
 20
-79.624597
 11
-67.253557
 21
-62.95793
  0
LINE
  8
別途部材
  6
CONTINUOUS
 10
-68.253557
 20
-79.624597
 11
-68.253557
 21
-62.95793
  0
LINE
  8
別途部材
  6
CONTINUOUS
 10
-69.253557
 20
-79.624597
 11
-69.253557
 21
-61.95793
  0
LINE
  8
別途部材
  6
CONTINUOUS
 10
-70.253557
 20
-79.624597
 11
-70.253557
 21
-61.95793
  0
LINE
  8
別途部材
  6
CONTINUOUS
 10
-71.253557
 20
-79.624597
 11
-71.253557
 21
-62.95793
  0
LINE
  8
別途部材
  6
CONTINUOUS
 10
-72.253557
 20
-62.95793
 11
-73.253557
 21
-61.95793
  0
LINE
  8
別途部材
  6
CONTINUOUS
 10
-74.253557
 20
-61.95793
 11
-75.253557
 21
-62.95793
  0
LINE
  8
別途部材
  6
CONTINUOUS
 10
-73.253557
 20
-61.95793
 11
-74.253557
 21
-61.95793
  0
LINE
  8
別途部材
  6
CONTINUOUS
 10
-72.253557
 20
-79.624597
 11
-72.253557
 21
-62.95793
  0
LINE
  8
別途部材
  6
CONTINUOUS
 10
-73.253557
 20
-79.624597
 11
-73.253557
 21
-61.95793
  0
LINE
  8
別途部材
  6
CONTINUOUS
 10
-74.253557
 20
-79.624597
 11
-74.253557
 21
-61.95793
  0
LINE
  8
別途部材
  6
CONTINUOUS
 10
-75.253557
 20
-79.624597
 11
-75.253557
 21
-62.95793
  0
LINE
  8
別途部材
  6
CONTINUOUS
 10
-77.253557
 20
-79.624597
 11
-77.253557
 21
-61.95793
  0
LINE
  8
別途部材
  6
CONTINUOUS
 10
-78.253557
 20
-79.624597
 11
-78.253557
 21
-61.95793
  0
LINE
  8
別途部材
  6
CONTINUOUS
 10
-76.253557
 20
-62.95793
 11
-77.253557
 21
-61.95793
  0
LINE
  8
別途部材
  6
CONTINUOUS
 10
-78.253557
 20
-61.95793
 11
-79.253557
 21
-62.95793
  0
LINE
  8
別途部材
  6
CONTINUOUS
 10
-77.253557
 20
-61.95793
 11
-78.253557
 21
-61.95793
  0
LINE
  8
別途部材
  6
CONTINUOUS
 10
-80.253557
 20
-62.95793
 11
-81.253557
 21
-61.95793
  0
LINE
  8
別途部材
  6
CONTINUOUS
 10
-82.253557
 20
-61.95793
 11
-83.253557
 21
-62.95793
  0
LINE
  8
別途部材
  6
CONTINUOUS
 10
-81.253557
 20
-61.95793
 11
-82.253557
 21
-61.95793
  0
LINE
  8
別途部材
  6
CONTINUOUS
 10
-76.253557
 20
-79.624597
 11
-76.253557
 21
-62.95793
  0
LINE
  8
別途部材
  6
CONTINUOUS
 10
-79.253557
 20
-79.624597
 11
-79.253557
 21
-62.95793
  0
LINE
  8
別途部材
  6
CONTINUOUS
 10
-80.253557
 20
-79.624597
 11
-80.253557
 21
-62.95793
  0
LINE
  8
別途部材
  6
CONTINUOUS
 10
-81.253557
 20
-79.624597
 11
-81.253557
 21
-61.95793
  0
LINE
  8
別途部材
  6
CONTINUOUS
 10
-82.253557
 20
-79.624597
 11
-82.253557
 21
-61.95793
  0
LINE
  8
別途部材
  6
CONTINUOUS
 10
-83.253557
 20
-79.624597
 11
-83.253557
 21
-62.95793
  0
LINE
  8
別途部材
  6
CONTINUOUS
 10
-84.253557
 20
-62.95793
 11
-85.253557
 21
-61.95793
  0
LINE
  8
別途部材
  6
CONTINUOUS
 10
-86.253557
 20
-61.95793
 11
-87.253557
 21
-62.95793
  0
LINE
  8
別途部材
  6
CONTINUOUS
 10
-85.253557
 20
-61.95793
 11
-86.253557
 21
-61.95793
  0
LINE
  8
別途部材
  6
CONTINUOUS
 10
-84.253557
 20
-79.624597
 11
-84.253557
 21
-62.95793
  0
LINE
  8
別途部材
  6
CONTINUOUS
 10
-85.253557
 20
-79.624597
 11
-85.253557
 21
-61.95793
  0
LINE
  8
別途部材
  6
CONTINUOUS
 10
-86.253557
 20
-79.624597
 11
-86.253557
 21
-61.95793
  0
LINE
  8
別途部材
  6
CONTINUOUS
 10
-87.253557
 20
-79.624597
 11
-87.253557
 21
-62.95793
  0
LINE
  8
別途部材
  6
CONTINUOUS
 10
-83.253557
 20
-62.95793
 11
-84.253557
 21
-62.95793
  0
LINE
  8
別途部材
  6
CONTINUOUS
 10
-79.253557
 20
-62.95793
 11
-80.253557
 21
-62.95793
  0
LINE
  8
別途部材
  6
CONTINUOUS
 10
-75.253557
 20
-62.95793
 11
-76.253557
 21
-62.95793
  0
LINE
  8
別途部材
  6
CONTINUOUS
 10
-71.253557
 20
-62.95793
 11
-72.253557
 21
-62.95793
  0
LINE
  8
別途部材
  6
CONTINUOUS
 10
-67.253557
 20
-62.95793
 11
-68.253557
 21
-62.95793
  0
LINE
  8
別途部材
  6
CONTINUOUS
 10
-63.253557
 20
-62.95793
 11
-64.253557
 21
-62.95793
  0
LINE
  8
別途部材
  6
CONTINUOUS
 10
-59.253557
 20
-62.95793
 11
-60.253557
 21
-62.95793
  0
LINE
  8
別途部材
  6
CONTINUOUS
 10
-55.253557
 20
-62.95793
 11
-56.253557
 21
-62.95793
  0
LINE
  8
別途部材
  6
CONTINUOUS
 10
-51.253557
 20
-62.95793
 11
-52.253557
 21
-62.95793
  0
LINE
  8
別途部材
  6
CONTINUOUS
 10
-47.253557
 20
-62.95793
 11
-48.253557
 21
-62.95793
  0
LINE
  8
別途部材
  6
CONTINUOUS
 10
-43.253557
 20
-62.95793
 11
-44.253557
 21
-62.95793
  0
LINE
  8
別途部材
  6
CONTINUOUS
 10
-39.253557
 20
-79.624597
 11
-39.253557
 21
-62.95793
  0
LINE
  8
別途部材
  6
CONTINUOUS
 10
-40.253557
 20
-62.95793
 11
-39.253557
 21
-62.95793
  0
ARC
  8
別途部材
  6
CONTINUOUS
 10
-104.420224
 20
-79.624597
 40
16.666667
 50
90.0
 51
180.0
  0
LINE
  8
別途部材
  6
CONTINUOUS
 10
-88.253557
 20
-62.95793
 11
-89.253557
 21
-61.95793
  0
LINE
  8
別途部材
  6
CONTINUOUS
 10
-90.253557
 20
-61.95793
 11
-91.253557
 21
-62.95793
  0
LINE
  8
別途部材
  6
CONTINUOUS
 10
-89.253557
 20
-61.95793
 11
-90.253557
 21
-61.95793
  0
LINE
  8
別途部材
  6
CONTINUOUS
 10
-88.253557
 20
-79.624597
 11
-88.253557
 21
-62.95793
  0
LINE
  8
別途部材
  6
CONTINUOUS
 10
-89.253557
 20
-79.624597
 11
-89.253557
 21
-61.95793
  0
LINE
  8
別途部材
  6
CONTINUOUS
 10
-90.253557
 20
-79.624597
 11
-90.253557
 21
-61.95793
  0
LINE
  8
別途部材
  6
CONTINUOUS
 10
-91.253557
 20
-79.624597
 11
-91.253557
 21
-62.95793
  0
LINE
  8
別途部材
  6
CONTINUOUS
 10
-93.253557
 20
-79.624597
 11
-93.253557
 21
-61.95793
  0
LINE
  8
別途部材
  6
CONTINUOUS
 10
-94.253557
 20
-79.624597
 11
-94.253557
 21
-61.95793
  0
LINE
  8
別途部材
  6
CONTINUOUS
 10
-92.253557
 20
-62.95793
 11
-93.253557
 21
-61.95793
  0
LINE
  8
別途部材
  6
CONTINUOUS
 10
-94.253557
 20
-61.95793
 11
-95.253557
 21
-62.95793
  0
LINE
  8
別途部材
  6
CONTINUOUS
 10
-93.253557
 20
-61.95793
 11
-94.253557
 21
-61.95793
  0
LINE
  8
別途部材
  6
CONTINUOUS
 10
-96.253557
 20
-62.95793
 11
-97.253557
 21
-61.95793
  0
LINE
  8
別途部材
  6
CONTINUOUS
 10
-98.253557
 20
-61.95793
 11
-99.253557
 21
-62.95793
  0
LINE
  8
別途部材
  6
CONTINUOUS
 10
-97.253557
 20
-61.95793
 11
-98.253557
 21
-61.95793
  0
LINE
  8
別途部材
  6
CONTINUOUS
 10
-92.253557
 20
-79.624597
 11
-92.253557
 21
-62.95793
  0
LINE
  8
別途部材
  6
CONTINUOUS
 10
-95.253557
 20
-79.624597
 11
-95.253557
 21
-62.95793
  0
LINE
  8
別途部材
  6
CONTINUOUS
 10
-96.253557
 20
-79.624597
 11
-96.253557
 21
-62.95793
  0
LINE
  8
別途部材
  6
CONTINUOUS
 10
-97.253557
 20
-79.624597
 11
-97.253557
 21
-61.95793
  0
LINE
  8
別途部材
  6
CONTINUOUS
 10
-98.253557
 20
-79.624597
 11
-98.253557
 21
-61.95793
  0
LINE
  8
別途部材
  6
CONTINUOUS
 10
-99.253557
 20
-79.624597
 11
-99.253557
 21
-62.95793
  0
LINE
  8
別途部材
  6
CONTINUOUS
 10
-100.253557
 20
-62.95793
 11
-101.253557
 21
-61.95793
  0
LINE
  8
別途部材
  6
CONTINUOUS
 10
-102.253557
 20
-61.95793
 11
-103.253557
 21
-62.95793
  0
LINE
  8
別途部材
  6
CONTINUOUS
 10
-101.253557
 20
-61.95793
 11
-102.253557
 21
-61.95793
  0
LINE
  8
別途部材
  6
CONTINUOUS
 10
-100.253557
 20
-79.624597
 11
-100.253557
 21
-62.95793
  0
LINE
  8
別途部材
  6
CONTINUOUS
 10
-101.253557
 20
-79.624597
 11
-101.253557
 21
-61.95793
  0
LINE
  8
別途部材
  6
CONTINUOUS
 10
-102.253557
 20
-79.624597
 11
-102.253557
 21
-61.95793
  0
LINE
  8
別途部材
  6
CONTINUOUS
 10
-103.253557
 20
-79.624597
 11
-103.253557
 21
-62.95793
  0
LINE
  8
別途部材
  6
CONTINUOUS
 10
-99.253557
 20
-62.95793
 11
-100.253557
 21
-62.95793
  0
LINE
  8
別途部材
  6
CONTINUOUS
 10
-95.253557
 20
-62.95793
 11
-96.253557
 21
-62.95793
  0
LINE
  8
別途部材
  6
CONTINUOUS
 10
-91.253557
 20
-62.95793
 11
-92.253557
 21
-62.95793
  0
LINE
  8
別途部材
  6
CONTINUOUS
 10
-87.253557
 20
-62.95793
 11
-88.253557
 21
-62.95793
  0
LINE
  8
別途部材
  6
CONTINUOUS
 10
-104.420225
 20
-62.95793
 11
-103.253557
 21
-62.95793
  0
LINE
  8
別途部材
  6
CONTINUOUS
 62
    96
 10
47.246443
 20
-79.624597
 11
47.646443
 21
-80.624597
  0
LINE
  8
別途部材
  6
CONTINUOUS
 62
    96
 10
47.246443
 20
-79.624597
 11
-37.753557
 21
-79.624597
  0
LINE
  8
別途部材
  6
CONTINUOUS
 10
47.646443
 20
-80.624597
 11
-37.753557
 21
-80.624597
  0
LINE
  8
別途部材
  6
CONTINUOUS
 10
-37.253557
 20
-79.624597
 11
-37.253557
 21
-61.95793
  0
LINE
  8
別途部材
  6
CONTINUOUS
 10
-34.253557
 20
-79.624597
 11
-34.253557
 21
-61.95793
  0
LINE
  8
別途部材
  6
CONTINUOUS
 10
-37.253557
 20
-61.95793
 11
-36.253557
 21
-62.95793
  0
LINE
  8
別途部材
  6
CONTINUOUS
 10
-33.253557
 20
-79.624597
 11
-33.253557
 21
-61.95793
  0
LINE
  8
別途部材
  6
CONTINUOUS
 10
-35.253557
 20
-62.95793
 11
-34.253557
 21
-61.95793
  0
LINE
  8
別途部材
  6
CONTINUOUS
 10
-33.253557
 20
-61.95793
 11
-32.253557
 21
-62.95793
  0
LINE
  8
別途部材
  6
CONTINUOUS
 10
-34.253557
 20
-61.95793
 11
-33.253557
 21
-61.95793
  0
LINE
  8
別途部材
  6
CONTINUOUS
 10
-37.253557
 20
-61.95793
 11
-37.753557
 21
-61.95793
  0
LINE
  8
別途部材
  6
CONTINUOUS
 10
-31.253557
 20
-62.95793
 11
-30.253557
 21
-61.95793
  0
LINE
  8
別途部材
  6
CONTINUOUS
 10
-29.253557
 20
-61.95793
 11
-28.253557
 21
-62.95793
  0
LINE
  8
別途部材
  6
CONTINUOUS
 10
-30.253557
 20
-61.95793
 11
-29.253557
 21
-61.95793
  0
LINE
  8
別途部材
  6
CONTINUOUS
 10
-35.253557
 20
-79.624597
 11
-35.253557
 21
-62.95793
  0
LINE
  8
別途部材
  6
CONTINUOUS
 10
-32.253557
 20
-79.624597
 11
-32.253557
 21
-62.95793
  0
LINE
  8
別途部材
  6
CONTINUOUS
 10
-31.253557
 20
-79.624597
 11
-31.253557
 21
-62.95793
  0
LINE
  8
別途部材
  6
CONTINUOUS
 10
-30.253557
 20
-79.624597
 11
-30.253557
 21
-61.95793
  0
LINE
  8
別途部材
  6
CONTINUOUS
 10
-29.253557
 20
-79.624597
 11
-29.253557
 21
-61.95793
  0
LINE
  8
別途部材
  6
CONTINUOUS
 10
-28.253557
 20
-79.624597
 11
-28.253557
 21
-62.95793
  0
LINE
  8
別途部材
  6
CONTINUOUS
 10
-27.253557
 20
-62.95793
 11
-26.253557
 21
-61.95793
  0
LINE
  8
別途部材
  6
CONTINUOUS
 10
-25.253557
 20
-61.95793
 11
-24.253557
 21
-62.95793
  0
LINE
  8
別途部材
  6
CONTINUOUS
 10
-26.253557
 20
-61.95793
 11
-25.253557
 21
-61.95793
  0
LINE
  8
別途部材
  6
CONTINUOUS
 10
-27.253557
 20
-79.624597
 11
-27.253557
 21
-62.95793
  0
LINE
  8
別途部材
  6
CONTINUOUS
 10
-26.253557
 20
-79.624597
 11
-26.253557
 21
-61.95793
  0
LINE
  8
別途部材
  6
CONTINUOUS
 10
-25.253557
 20
-79.624597
 11
-25.253557
 21
-61.95793
  0
LINE
  8
別途部材
  6
CONTINUOUS
 10
-24.253557
 20
-79.624597
 11
-24.253557
 21
-62.95793
  0
LINE
  8
別途部材
  6
CONTINUOUS
 10
-22.253557
 20
-79.624597
 11
-22.253557
 21
-61.95793
  0
LINE
  8
別途部材
  6
CONTINUOUS
 10
-21.253557
 20
-79.624597
 11
-21.253557
 21
-61.95793
  0
LINE
  8
別途部材
  6
CONTINUOUS
 10
-23.253557
 20
-62.95793
 11
-22.253557
 21
-61.95793
  0
LINE
  8
別途部材
  6
CONTINUOUS
 10
-21.253557
 20
-61.95793
 11
-20.253557
 21
-62.95793
  0
LINE
  8
別途部材
  6
CONTINUOUS
 10
-22.253557
 20
-61.95793
 11
-21.253557
 21
-61.95793
  0
LINE
  8
別途部材
  6
CONTINUOUS
 10
-19.253557
 20
-62.95793
 11
-18.253557
 21
-61.95793
  0
LINE
  8
別途部材
  6
CONTINUOUS
 10
-17.253557
 20
-61.95793
 11
-16.253557
 21
-62.95793
  0
LINE
  8
別途部材
  6
CONTINUOUS
 10
-18.253557
 20
-61.95793
 11
-17.253557
 21
-61.95793
  0
LINE
  8
別途部材
  6
CONTINUOUS
 10
-23.253557
 20
-79.624597
 11
-23.253557
 21
-62.95793
  0
LINE
  8
別途部材
  6
CONTINUOUS
 10
-20.253557
 20
-79.624597
 11
-20.253557
 21
-62.95793
  0
LINE
  8
別途部材
  6
CONTINUOUS
 10
-19.253557
 20
-79.624597
 11
-19.253557
 21
-62.95793
  0
LINE
  8
別途部材
  6
CONTINUOUS
 10
-18.253557
 20
-79.624597
 11
-18.253557
 21
-61.95793
  0
LINE
  8
別途部材
  6
CONTINUOUS
 10
-17.253557
 20
-79.624597
 11
-17.253557
 21
-61.95793
  0
LINE
  8
別途部材
  6
CONTINUOUS
 10
-16.253557
 20
-79.624597
 11
-16.253557
 21
-62.95793
  0
LINE
  8
別途部材
  6
CONTINUOUS
 10
-15.253557
 20
-62.95793
 11
-14.253557
 21
-61.95793
  0
LINE
  8
別途部材
  6
CONTINUOUS
 10
-13.253557
 20
-61.95793
 11
-12.253557
 21
-62.95793
  0
LINE
  8
別途部材
  6
CONTINUOUS
 10
-14.253557
 20
-61.95793
 11
-13.253557
 21
-61.95793
  0
LINE
  8
別途部材
  6
CONTINUOUS
 10
-15.253557
 20
-79.624597
 11
-15.253557
 21
-62.95793
  0
LINE
  8
別途部材
  6
CONTINUOUS
 10
-14.253557
 20
-79.624597
 11
-14.253557
 21
-61.95793
  0
LINE
  8
別途部材
  6
CONTINUOUS
 10
-13.253557
 20
-79.624597
 11
-13.253557
 21
-61.95793
  0
LINE
  8
別途部材
  6
CONTINUOUS
 10
-12.253557
 20
-79.624597
 11
-12.253557
 21
-62.95793
  0
LINE
  8
別途部材
  6
CONTINUOUS
 10
-10.253557
 20
-79.624597
 11
-10.253557
 21
-61.95793
  0
LINE
  8
別途部材
  6
CONTINUOUS
 10
-9.253557
 20
-79.624597
 11
-9.253557
 21
-61.95793
  0
LINE
  8
別途部材
  6
CONTINUOUS
 10
-11.253557
 20
-62.95793
 11
-10.253557
 21
-61.95793
  0
LINE
  8
別途部材
  6
CONTINUOUS
 10
-9.253557
 20
-61.95793
 11
-8.253557
 21
-62.95793
  0
LINE
  8
別途部材
  6
CONTINUOUS
 10
-10.253557
 20
-61.95793
 11
-9.253557
 21
-61.95793
  0
LINE
  8
別途部材
  6
CONTINUOUS
 10
-7.253557
 20
-62.95793
 11
-6.253557
 21
-61.95793
  0
LINE
  8
別途部材
  6
CONTINUOUS
 10
-5.253557
 20
-61.95793
 11
-4.253557
 21
-62.95793
  0
LINE
  8
別途部材
  6
CONTINUOUS
 10
-6.253557
 20
-61.95793
 11
-5.253557
 21
-61.95793
  0
LINE
  8
別途部材
  6
CONTINUOUS
 10
-11.253557
 20
-79.624597
 11
-11.253557
 21
-62.95793
  0
LINE
  8
別途部材
  6
CONTINUOUS
 10
-8.253557
 20
-79.624597
 11
-8.253557
 21
-62.95793
  0
LINE
  8
別途部材
  6
CONTINUOUS
 10
-7.253557
 20
-79.624597
 11
-7.253557
 21
-62.95793
  0
LINE
  8
別途部材
  6
CONTINUOUS
 10
-6.253557
 20
-79.624597
 11
-6.253557
 21
-61.95793
  0
LINE
  8
別途部材
  6
CONTINUOUS
 10
-5.253557
 20
-79.624597
 11
-5.253557
 21
-61.95793
  0
LINE
  8
別途部材
  6
CONTINUOUS
 10
-4.253557
 20
-79.624597
 11
-4.253557
 21
-62.95793
  0
LINE
  8
別途部材
  6
CONTINUOUS
 10
-3.253557
 20
-62.95793
 11
-2.253557
 21
-61.95793
  0
LINE
  8
別途部材
  6
CONTINUOUS
 10
-1.253557
 20
-61.95793
 11
-0.253557
 21
-62.95793
  0
LINE
  8
別途部材
  6
CONTINUOUS
 10
-2.253557
 20
-61.95793
 11
-1.253557
 21
-61.95793
  0
LINE
  8
別途部材
  6
CONTINUOUS
 10
-3.253557
 20
-79.624597
 11
-3.253557
 21
-62.95793
  0
LINE
  8
別途部材
  6
CONTINUOUS
 10
-2.253557
 20
-79.624597
 11
-2.253557
 21
-61.95793
  0
LINE
  8
別途部材
  6
CONTINUOUS
 10
-1.253557
 20
-79.624597
 11
-1.253557
 21
-61.95793
  0
LINE
  8
別途部材
  6
CONTINUOUS
 10
-0.253557
 20
-79.624597
 11
-0.253557
 21
-62.95793
  0
LINE
  8
別途部材
  6
CONTINUOUS
 10
1.746443
 20
-79.624597
 11
1.746443
 21
-61.95793
  0
LINE
  8
別途部材
  6
CONTINUOUS
 10
2.746443
 20
-79.624597
 11
2.746443
 21
-61.95793
  0
LINE
  8
別途部材
  6
CONTINUOUS
 10
0.746443
 20
-62.95793
 11
1.746443
 21
-61.95793
  0
LINE
  8
別途部材
  6
CONTINUOUS
 10
2.746443
 20
-61.95793
 11
3.746443
 21
-62.95793
  0
LINE
  8
別途部材
  6
CONTINUOUS
 10
1.746443
 20
-61.95793
 11
2.746443
 21
-61.95793
  0
LINE
  8
別途部材
  6
CONTINUOUS
 10
4.746443
 20
-62.95793
 11
5.746443
 21
-61.95793
  0
LINE
  8
別途部材
  6
CONTINUOUS
 10
6.746443
 20
-61.95793
 11
7.746443
 21
-62.95793
  0
LINE
  8
別途部材
  6
CONTINUOUS
 10
5.746443
 20
-61.95793
 11
6.746443
 21
-61.95793
  0
LINE
  8
別途部材
  6
CONTINUOUS
 10
0.746443
 20
-79.624597
 11
0.746443
 21
-62.95793
  0
LINE
  8
別途部材
  6
CONTINUOUS
 10
3.746443
 20
-79.624597
 11
3.746443
 21
-62.95793
  0
LINE
  8
別途部材
  6
CONTINUOUS
 10
4.746443
 20
-79.624597
 11
4.746443
 21
-62.95793
  0
LINE
  8
別途部材
  6
CONTINUOUS
 10
5.746443
 20
-79.624597
 11
5.746443
 21
-61.95793
  0
LINE
  8
別途部材
  6
CONTINUOUS
 10
6.746443
 20
-79.624597
 11
6.746443
 21
-61.95793
  0
LINE
  8
別途部材
  6
CONTINUOUS
 10
7.746443
 20
-79.624597
 11
7.746443
 21
-62.95793
  0
LINE
  8
別途部材
  6
CONTINUOUS
 10
8.746443
 20
-62.95793
 11
9.746443
 21
-61.95793
  0
LINE
  8
別途部材
  6
CONTINUOUS
 10
10.746443
 20
-61.95793
 11
11.746443
 21
-62.95793
  0
LINE
  8
別途部材
  6
CONTINUOUS
 10
9.746443
 20
-61.95793
 11
10.746443
 21
-61.95793
  0
LINE
  8
別途部材
  6
CONTINUOUS
 10
8.746443
 20
-79.624597
 11
8.746443
 21
-62.95793
  0
LINE
  8
別途部材
  6
CONTINUOUS
 10
9.746443
 20
-79.624597
 11
9.746443
 21
-61.95793
  0
LINE
  8
別途部材
  6
CONTINUOUS
 10
10.746443
 20
-79.624597
 11
10.746443
 21
-61.95793
  0
LINE
  8
別途部材
  6
CONTINUOUS
 10
11.746443
 20
-79.624597
 11
11.746443
 21
-62.95793
  0
LINE
  8
別途部材
  6
CONTINUOUS
 10
7.746443
 20
-62.95793
 11
8.746443
 21
-62.95793
  0
LINE
  8
別途部材
  6
CONTINUOUS
 10
3.746443
 20
-62.95793
 11
4.746443
 21
-62.95793
  0
LINE
  8
別途部材
  6
CONTINUOUS
 10
-0.253557
 20
-62.95793
 11
0.746443
 21
-62.95793
  0
LINE
  8
別途部材
  6
CONTINUOUS
 10
-4.253557
 20
-62.95793
 11
-3.253557
 21
-62.95793
  0
LINE
  8
別途部材
  6
CONTINUOUS
 10
-8.253557
 20
-62.95793
 11
-7.253557
 21
-62.95793
  0
LINE
  8
別途部材
  6
CONTINUOUS
 10
-12.253557
 20
-62.95793
 11
-11.253557
 21
-62.95793
  0
LINE
  8
別途部材
  6
CONTINUOUS
 10
-16.253557
 20
-62.95793
 11
-15.253557
 21
-62.95793
  0
LINE
  8
別途部材
  6
CONTINUOUS
 10
-20.253557
 20
-62.95793
 11
-19.253557
 21
-62.95793
  0
LINE
  8
別途部材
  6
CONTINUOUS
 10
-24.253557
 20
-62.95793
 11
-23.253557
 21
-62.95793
  0
LINE
  8
別途部材
  6
CONTINUOUS
 10
-28.253557
 20
-62.95793
 11
-27.253557
 21
-62.95793
  0
LINE
  8
別途部材
  6
CONTINUOUS
 10
-32.253557
 20
-62.95793
 11
-31.253557
 21
-62.95793
  0
LINE
  8
別途部材
  6
CONTINUOUS
 10
-36.253557
 20
-79.624597
 11
-36.253557
 21
-62.95793
  0
LINE
  8
別途部材
  6
CONTINUOUS
 10
-35.253557
 20
-62.95793
 11
-36.253557
 21
-62.95793
  0
ARC
  8
別途部材
  6
CONTINUOUS
 10
28.913109
 20
-79.624597
 40
16.666667
 50
0.0
 51
90.0
  0
LINE
  8
別途部材
  6
CONTINUOUS
 10
12.746443
 20
-62.95793
 11
13.746443
 21
-61.95793
  0
LINE
  8
別途部材
  6
CONTINUOUS
 10
14.746443
 20
-61.95793
 11
15.746443
 21
-62.95793
  0
LINE
  8
別途部材
  6
CONTINUOUS
 10
13.746443
 20
-61.95793
 11
14.746443
 21
-61.95793
  0
LINE
  8
別途部材
  6
CONTINUOUS
 10
12.746443
 20
-79.624597
 11
12.746443
 21
-62.95793
  0
LINE
  8
別途部材
  6
CONTINUOUS
 10
13.746443
 20
-79.624597
 11
13.746443
 21
-61.95793
  0
LINE
  8
別途部材
  6
CONTINUOUS
 10
14.746443
 20
-79.624597
 11
14.746443
 21
-61.95793
  0
LINE
  8
別途部材
  6
CONTINUOUS
 10
15.746443
 20
-79.624597
 11
15.746443
 21
-62.95793
  0
LINE
  8
別途部材
  6
CONTINUOUS
 10
17.746443
 20
-79.624597
 11
17.746443
 21
-61.95793
  0
LINE
  8
別途部材
  6
CONTINUOUS
 10
18.746443
 20
-79.624597
 11
18.746443
 21
-61.95793
  0
LINE
  8
別途部材
  6
CONTINUOUS
 10
16.746443
 20
-62.95793
 11
17.746443
 21
-61.95793
  0
LINE
  8
別途部材
  6
CONTINUOUS
 10
18.746443
 20
-61.95793
 11
19.746443
 21
-62.95793
  0
LINE
  8
別途部材
  6
CONTINUOUS
 10
17.746443
 20
-61.95793
 11
18.746443
 21
-61.95793
  0
LINE
  8
別途部材
  6
CONTINUOUS
 10
20.746443
 20
-62.95793
 11
21.746443
 21
-61.95793
  0
LINE
  8
別途部材
  6
CONTINUOUS
 10
22.746443
 20
-61.95793
 11
23.746443
 21
-62.95793
  0
LINE
  8
別途部材
  6
CONTINUOUS
 10
21.746443
 20
-61.95793
 11
22.746443
 21
-61.95793
  0
LINE
  8
別途部材
  6
CONTINUOUS
 10
16.746443
 20
-79.624597
 11
16.746443
 21
-62.95793
  0
LINE
  8
別途部材
  6
CONTINUOUS
 10
19.746443
 20
-79.624597
 11
19.746443
 21
-62.95793
  0
LINE
  8
別途部材
  6
CONTINUOUS
 10
20.746443
 20
-79.624597
 11
20.746443
 21
-62.95793
  0
LINE
  8
別途部材
  6
CONTINUOUS
 10
21.746443
 20
-79.624597
 11
21.746443
 21
-61.95793
  0
LINE
  8
別途部材
  6
CONTINUOUS
 10
22.746443
 20
-79.624597
 11
22.746443
 21
-61.95793
  0
LINE
  8
別途部材
  6
CONTINUOUS
 10
23.746443
 20
-79.624597
 11
23.746443
 21
-62.95793
  0
LINE
  8
別途部材
  6
CONTINUOUS
 10
24.746443
 20
-62.95793
 11
25.746443
 21
-61.95793
  0
LINE
  8
別途部材
  6
CONTINUOUS
 10
26.746443
 20
-61.95793
 11
27.746443
 21
-62.95793
  0
LINE
  8
別途部材
  6
CONTINUOUS
 10
25.746443
 20
-61.95793
 11
26.746443
 21
-61.95793
  0
LINE
  8
別途部材
  6
CONTINUOUS
 10
24.746443
 20
-79.624597
 11
24.746443
 21
-62.95793
  0
LINE
  8
別途部材
  6
CONTINUOUS
 10
25.746443
 20
-79.624597
 11
25.746443
 21
-61.95793
  0
LINE
  8
別途部材
  6
CONTINUOUS
 10
26.746443
 20
-79.624597
 11
26.746443
 21
-61.95793
  0
LINE
  8
別途部材
  6
CONTINUOUS
 10
27.746443
 20
-79.624597
 11
27.746443
 21
-62.95793
  0
LINE
  8
別途部材
  6
CONTINUOUS
 10
23.746443
 20
-62.95793
 11
24.746443
 21
-62.95793
  0
LINE
  8
別途部材
  6
CONTINUOUS
 10
19.746443
 20
-62.95793
 11
20.746443
 21
-62.95793
  0
LINE
  8
別途部材
  6
CONTINUOUS
 10
15.746443
 20
-62.95793
 11
16.746443
 21
-62.95793
  0
LINE
  8
別途部材
  6
CONTINUOUS
 10
11.746443
 20
-62.95793
 11
12.746443
 21
-62.95793
  0
LINE
  8
別途部材
  6
CONTINUOUS
 10
28.91311
 20
-62.95793
 11
27.746443
 21
-62.95793
  0
ENDBLK
  0
BLOCK
  2
*GRP_0012
 70
    65
 10
0.0
 20
0.0
  0
LINE
  8
補助線
  6
BYBLOCK
 62
    64
 10
-117.701192
 20
-84.519938
 11
-117.805922
 21
-84.649587
  0
LINE
  8
補助線
  6
BYBLOCK
 62
    64
 10
-117.818385
 20
-84.532395
 11
-117.688732
 21
-84.637128
  0
LINE
  8
補助線
  6
BYBLOCK
 62
    64
 10
-107.751638
 20
-72.20325
 11
-107.85637
 21
-72.332895
  0
LINE
  8
補助線
  6
BYBLOCK
 62
    64
 10
-107.86883
 20
-72.215705
 11
-107.73918
 21
-72.320438
  0
LINE
  8
補助線
  6
BYBLOCK
 62
    64
 10
-97.906818
 20
-60.016205
 11
-97.802085
 21
-59.886557
  0
LINE
  8
補助線
  6
BYBLOCK
 62
    64
 10
-97.919278
 20
-59.899013
 11
-97.789625
 21
-60.003745
  0
LINE
  8
型材断面
  6
CONTINUOUS
 10
-118.611268
 20
-84.3204
 11
-118.536515
 21
-85.023545
  0
LINE
  8
型材断面
  6
CONTINUOUS
 10
-118.536515
 20
-85.023545
 11
-118.017918
 21
-85.442472
  0
LINE
  8
型材断面
  6
CONTINUOUS
 10
-118.017918
 20
-85.442472
 11
-117.314772
 21
-85.36772
  0
LINE
  8
型材断面
  6
CONTINUOUS
 10
-98.293232
 20
-59.168422
 11
-97.59009
 21
-59.09367
  0
LINE
  8
型材断面
  6
CONTINUOUS
 10
-97.59009
 20
-59.09367
 11
-97.071493
 21
-59.5126
  0
LINE
  8
型材断面
  6
CONTINUOUS
 10
-97.071493
 20
-59.5126
 11
-96.996738
 21
-60.215745
  0
LINE
  8
型材断面
  6
CONTINUOUS
 10
-118.611268
 20
-84.3204
 11
-98.293232
 21
-59.168422
  0
LINE
  8
型材断面
  6
CONTINUOUS
 10
-117.314772
 20
-85.36772
 11
-96.996738
 21
-60.215745
  0
CIRCLE
  8
ボルト／ビス
  6
CONTINUOUS
 10
-117.753557
 20
-84.584763
 40
0.250185
  0
CIRCLE
  8
ボルト／ビス
  6
CONTINUOUS
 10
-117.753557
 20
-84.584763
 40
0.301025
  0
LINE
  8
ボルト／ビス
  6
CONTINUOUS
 62
    64
 10
-117.98702
 20
-84.6747
 11
-117.948175
 21
-84.427548
  0
LINE
  8
ボルト／ビス
  6
CONTINUOUS
 62
    64
 10
-117.714715
 20
-84.33761
 11
-117.948175
 21
-84.427548
  0
LINE
  8
ボルト／ビス
  6
CONTINUOUS
 62
    64
 10
-117.7924
 20
-84.831915
 11
-117.55894
 21
-84.741978
  0
LINE
  8
ボルト／ビス
  6
CONTINUOUS
 62
    64
 10
-117.520095
 20
-84.494825
 11
-117.55894
 21
-84.741978
  0
LINE
  8
ボルト／ビス
  6
CONTINUOUS
 62
    64
 10
-117.98702
 20
-84.6747
 11
-117.7924
 21
-84.831915
  0
LINE
  8
ボルト／ビス
  6
CONTINUOUS
 62
    64
 10
-117.714715
 20
-84.33761
 11
-117.520095
 21
-84.494825
  0
CIRCLE
  8
ボルト／ビス
  6
CONTINUOUS
 62
    64
 10
-117.753557
 20
-84.584763
 40
0.216668
  0
CIRCLE
  8
ボルト／ビス
  6
CONTINUOUS
 10
-107.804005
 20
-72.26807
 40
0.250185
  0
CIRCLE
  8
ボルト／ビス
  6
CONTINUOUS
 10
-107.804005
 20
-72.26807
 40
0.301025
  0
LINE
  8
ボルト／ビス
  6
CONTINUOUS
 62
    64
 10
-108.037465
 20
-72.35801
 11
-107.998622
 21
-72.110858
  0
LINE
  8
ボルト／ビス
  6
CONTINUOUS
 62
    64
 10
-107.76516
 20
-72.02092
 11
-107.998622
 21
-72.110858
  0
LINE
  8
ボルト／ビス
  6
CONTINUOUS
 62
    64
 10
-107.842847
 20
-72.515222
 11
-107.609385
 21
-72.425285
  0
LINE
  8
ボルト／ビス
  6
CONTINUOUS
 62
    64
 10
-107.570543
 20
-72.178132
 11
-107.609385
 21
-72.425285
  0
LINE
  8
ボルト／ビス
  6
CONTINUOUS
 62
    64
 10
-108.037465
 20
-72.35801
 11
-107.842847
 21
-72.515222
  0
LINE
  8
ボルト／ビス
  6
CONTINUOUS
 62
    64
 10
-107.76516
 20
-72.02092
 11
-107.570543
 21
-72.178132
  0
CIRCLE
  8
ボルト／ビス
  6
CONTINUOUS
 62
    64
 10
-107.804005
 20
-72.26807
 40
0.216668
  0
CIRCLE
  8
ボルト／ビス
  6
CONTINUOUS
 10
-97.85445
 20
-59.95138
 40
0.250185
  0
CIRCLE
  8
ボルト／ビス
  6
CONTINUOUS
 10
-97.85445
 20
-59.95138
 40
0.301025
  0
LINE
  8
ボルト／ビス
  6
CONTINUOUS
 62
    64
 10
-97.815607
 20
-59.704227
 11
-98.049068
 21
-59.794165
  0
LINE
  8
ボルト／ビス
  6
CONTINUOUS
 62
    64
 10
-98.087913
 20
-60.041317
 11
-98.049068
 21
-59.794165
  0
LINE
  8
ボルト／ビス
  6
CONTINUOUS
 62
    64
 10
-97.620987
 20
-59.861442
 11
-97.659832
 21
-60.108595
  0
LINE
  8
ボルト／ビス
  6
CONTINUOUS
 62
    64
 10
-97.893295
 20
-60.198532
 11
-97.659832
 21
-60.108595
  0
LINE
  8
ボルト／ビス
  6
CONTINUOUS
 62
    64
 10
-97.815607
 20
-59.704227
 11
-97.620987
 21
-59.861442
  0
LINE
  8
ボルト／ビス
  6
CONTINUOUS
 62
    64
 10
-98.087913
 20
-60.041317
 11
-97.893295
 21
-60.198532
  0
CIRCLE
  8
ボルト／ビス
  6
CONTINUOUS
 62
    64
 10
-97.85445
 20
-59.95138
 40
0.216668
  0
ENDBLK
  0
BLOCK
  2
*GRP_0013
 70
    65
 10
0.0
 20
0.0
  0
LINE
  8
補助線
  6
BYBLOCK
 62
    64
 10
-97.906812
 20
-84.519938
 11
-97.802082
 21
-84.649587
  0
LINE
  8
補助線
  6
BYBLOCK
 62
    64
 10
-97.78962
 20
-84.532395
 11
-97.919272
 21
-84.637128
  0
LINE
  8
補助線
  6
BYBLOCK
 62
    64
 10
-107.856368
 20
-72.20325
 11
-107.751635
 21
-72.332895
  0
LINE
  8
補助線
  6
BYBLOCK
 62
    64
 10
-107.739175
 20
-72.215705
 11
-107.868825
 21
-72.320438
  0
LINE
  8
補助線
  6
BYBLOCK
 62
    64
 10
-117.701188
 20
-60.016205
 11
-117.80592
 21
-59.886557
  0
LINE
  8
補助線
  6
BYBLOCK
 62
    64
 10
-117.688728
 20
-59.899013
 11
-117.81838
 21
-60.003745
  0
LINE
  8
型材断面
  6
CONTINUOUS
 10
-96.996738
 20
-84.3204
 11
-97.07149
 21
-85.023545
  0
LINE
  8
型材断面
  6
CONTINUOUS
 10
-97.07149
 20
-85.023545
 11
-97.590088
 21
-85.442472
  0
LINE
  8
型材断面
  6
CONTINUOUS
 10
-97.590088
 20
-85.442472
 11
-98.293232
 21
-85.36772
  0
LINE
  8
型材断面
  6
CONTINUOUS
 10
-117.314772
 20
-59.168422
 11
-118.017915
 21
-59.09367
  0
LINE
  8
型材断面
  6
CONTINUOUS
 10
-118.017915
 20
-59.09367
 11
-118.536513
 21
-59.5126
  0
LINE
  8
型材断面
  6
CONTINUOUS
 10
-118.536513
 20
-59.5126
 11
-118.611268
 21
-60.215745
  0
LINE
  8
型材断面
  6
CONTINUOUS
 10
-96.996738
 20
-84.3204
 11
-117.314772
 21
-59.168422
  0
LINE
  8
型材断面
  6
CONTINUOUS
 10
-98.293232
 20
-85.36772
 11
-118.611268
 21
-60.215745
  0
CIRCLE
  8
ボルト／ビス
  6
CONTINUOUS
 10
-97.854447
 20
-84.584763
 40
0.250185
  0
CIRCLE
  8
ボルト／ビス
  6
CONTINUOUS
 10
-97.854447
 20
-84.584763
 40
0.301025
  0
LINE
  8
ボルト／ビス
  6
CONTINUOUS
 62
    64
 10
-97.620985
 20
-84.6747
 11
-97.65983
 21
-84.427548
  0
LINE
  8
ボルト／ビス
  6
CONTINUOUS
 62
    64
 10
-97.89329
 20
-84.33761
 11
-97.65983
 21
-84.427548
  0
LINE
  8
ボルト／ビス
  6
CONTINUOUS
 62
    64
 10
-97.815605
 20
-84.831915
 11
-98.049065
 21
-84.741978
  0
LINE
  8
ボルト／ビス
  6
CONTINUOUS
 62
    64
 10
-98.08791
 20
-84.494825
 11
-98.049065
 21
-84.741978
  0
LINE
  8
ボルト／ビス
  6
CONTINUOUS
 62
    64
 10
-97.620985
 20
-84.6747
 11
-97.815605
 21
-84.831915
  0
LINE
  8
ボルト／ビス
  6
CONTINUOUS
 62
    64
 10
-97.89329
 20
-84.33761
 11
-98.08791
 21
-84.494825
  0
CIRCLE
  8
ボルト／ビス
  6
CONTINUOUS
 62
    64
 10
-97.854447
 20
-84.584763
 40
0.216668
  0
CIRCLE
  8
ボルト／ビス
  6
CONTINUOUS
 10
-107.804
 20
-72.26807
 40
0.250185
  0
CIRCLE
  8
ボルト／ビス
  6
CONTINUOUS
 10
-107.804
 20
-72.26807
 40
0.301025
  0
LINE
  8
ボルト／ビス
  6
CONTINUOUS
 62
    64
 10
-107.57054
 20
-72.35801
 11
-107.609383
 21
-72.110858
  0
LINE
  8
ボルト／ビス
  6
CONTINUOUS
 62
    64
 10
-107.842845
 20
-72.02092
 11
-107.609383
 21
-72.110858
  0
LINE
  8
ボルト／ビス
  6
CONTINUOUS
 62
    64
 10
-107.765157
 20
-72.515222
 11
-107.99862
 21
-72.425285
  0
LINE
  8
ボルト／ビス
  6
CONTINUOUS
 62
    64
 10
-108.037463
 20
-72.178132
 11
-107.99862
 21
-72.425285
  0
LINE
  8
ボルト／ビス
  6
CONTINUOUS
 62
    64
 10
-107.57054
 20
-72.35801
 11
-107.765157
 21
-72.515222
  0
LINE
  8
ボルト／ビス
  6
CONTINUOUS
 62
    64
 10
-107.842845
 20
-72.02092
 11
-108.037463
 21
-72.178132
  0
CIRCLE
  8
ボルト／ビス
  6
CONTINUOUS
 62
    64
 10
-107.804
 20
-72.26807
 40
0.216668
  0
CIRCLE
  8
ボルト／ビス
  6
CONTINUOUS
 10
-117.753555
 20
-59.95138
 40
0.250185
  0
CIRCLE
  8
ボルト／ビス
  6
CONTINUOUS
 10
-117.753555
 20
-59.95138
 40
0.301025
  0
LINE
  8
ボルト／ビス
  6
CONTINUOUS
 62
    64
 10
-117.792397
 20
-59.704227
 11
-117.558937
 21
-59.794165
  0
LINE
  8
ボルト／ビス
  6
CONTINUOUS
 62
    64
 10
-117.520093
 20
-60.041317
 11
-117.558937
 21
-59.794165
  0
LINE
  8
ボルト／ビス
  6
CONTINUOUS
 62
    64
 10
-117.987018
 20
-59.861442
 11
-117.948172
 21
-60.108595
  0
LINE
  8
ボルト／ビス
  6
CONTINUOUS
 62
    64
 10
-117.71471
 20
-60.198532
 11
-117.948172
 21
-60.108595
  0
LINE
  8
ボルト／ビス
  6
CONTINUOUS
 62
    64
 10
-117.792397
 20
-59.704227
 11
-117.987018
 21
-59.861442
  0
LINE
  8
ボルト／ビス
  6
CONTINUOUS
 62
    64
 10
-117.520093
 20
-60.041317
 11
-117.71471
 21
-60.198532
  0
CIRCLE
  8
ボルト／ビス
  6
CONTINUOUS
 62
    64
 10
-117.753555
 20
-59.95138
 40
0.216668
  0
ENDBLK
  0
BLOCK
  2
*GRP_0014
 70
    65
 10
0.0
 20
0.0
  0
LINE
  8
補助線
  6
BYBLOCK
 62
    64
 10
42.194077
 20
-84.519938
 11
42.298807
 21
-84.649587
  0
LINE
  8
補助線
  6
BYBLOCK
 62
    64
 10
42.31127
 20
-84.532395
 11
42.181617
 21
-84.637128
  0
LINE
  8
補助線
  6
BYBLOCK
 62
    64
 10
32.244522
 20
-72.20325
 11
32.349255
 21
-72.332895
  0
LINE
  8
補助線
  6
BYBLOCK
 62
    64
 10
32.361715
 20
-72.215705
 11
32.232065
 21
-72.320438
  0
LINE
  8
補助線
  6
BYBLOCK
 62
    64
 10
22.399703
 20
-60.016205
 11
22.29497
 21
-59.886557
  0
LINE
  8
補助線
  6
BYBLOCK
 62
    64
 10
22.412162
 20
-59.899013
 11
22.28251
 21
-60.003745
  0
LINE
  8
型材断面
  6
CONTINUOUS
 10
43.104153
 20
-84.3204
 11
43.0294
 21
-85.023545
  0
LINE
  8
型材断面
  6
CONTINUOUS
 10
43.0294
 20
-85.023545
 11
42.510802
 21
-85.442472
  0
LINE
  8
型材断面
  6
CONTINUOUS
 10
42.510802
 20
-85.442472
 11
41.807657
 21
-85.36772
  0
LINE
  8
型材断面
  6
CONTINUOUS
 10
22.786118
 20
-59.168422
 11
22.082975
 21
-59.09367
  0
LINE
  8
型材断面
  6
CONTINUOUS
 10
22.082975
 20
-59.09367
 11
21.564378
 21
-59.5126
  0
LINE
  8
型材断面
  6
CONTINUOUS
 10
21.564378
 20
-59.5126
 11
21.489623
 21
-60.215745
  0
LINE
  8
型材断面
  6
CONTINUOUS
 10
43.104153
 20
-84.3204
 11
22.786118
 21
-59.168422
  0
LINE
  8
型材断面
  6
CONTINUOUS
 10
41.807657
 20
-85.36772
 11
21.489623
 21
-60.215745
  0
CIRCLE
  8
ボルト／ビス
  6
CONTINUOUS
 10
42.246443
 20
-84.584763
 40
0.250185
  0
CIRCLE
  8
ボルト／ビス
  6
CONTINUOUS
 10
42.246443
 20
-84.584763
 40
0.301025
  0
LINE
  8
ボルト／ビス
  6
CONTINUOUS
 62
    64
 10
42.479905
 20
-84.6747
 11
42.44106
 21
-84.427548
  0
LINE
  8
ボルト／ビス
  6
CONTINUOUS
 62
    64
 10
42.2076
 20
-84.33761
 11
42.44106
 21
-84.427548
  0
LINE
  8
ボルト／ビス
  6
CONTINUOUS
 62
    64
 10
42.285285
 20
-84.831915
 11
42.051825
 21
-84.741978
  0
LINE
  8
ボルト／ビス
  6
CONTINUOUS
 62
    64
 10
42.01298
 20
-84.494825
 11
42.051825
 21
-84.741978
  0
LINE
  8
ボルト／ビス
  6
CONTINUOUS
 62
    64
 10
42.479905
 20
-84.6747
 11
42.285285
 21
-84.831915
  0
LINE
  8
ボルト／ビス
  6
CONTINUOUS
 62
    64
 10
42.2076
 20
-84.33761
 11
42.01298
 21
-84.494825
  0
CIRCLE
  8
ボルト／ビス
  6
CONTINUOUS
 62
    64
 10
42.246443
 20
-84.584763
 40
0.216668
  0
CIRCLE
  8
ボルト／ビス
  6
CONTINUOUS
 10
32.29689
 20
-72.26807
 40
0.250185
  0
CIRCLE
  8
ボルト／ビス
  6
CONTINUOUS
 10
32.29689
 20
-72.26807
 40
0.301025
  0
LINE
  8
ボルト／ビス
  6
CONTINUOUS
 62
    64
 10
32.53035
 20
-72.35801
 11
32.491508
 21
-72.110858
  0
LINE
  8
ボルト／ビス
  6
CONTINUOUS
 62
    64
 10
32.258045
 20
-72.02092
 11
32.491508
 21
-72.110858
  0
LINE
  8
ボルト／ビス
  6
CONTINUOUS
 62
    64
 10
32.335733
 20
-72.515222
 11
32.10227
 21
-72.425285
  0
LINE
  8
ボルト／ビス
  6
CONTINUOUS
 62
    64
 10
32.063428
 20
-72.178132
 11
32.10227
 21
-72.425285
  0
LINE
  8
ボルト／ビス
  6
CONTINUOUS
 62
    64
 10
32.53035
 20
-72.35801
 11
32.335733
 21
-72.515222
  0
LINE
  8
ボルト／ビス
  6
CONTINUOUS
 62
    64
 10
32.258045
 20
-72.02092
 11
32.063428
 21
-72.178132
  0
CIRCLE
  8
ボルト／ビス
  6
CONTINUOUS
 62
    64
 10
32.29689
 20
-72.26807
 40
0.216668
  0
CIRCLE
  8
ボルト／ビス
  6
CONTINUOUS
 10
22.347335
 20
-59.95138
 40
0.250185
  0
CIRCLE
  8
ボルト／ビス
  6
CONTINUOUS
 10
22.347335
 20
-59.95138
 40
0.301025
  0
LINE
  8
ボルト／ビス
  6
CONTINUOUS
 62
    64
 10
22.308492
 20
-59.704227
 11
22.541952
 21
-59.794165
  0
LINE
  8
ボルト／ビス
  6
CONTINUOUS
 62
    64
 10
22.580797
 20
-60.041317
 11
22.541952
 21
-59.794165
  0
LINE
  8
ボルト／ビス
  6
CONTINUOUS
 62
    64
 10
22.113873
 20
-59.861442
 11
22.152717
 21
-60.108595
  0
LINE
  8
ボルト／ビス
  6
CONTINUOUS
 62
    64
 10
22.38618
 20
-60.198532
 11
22.152717
 21
-60.108595
  0
LINE
  8
ボルト／ビス
  6
CONTINUOUS
 62
    64
 10
22.308492
 20
-59.704227
 11
22.113873
 21
-59.861442
  0
LINE
  8
ボルト／ビス
  6
CONTINUOUS
 62
    64
 10
22.580797
 20
-60.041317
 11
22.38618
 21
-60.198532
  0
CIRCLE
  8
ボルト／ビス
  6
CONTINUOUS
 62
    64
 10
22.347335
 20
-59.95138
 40
0.216668
  0
ENDBLK
  0
BLOCK
  2
*GRP_0015
 70
    65
 10
0.0
 20
0.0
  0
LINE
  8
補助線
  6
BYBLOCK
 62
    64
 10
22.399698
 20
-84.519938
 11
22.294967
 21
-84.649587
  0
LINE
  8
補助線
  6
BYBLOCK
 62
    64
 10
22.282505
 20
-84.532395
 11
22.412157
 21
-84.637128
  0
LINE
  8
補助線
  6
BYBLOCK
 62
    64
 10
32.349252
 20
-72.20325
 11
32.24452
 21
-72.332895
  0
LINE
  8
補助線
  6
BYBLOCK
 62
    64
 10
32.23206
 20
-72.215705
 11
32.36171
 21
-72.320438
  0
LINE
  8
補助線
  6
BYBLOCK
 62
    64
 10
42.194073
 20
-60.016205
 11
42.298805
 21
-59.886557
  0
LINE
  8
補助線
  6
BYBLOCK
 62
    64
 10
42.181612
 20
-59.899013
 11
42.311265
 21
-60.003745
  0
LINE
  8
型材断面
  6
CONTINUOUS
 10
21.489623
 20
-84.3204
 11
21.564375
 21
-85.023545
  0
LINE
  8
型材断面
  6
CONTINUOUS
 10
21.564375
 20
-85.023545
 11
22.082972
 21
-85.442472
  0
LINE
  8
型材断面
  6
CONTINUOUS
 10
22.082972
 20
-85.442472
 11
22.786118
 21
-85.36772
  0
LINE
  8
型材断面
  6
CONTINUOUS
 10
41.807657
 20
-59.168422
 11
42.5108
 21
-59.09367
  0
LINE
  8
型材断面
  6
CONTINUOUS
 10
42.5108
 20
-59.09367
 11
43.029398
 21
-59.5126
  0
LINE
  8
型材断面
  6
CONTINUOUS
 10
43.029398
 20
-59.5126
 11
43.104153
 21
-60.215745
  0
LINE
  8
型材断面
  6
CONTINUOUS
 10
21.489623
 20
-84.3204
 11
41.807657
 21
-59.168422
  0
LINE
  8
型材断面
  6
CONTINUOUS
 10
22.786118
 20
-85.36772
 11
43.104153
 21
-60.215745
  0
CIRCLE
  8
ボルト／ビス
  6
CONTINUOUS
 10
22.347333
 20
-84.584763
 40
0.250185
  0
CIRCLE
  8
ボルト／ビス
  6
CONTINUOUS
 10
22.347333
 20
-84.584763
 40
0.301025
  0
LINE
  8
ボルト／ビス
  6
CONTINUOUS
 62
    64
 10
22.11387
 20
-84.6747
 11
22.152715
 21
-84.427548
  0
LINE
  8
ボルト／ビス
  6
CONTINUOUS
 62
    64
 10
22.386175
 20
-84.33761
 11
22.152715
 21
-84.427548
  0
LINE
  8
ボルト／ビス
  6
CONTINUOUS
 62
    64
 10
22.30849
 20
-84.831915
 11
22.54195
 21
-84.741978
  0
LINE
  8
ボルト／ビス
  6
CONTINUOUS
 62
    64
 10
22.580795
 20
-84.494825
 11
22.54195
 21
-84.741978
  0
LINE
  8
ボルト／ビス
  6
CONTINUOUS
 62
    64
 10
22.11387
 20
-84.6747
 11
22.30849
 21
-84.831915
  0
LINE
  8
ボルト／ビス
  6
CONTINUOUS
 62
    64
 10
22.386175
 20
-84.33761
 11
22.580795
 21
-84.494825
  0
CIRCLE
  8
ボルト／ビス
  6
CONTINUOUS
 62
    64
 10
22.347333
 20
-84.584763
 40
0.216668
  0
CIRCLE
  8
ボルト／ビス
  6
CONTINUOUS
 10
32.296885
 20
-72.26807
 40
0.250185
  0
CIRCLE
  8
ボルト／ビス
  6
CONTINUOUS
 10
32.296885
 20
-72.26807
 40
0.301025
  0
LINE
  8
ボルト／ビス
  6
CONTINUOUS
 62
    64
 10
32.063425
 20
-72.35801
 11
32.102268
 21
-72.110858
  0
LINE
  8
ボルト／ビス
  6
CONTINUOUS
 62
    64
 10
32.33573
 20
-72.02092
 11
32.102268
 21
-72.110858
  0
LINE
  8
ボルト／ビス
  6
CONTINUOUS
 62
    64
 10
32.258043
 20
-72.515222
 11
32.491505
 21
-72.425285
  0
LINE
  8
ボルト／ビス
  6
CONTINUOUS
 62
    64
 10
32.530348
 20
-72.178132
 11
32.491505
 21
-72.425285
  0
LINE
  8
ボルト／ビス
  6
CONTINUOUS
 62
    64
 10
32.063425
 20
-72.35801
 11
32.258043
 21
-72.515222
  0
LINE
  8
ボルト／ビス
  6
CONTINUOUS
 62
    64
 10
32.33573
 20
-72.02092
 11
32.530348
 21
-72.178132
  0
CIRCLE
  8
ボルト／ビス
  6
CONTINUOUS
 62
    64
 10
32.296885
 20
-72.26807
 40
0.216668
  0
CIRCLE
  8
ボルト／ビス
  6
CONTINUOUS
 10
42.24644
 20
-59.95138
 40
0.250185
  0
CIRCLE
  8
ボルト／ビス
  6
CONTINUOUS
 10
42.24644
 20
-59.95138
 40
0.301025
  0
LINE
  8
ボルト／ビス
  6
CONTINUOUS
 62
    64
 10
42.285282
 20
-59.704227
 11
42.051822
 21
-59.794165
  0
LINE
  8
ボルト／ビス
  6
CONTINUOUS
 62
    64
 10
42.012977
 20
-60.041317
 11
42.051822
 21
-59.794165
  0
LINE
  8
ボルト／ビス
  6
CONTINUOUS
 62
    64
 10
42.479903
 20
-59.861442
 11
42.441057
 21
-60.108595
  0
LINE
  8
ボルト／ビス
  6
CONTINUOUS
 62
    64
 10
42.207595
 20
-60.198532
 11
42.441057
 21
-60.108595
  0
LINE
  8
ボルト／ビス
  6
CONTINUOUS
 62
    64
 10
42.285282
 20
-59.704227
 11
42.479903
 21
-59.861442
  0
LINE
  8
ボルト／ビス
  6
CONTINUOUS
 62
    64
 10
42.012977
 20
-60.041317
 11
42.207595
 21
-60.198532
  0
CIRCLE
  8
ボルト／ビス
  6
CONTINUOUS
 62
    64
 10
42.24644
 20
-59.95138
 40
0.216668
  0
ENDBLK
  0
BLOCK
  2
*GRP_0016
 70
    65
 10
0.0
 20
0.0
  0
LINE
  8
補助線
  6
BYBLOCK
 62
    64
 10
-27.856368
 20
-84.519938
 11
-27.751638
 21
-84.649587
  0
LINE
  8
補助線
  6
BYBLOCK
 62
    64
 10
-27.739175
 20
-84.532395
 11
-27.868828
 21
-84.637128
  0
LINE
  8
補助線
  6
BYBLOCK
 62
    64
 10
-37.805922
 20
-72.20325
 11
-37.70119
 21
-72.332895
  0
LINE
  8
補助線
  6
BYBLOCK
 62
    64
 10
-37.68873
 20
-72.215705
 11
-37.81838
 21
-72.320438
  0
LINE
  8
補助線
  6
BYBLOCK
 62
    64
 10
-47.650742
 20
-60.016205
 11
-47.755475
 21
-59.886557
  0
LINE
  8
補助線
  6
BYBLOCK
 62
    64
 10
-47.638282
 20
-59.899013
 11
-47.767935
 21
-60.003745
  0
LINE
  8
型材断面
  6
CONTINUOUS
 10
-26.946292
 20
-84.3204
 11
-27.021045
 21
-85.023545
  0
LINE
  8
型材断面
  6
CONTINUOUS
 10
-27.021045
 20
-85.023545
 11
-27.539642
 21
-85.442472
  0
LINE
  8
型材断面
  6
CONTINUOUS
 10
-27.539642
 20
-85.442472
 11
-28.242788
 21
-85.36772
  0
LINE
  8
型材断面
  6
CONTINUOUS
 10
-47.264328
 20
-59.168422
 11
-47.96747
 21
-59.09367
  0
LINE
  8
型材断面
  6
CONTINUOUS
 10
-47.96747
 20
-59.09367
 11
-48.486067
 21
-59.5126
  0
LINE
  8
型材断面
  6
CONTINUOUS
 10
-48.486067
 20
-59.5126
 11
-48.560822
 21
-60.215745
  0
LINE
  8
型材断面
  6
CONTINUOUS
 10
-26.946292
 20
-84.3204
 11
-47.264328
 21
-59.168422
  0
LINE
  8
型材断面
  6
CONTINUOUS
 10
-28.242788
 20
-85.36772
 11
-48.560822
 21
-60.215745
  0
CIRCLE
  8
ボルト／ビス
  6
CONTINUOUS
 10
-27.804003
 20
-84.584763
 40
0.250185
  0
CIRCLE
  8
ボルト／ビス
  6
CONTINUOUS
 10
-27.804003
 20
-84.584763
 40
0.301025
  0
LINE
  8
ボルト／ビス
  6
CONTINUOUS
 62
    64
 10
-27.57054
 20
-84.6747
 11
-27.609385
 21
-84.427548
  0
LINE
  8
ボルト／ビス
  6
CONTINUOUS
 62
    64
 10
-27.842845
 20
-84.33761
 11
-27.609385
 21
-84.427548
  0
LINE
  8
ボルト／ビス
  6
CONTINUOUS
 62
    64
 10
-27.76516
 20
-84.831915
 11
-27.99862
 21
-84.741978
  0
LINE
  8
ボルト／ビス
  6
CONTINUOUS
 62
    64
 10
-28.037465
 20
-84.494825
 11
-27.99862
 21
-84.741978
  0
LINE
  8
ボルト／ビス
  6
CONTINUOUS
 62
    64
 10
-27.57054
 20
-84.6747
 11
-27.76516
 21
-84.831915
  0
LINE
  8
ボルト／ビス
  6
CONTINUOUS
 62
    64
 10
-27.842845
 20
-84.33761
 11
-28.037465
 21
-84.494825
  0
CIRCLE
  8
ボルト／ビス
  6
CONTINUOUS
 62
    64
 10
-27.804003
 20
-84.584763
 40
0.216668
  0
CIRCLE
  8
ボルト／ビス
  6
CONTINUOUS
 10
-37.753555
 20
-72.26807
 40
0.250185
  0
CIRCLE
  8
ボルト／ビス
  6
CONTINUOUS
 10
-37.753555
 20
-72.26807
 40
0.301025
  0
LINE
  8
ボルト／ビス
  6
CONTINUOUS
 62
    64
 10
-37.520095
 20
-72.35801
 11
-37.558937
 21
-72.110858
  0
LINE
  8
ボルト／ビス
  6
CONTINUOUS
 62
    64
 10
-37.7924
 20
-72.02092
 11
-37.558937
 21
-72.110858
  0
LINE
  8
ボルト／ビス
  6
CONTINUOUS
 62
    64
 10
-37.714713
 20
-72.515222
 11
-37.948175
 21
-72.425285
  0
LINE
  8
ボルト／ビス
  6
CONTINUOUS
 62
    64
 10
-37.987018
 20
-72.178132
 11
-37.948175
 21
-72.425285
  0
LINE
  8
ボルト／ビス
  6
CONTINUOUS
 62
    64
 10
-37.520095
 20
-72.35801
 11
-37.714713
 21
-72.515222
  0
LINE
  8
ボルト／ビス
  6
CONTINUOUS
 62
    64
 10
-37.7924
 20
-72.02092
 11
-37.987018
 21
-72.178132
  0
CIRCLE
  8
ボルト／ビス
  6
CONTINUOUS
 62
    64
 10
-37.753555
 20
-72.26807
 40
0.216668
  0
CIRCLE
  8
ボルト／ビス
  6
CONTINUOUS
 10
-47.70311
 20
-59.95138
 40
0.250185
  0
CIRCLE
  8
ボルト／ビス
  6
CONTINUOUS
 10
-47.70311
 20
-59.95138
 40
0.301025
  0
LINE
  8
ボルト／ビス
  6
CONTINUOUS
 62
    64
 10
-47.741953
 20
-59.704227
 11
-47.508493
 21
-59.794165
  0
LINE
  8
ボルト／ビス
  6
CONTINUOUS
 62
    64
 10
-47.469647
 20
-60.041317
 11
-47.508493
 21
-59.794165
  0
LINE
  8
ボルト／ビス
  6
CONTINUOUS
 62
    64
 10
-47.936572
 20
-59.861442
 11
-47.897728
 21
-60.108595
  0
LINE
  8
ボルト／ビス
  6
CONTINUOUS
 62
    64
 10
-47.664265
 20
-60.198532
 11
-47.897728
 21
-60.108595
  0
LINE
  8
ボルト／ビス
  6
CONTINUOUS
 62
    64
 10
-47.741953
 20
-59.704227
 11
-47.936572
 21
-59.861442
  0
LINE
  8
ボルト／ビス
  6
CONTINUOUS
 62
    64
 10
-47.469647
 20
-60.041317
 11
-47.664265
 21
-60.198532
  0
CIRCLE
  8
ボルト／ビス
  6
CONTINUOUS
 62
    64
 10
-47.70311
 20
-59.95138
 40
0.216668
  0
ENDBLK
  0
BLOCK
  2
*GRP_0017
 70
    65
 10
0.0
 20
0.0
  0
LINE
  8
補助線
  6
BYBLOCK
 62
    64
 10
-47.650748
 20
-84.519938
 11
-47.755477
 21
-84.649587
  0
LINE
  8
補助線
  6
BYBLOCK
 62
    64
 10
-47.76794
 20
-84.532395
 11
-47.638288
 21
-84.637128
  0
LINE
  8
補助線
  6
BYBLOCK
 62
    64
 10
-37.701192
 20
-72.20325
 11
-37.805925
 21
-72.332895
  0
LINE
  8
補助線
  6
BYBLOCK
 62
    64
 10
-37.818385
 20
-72.215705
 11
-37.688735
 21
-72.320438
  0
LINE
  8
補助線
  6
BYBLOCK
 62
    64
 10
-27.856372
 20
-60.016205
 11
-27.75164
 21
-59.886557
  0
LINE
  8
補助線
  6
BYBLOCK
 62
    64
 10
-27.868833
 20
-59.899013
 11
-27.73918
 21
-60.003745
  0
LINE
  8
型材断面
  6
CONTINUOUS
 10
-48.560822
 20
-84.3204
 11
-48.48607
 21
-85.023545
  0
LINE
  8
型材断面
  6
CONTINUOUS
 10
-48.48607
 20
-85.023545
 11
-47.967472
 21
-85.442472
  0
LINE
  8
型材断面
  6
CONTINUOUS
 10
-47.967472
 20
-85.442472
 11
-47.264328
 21
-85.36772
  0
LINE
  8
型材断面
  6
CONTINUOUS
 10
-28.242788
 20
-59.168422
 11
-27.539645
 21
-59.09367
  0
LINE
  8
型材断面
  6
CONTINUOUS
 10
-27.539645
 20
-59.09367
 11
-27.021047
 21
-59.5126
  0
LINE
  8
型材断面
  6
CONTINUOUS
 10
-27.021047
 20
-59.5126
 11
-26.946292
 21
-60.215745
  0
LINE
  8
型材断面
  6
CONTINUOUS
 10
-48.560822
 20
-84.3204
 11
-28.242788
 21
-59.168422
  0
LINE
  8
型材断面
  6
CONTINUOUS
 10
-47.264328
 20
-85.36772
 11
-26.946292
 21
-60.215745
  0
CIRCLE
  8
ボルト／ビス
  6
CONTINUOUS
 10
-47.703113
 20
-84.584763
 40
0.250185
  0
CIRCLE
  8
ボルト／ビス
  6
CONTINUOUS
 10
-47.703113
 20
-84.584763
 40
0.301025
  0
LINE
  8
ボルト／ビス
  6
CONTINUOUS
 62
    64
 10
-47.936575
 20
-84.6747
 11
-47.89773
 21
-84.427548
  0
LINE
  8
ボルト／ビス
  6
CONTINUOUS
 62
    64
 10
-47.66427
 20
-84.33761
 11
-47.89773
 21
-84.427548
  0
LINE
  8
ボルト／ビス
  6
CONTINUOUS
 62
    64
 10
-47.741955
 20
-84.831915
 11
-47.508495
 21
-84.741978
  0
LINE
  8
ボルト／ビス
  6
CONTINUOUS
 62
    64
 10
-47.46965
 20
-84.494825
 11
-47.508495
 21
-84.741978
  0
LINE
  8
ボルト／ビス
  6
CONTINUOUS
 62
    64
 10
-47.936575
 20
-84.6747
 11
-47.741955
 21
-84.831915
  0
LINE
  8
ボルト／ビス
  6
CONTINUOUS
 62
    64
 10
-47.66427
 20
-84.33761
 11
-47.46965
 21
-84.494825
  0
CIRCLE
  8
ボルト／ビス
  6
CONTINUOUS
 62
    64
 10
-47.703113
 20
-84.584763
 40
0.216668
  0
CIRCLE
  8
ボルト／ビス
  6
CONTINUOUS
 10
-37.75356
 20
-72.26807
 40
0.250185
  0
CIRCLE
  8
ボルト／ビス
  6
CONTINUOUS
 10
-37.75356
 20
-72.26807
 40
0.301025
  0
LINE
  8
ボルト／ビス
  6
CONTINUOUS
 62
    64
 10
-37.98702
 20
-72.35801
 11
-37.948178
 21
-72.110858
  0
LINE
  8
ボルト／ビス
  6
CONTINUOUS
 62
    64
 10
-37.714715
 20
-72.02092
 11
-37.948178
 21
-72.110858
  0
LINE
  8
ボルト／ビス
  6
CONTINUOUS
 62
    64
 10
-37.792403
 20
-72.515222
 11
-37.55894
 21
-72.425285
  0
LINE
  8
ボルト／ビス
  6
CONTINUOUS
 62
    64
 10
-37.520097
 20
-72.178132
 11
-37.55894
 21
-72.425285
  0
LINE
  8
ボルト／ビス
  6
CONTINUOUS
 62
    64
 10
-37.98702
 20
-72.35801
 11
-37.792403
 21
-72.515222
  0
LINE
  8
ボルト／ビス
  6
CONTINUOUS
 62
    64
 10
-37.714715
 20
-72.02092
 11
-37.520097
 21
-72.178132
  0
CIRCLE
  8
ボルト／ビス
  6
CONTINUOUS
 62
    64
 10
-37.75356
 20
-72.26807
 40
0.216668
  0
CIRCLE
  8
ボルト／ビス
  6
CONTINUOUS
 10
-27.804005
 20
-59.95138
 40
0.250185
  0
CIRCLE
  8
ボルト／ビス
  6
CONTINUOUS
 10
-27.804005
 20
-59.95138
 40
0.301025
  0
LINE
  8
ボルト／ビス
  6
CONTINUOUS
 62
    64
 10
-27.765163
 20
-59.704227
 11
-27.998622
 21
-59.794165
  0
LINE
  8
ボルト／ビス
  6
CONTINUOUS
 62
    64
 10
-28.037468
 20
-60.041317
 11
-27.998622
 21
-59.794165
  0
LINE
  8
ボルト／ビス
  6
CONTINUOUS
 62
    64
 10
-27.570543
 20
-59.861442
 11
-27.609387
 21
-60.108595
  0
LINE
  8
ボルト／ビス
  6
CONTINUOUS
 62
    64
 10
-27.84285
 20
-60.198532
 11
-27.609387
 21
-60.108595
  0
LINE
  8
ボルト／ビス
  6
CONTINUOUS
 62
    64
 10
-27.765163
 20
-59.704227
 11
-27.570543
 21
-59.861442
  0
LINE
  8
ボルト／ビス
  6
CONTINUOUS
 62
    64
 10
-28.037468
 20
-60.041317
 11
-27.84285
 21
-60.198532
  0
CIRCLE
  8
ボルト／ビス
  6
CONTINUOUS
 62
    64
 10
-27.804005
 20
-59.95138
 40
0.216668
  0
ENDBLK
  0
BLOCK
  2
*DIM_0018
 70
    65
 10
0.0
 20
0.0
  0
LINE
  8
寸法
  6
BYBLOCK
 62
     0
 10
135.11304
 20
69.42329
 11
135.11304
 21
86.5884
  0
LINE
  8
寸法
  6
BYBLOCK
 62
     0
 10
142.146543
 20
69.739957
 11
142.146543
 21
86.5884
  0
LINE
  8
寸法
  6
BYBLOCK
 62
     0
 10
135.11304
 20
86.5884
 11
142.146543
 21
86.5884
  0
POINT
  8
寸法
 62
     0
 10
135.11304
 20
86.5884
  0
POINT
  8
寸法
 62
     0
 10
142.146543
 20
86.5884
  0
TEXT
  7
TextStyle03
  8
寸法
  6
CONTINUOUS
 62
     0
 10
136.1625
 20
86.95
  1
211
 40
3.0
 72
     5
 11
141.0375
 21
86.95
  0
ENDBLK
  0
BLOCK
  2
*DIM_0019
 70
    65
 10
0.0
 20
0.0
  0
LINE
  8
寸法
  6
BYBLOCK
 62
     0
 10
133.489825
 20
66.739957
 11
82.21224
 21
66.739957
  0
LINE
  8
寸法
  6
BYBLOCK
 62
     0
 10
82.21224
 20
64.756625
 11
82.21224
 21
66.739957
  0
POINT
  8
寸法
 62
     0
 10
82.21224
 20
64.756625
  0
POINT
  8
寸法
 62
     0
 10
82.21224
 20
66.739957
  0
TEXT
  7
TextStyle03
  8
寸法
  6
CONTINUOUS
 62
     0
 10
81.8
 20
69.19375
  1
59.5
 40
3.0
 50
90.0
 72
     5
 11
81.8
 21
75.75625
  0
ENDBLK
  0
BLOCK
  2
*DIM_0020
 70
    65
 10
0.0
 20
0.0
  0
LINE
  8
寸法
  6
BYBLOCK
 62
     0
 10
133.489825
 20
-3.893378
 11
82.21224
 21
-3.893378
  0
LINE
  8
寸法
  6
BYBLOCK
 62
     0
 10
82.21224
 20
-1.910042
 11
82.21224
 21
-3.893378
  0
POINT
  8
寸法
 62
     0
 10
82.21224
 20
-1.910042
  0
POINT
  8
寸法
 62
     0
 10
82.21224
 20
-3.893378
  0
TEXT
  7
TextStyle03
  8
寸法
  6
CONTINUOUS
 62
     0
 10
81.8
 20
-12.95625
  1
59.5
 40
3.0
 50
90.0
 72
     5
 11
81.8
 21
-6.39375
  0
ENDBLK
  0
BLOCK
  2
*DIM_0021
 70
    65
 10
0.0
 20
0.0
  0
LINE
  8
寸法
  6
BYBLOCK
 62
     0
 10
47.56311
 20
-78.001383
 11
47.56311
 21
-22.536362
  0
LINE
  8
寸法
  6
BYBLOCK
 62
     0
 10
45.579775
 20
-22.536362
 11
47.56311
 21
-22.536362
  0
POINT
  8
寸法
 62
     0
 10
45.579775
 20
-22.536362
  0
POINT
  8
寸法
 62
     0
 10
47.56311
 20
-22.536362
  0
TEXT
  7
TextStyle03
  8
寸法
  6
CONTINUOUS
 62
     0
 10
50.01875
 20
-22.15
  1
59.5
 40
3.0
 72
     5
 11
56.58125
 21
-22.15
  0
ENDBLK
  0
BLOCK
  2
*DIM_0022
 70
    65
 10
0.0
 20
0.0
  0
LINE
  8
寸法
  6
BYBLOCK
 62
     0
 10
-123.070225
 20
-78.001383
 11
-123.070225
 21
-22.536362
  0
LINE
  8
寸法
  6
BYBLOCK
 62
     0
 10
-121.086892
 20
-22.536362
 11
-123.070225
 21
-22.536362
  0
POINT
  8
寸法
 62
     0
 10
-121.086892
 20
-22.536362
  0
POINT
  8
寸法
 62
     0
 10
-123.070225
 20
-22.536362
  0
TEXT
  7
TextStyle03
  8
寸法
  6
CONTINUOUS
 62
     0
 10
-132.13125
 20
-22.15
  1
59.5
 40
3.0
 72
     5
 11
-125.56875
 21
-22.15
  0
ENDBLK
  0
BLOCK
  2
*DIM_0023
 70
    65
 10
0.0
 20
0.0
  0
LINE
  8
寸法
  6
BYBLOCK
 62
     0
 10
50.246443
 20
-79.624597
 11
61.549425
 21
-79.624597
  0
LINE
  8
寸法
  6
BYBLOCK
 62
     0
 10
50.56311
 20
-86.6581
 11
61.549425
 21
-86.6581
  0
LINE
  8
寸法
  6
BYBLOCK
 62
     0
 10
61.549425
 20
-79.624597
 11
61.549425
 21
-86.6581
  0
POINT
  8
寸法
 62
     0
 10
61.549425
 20
-79.624597
  0
POINT
  8
寸法
 62
     0
 10
61.549425
 20
-86.6581
  0
TEXT
  7
TextStyle03
  8
寸法
  6
CONTINUOUS
 62
     0
 10
61.15
 20
-85.5875
  1
211
 40
3.0
 50
90.0
 72
     5
 11
61.15
 21
-80.7125
  0
ENDBLK
  0
BLOCK
  2
*DIM_0024
 70
    65
 10
0.0
 20
0.0
  0
LINE
  8
寸法
  6
BYBLOCK
 62
     0
 10
45.579775
 20
-22.536362
 11
-121.086892
 21
-22.536362
  0
POINT
  8
寸法
 62
     0
 10
45.579775
 20
-22.536362
  0
POINT
  8
寸法
 62
     0
 10
-121.086892
 20
-22.536362
  0
TEXT
  7
TextStyle03
  8
寸法
  6
CONTINUOUS
 62
     0
 10
-49.49375
 20
-22.175
  1
呼称寸法　5000
 40
3.0
 72
     5
 11
-26.05625
 21
-22.175
  0
ENDBLK
  0
BLOCK
  2
*DIM_0025
 70
    65
 10
0.0
 20
0.0
  0
LINE
  8
寸法
  6
BYBLOCK
 62
     0
 10
-124.086892
 20
8.08996
 11
-153.57597
 21
8.08996
  0
LINE
  8
寸法
  6
BYBLOCK
 62
     0
 10
-124.086892
 20
31.423293
 11
-153.57597
 21
31.423293
  0
LINE
  8
寸法
  6
BYBLOCK
 62
     0
 10
-153.57597
 20
8.08996
 11
-153.57597
 21
31.423293
  0
POINT
  8
寸法
 62
     0
 10
-153.57597
 20
8.08996
  0
POINT
  8
寸法
 62
     0
 10
-153.57597
 20
31.423293
  0
TEXT
  7
TextStyle03
  8
寸法
  6
CONTINUOUS
 62
     0
 10
-153.95
 20
17.3125
  1
700
 40
3.0
 50
90.0
 72
     5
 11
-153.95
 21
22.1875
  0
ENDBLK
  0
BLOCK
  2
*DIM_0026
 70
    65
 10
0.0
 20
0.0
  0
LINE
  8
寸法
  6
BYBLOCK
 62
     0
 10
-124.086892
 20
54.756625
 11
-153.57597
 21
54.756625
  0
LINE
  8
寸法
  6
BYBLOCK
 62
     0
 10
-153.57597
 20
31.423293
 11
-153.57597
 21
54.756625
  0
POINT
  8
寸法
 62
     0
 10
-153.57597
 20
54.756625
  0
TEXT
  7
TextStyle03
  8
寸法
  6
CONTINUOUS
 62
     0
 10
-153.95
 20
40.6375
  1
700
 40
3.0
 50
90.0
 72
     5
 11
-153.95
 21
45.5125
  0
ENDBLK
  0
BLOCK
  2
*DIM_0027
 70
    65
 10
0.0
 20
0.0
  0
LINE
  8
寸法
  6
BYBLOCK
 62
     0
 10
-112.753557
 20
67.756625
 11
-112.753557
 21
96.864697
  0
LINE
  8
寸法
  6
BYBLOCK
 62
     0
 10
-87.753557
 20
67.756625
 11
-87.753557
 21
96.864697
  0
LINE
  8
寸法
  6
BYBLOCK
 62
     0
 10
-112.753557
 20
96.864697
 11
-87.753557
 21
96.864697
  0
POINT
  8
寸法
 62
     0
 10
-112.753557
 20
96.864697
  0
POINT
  8
寸法
 62
     0
 10
-87.753557
 20
96.864697
  0
TEXT
  7
TextStyle03
  8
寸法
  6
CONTINUOUS
 62
     0
 10
-102.7125
 20
97.2
  1
750
 40
3.0
 72
     5
 11
-97.8375
 21
97.2
  0
ENDBLK
  0
BLOCK
  2
*DIM_0028
 70
    65
 10
0.0
 20
0.0
  0
LINE
  8
寸法
  6
BYBLOCK
 62
     0
 10
-62.753557
 20
67.756625
 11
-62.753557
 21
96.864697
  0
LINE
  8
寸法
  6
BYBLOCK
 62
     0
 10
-87.753557
 20
96.864697
 11
-62.753557
 21
96.864697
  0
POINT
  8
寸法
 62
     0
 10
-62.753557
 20
96.864697
  0
TEXT
  7
TextStyle03
  8
寸法
  6
CONTINUOUS
 62
     0
 10
-77.7125
 20
97.2
  1
750
 40
3.0
 72
     5
 11
-72.8375
 21
97.2
  0
ENDBLK
  0
BLOCK
  2
*DIM_0029
 70
    65
 10
0.0
 20
0.0
  0
LINE
  8
寸法
  6
BYBLOCK
 62
     0
 10
-37.753557
 20
67.756625
 11
-37.753557
 21
96.864697
  0
LINE
  8
寸法
  6
BYBLOCK
 62
     0
 10
-62.753557
 20
96.864697
 11
-37.753557
 21
96.864697
  0
POINT
  8
寸法
 62
     0
 10
-37.753557
 20
96.864697
  0
TEXT
  7
TextStyle03
  8
寸法
  6
CONTINUOUS
 62
     0
 10
-52.7125
 20
97.2
  1
750
 40
3.0
 72
     5
 11
-47.8375
 21
97.2
  0
ENDBLK
  0
BLOCK
  2
*DIM_0030
 70
    65
 10
0.0
 20
0.0
  0
LINE
  8
寸法
  6
BYBLOCK
 62
     0
 10
-12.753557
 20
67.756625
 11
-12.753557
 21
96.864697
  0
LINE
  8
寸法
  6
BYBLOCK
 62
     0
 10
-37.753557
 20
96.864697
 11
-12.753557
 21
96.864697
  0
POINT
  8
寸法
 62
     0
 10
-12.753557
 20
96.864697
  0
TEXT
  7
TextStyle03
  8
寸法
  6
CONTINUOUS
 62
     0
 10
-27.7125
 20
97.2
  1
750
 40
3.0
 72
     5
 11
-22.8375
 21
97.2
  0
ENDBLK
  0
BLOCK
  2
*DIM_0031
 70
    65
 10
0.0
 20
0.0
  0
LINE
  8
寸法
  6
BYBLOCK
 62
     0
 10
12.246443
 20
67.756625
 11
12.246443
 21
96.864697
  0
LINE
  8
寸法
  6
BYBLOCK
 62
     0
 10
-12.753557
 20
96.864697
 11
12.246443
 21
96.864697
  0
POINT
  8
寸法
 62
     0
 10
12.246443
 20
96.864697
  0
TEXT
  7
TextStyle03
  8
寸法
  6
CONTINUOUS
 62
     0
 10
-2.7125
 20
97.2
  1
750
 40
3.0
 72
     5
 11
2.1625
 21
97.2
  0
ENDBLK
  0
BLOCK
  2
*DIM_0032
 70
    65
 10
0.0
 20
0.0
  0
LINE
  8
寸法
  6
BYBLOCK
 62
     0
 10
37.246443
 20
67.756625
 11
37.246443
 21
96.864697
  0
LINE
  8
寸法
  6
BYBLOCK
 62
     0
 10
12.246443
 20
96.864697
 11
37.246443
 21
96.864697
  0
POINT
  8
寸法
 62
     0
 10
37.246443
 20
96.864697
  0
TEXT
  7
TextStyle03
  8
寸法
  6
CONTINUOUS
 62
     0
 10
22.2875
 20
97.2
  1
750
 40
3.0
 72
     5
 11
27.1625
 21
97.2
  0
ENDBLK
  0
BLOCK
  2
*GRP_0034
 70
    65
 10
0.0
 20
0.0
  0
LINE
  8
ボルト／ビス
  6
CONTINUOUS
 10
135.11304
 20
-2.57671
 11
134.646375
 21
-2.57671
  0
LINE
  8
ボルト／ビス
  6
CONTINUOUS
 10
135.11304
 20
-2.943375
 11
135.046375
 21
-2.943375
  0
LINE
  8
ボルト／ビス
  6
CONTINUOUS
 10
135.046375
 20
-2.943375
 11
135.046375
 21
-2.210042
  0
LINE
  8
ボルト／ビス
  6
CONTINUOUS
 10
135.046375
 20
-2.210042
 11
135.11304
 21
-2.210042
  0
LINE
  8
ボルト／ビス
  6
CONTINUOUS
 10
135.11304
 20
-2.943375
 11
135.11304
 21
-2.210042
  0
LINE
  8
ボルト／ビス
  6
CONTINUOUS
 10
135.01304
 20
-2.87671
 11
135.046375
 21
-2.87671
  0
LINE
  8
ボルト／ビス
  6
CONTINUOUS
 10
135.01304
 20
-2.87671
 11
135.01304
 21
-2.27671
  0
LINE
  8
ボルト／ビス
  6
CONTINUOUS
 10
135.01304
 20
-2.27671
 11
135.046375
 21
-2.27671
  0
LINE
  8
ボルト／ビス
  6
CONTINUOUS
 62
    64
 10
134.81304
 20
-2.737085
 11
134.824715
 21
-2.76916
  0
ARC
  8
ボルト／ビス
  6
CONTINUOUS
 62
    64
 10
134.91802
 20
-2.721047
 40
0.104978
 50
152.721967
 51
180.0
  0
ARC
  8
ボルト／ビス
  6
CONTINUOUS
 62
    64
 10
135.215444
 20
-2.576709
 40
0.402402
 50
166.165002
 51
193.834985
  0
LINE
  8
ボルト／ビス
  6
CONTINUOUS
 62
    64
 10
134.81304
 20
-2.416335
 11
134.824715
 21
-2.38426
  0
ARC
  8
ボルト／ビス
  6
CONTINUOUS
 62
    64
 10
134.91802
 20
-2.432372
 40
0.104978
 50
180.0
 51
207.278033
  0
LINE
  8
ボルト／ビス
  6
CONTINUOUS
 62
    64
 10
134.81304
 20
-2.737085
 11
134.81304
 21
-2.416335
  0
LINE
  8
ボルト／ビス
  6
CONTINUOUS
 62
    64
 10
134.824715
 20
-2.38426
 11
134.946375
 21
-2.38426
  0
LINE
  8
ボルト／ビス
  6
CONTINUOUS
 62
    64
 10
134.824715
 20
-2.480485
 11
134.946375
 21
-2.480485
  0
LINE
  8
ボルト／ビス
  6
CONTINUOUS
 62
    64
 10
134.824715
 20
-2.76916
 11
134.946375
 21
-2.76916
  0
LINE
  8
ボルト／ビス
  6
CONTINUOUS
 62
    64
 10
134.824715
 20
-2.672935
 11
134.946375
 21
-2.672935
  0
LINE
  8
ボルト／ビス
  6
CONTINUOUS
 10
134.946375
 20
-2.76916
 11
134.946375
 21
-2.38426
  0
LINE
  8
ボルト／ビス
  6
CONTINUOUS
 10
134.946375
 20
-2.77671
 11
135.01304
 21
-2.77671
  0
LINE
  8
ボルト／ビス
  6
CONTINUOUS
 10
134.946375
 20
-2.77671
 11
134.946375
 21
-2.37671
  0
LINE
  8
ボルト／ビス
  6
CONTINUOUS
 10
134.946375
 20
-2.37671
 11
135.01304
 21
-2.37671
  0
ENDBLK
  0
BLOCK
  2
*GRP_0035
 70
    65
 10
0.0
 20
0.0
  0
LINE
  8
ボルト／ビス
  6
CONTINUOUS
 10
135.11304
 20
65.42329
 11
134.646375
 21
65.42329
  0
LINE
  8
ボルト／ビス
  6
CONTINUOUS
 10
135.11304
 20
65.056625
 11
135.046375
 21
65.056625
  0
LINE
  8
ボルト／ビス
  6
CONTINUOUS
 10
135.046375
 20
65.056625
 11
135.046375
 21
65.789957
  0
LINE
  8
ボルト／ビス
  6
CONTINUOUS
 10
135.046375
 20
65.789957
 11
135.11304
 21
65.789957
  0
LINE
  8
ボルト／ビス
  6
CONTINUOUS
 10
135.11304
 20
65.056625
 11
135.11304
 21
65.789957
  0
LINE
  8
ボルト／ビス
  6
CONTINUOUS
 10
135.01304
 20
65.12329
 11
135.046375
 21
65.12329
  0
LINE
  8
ボルト／ビス
  6
CONTINUOUS
 10
135.01304
 20
65.12329
 11
135.01304
 21
65.72329
  0
LINE
  8
ボルト／ビス
  6
CONTINUOUS
 10
135.01304
 20
65.72329
 11
135.046375
 21
65.72329
  0
LINE
  8
ボルト／ビス
  6
CONTINUOUS
 62
    64
 10
134.81304
 20
65.262915
 11
134.824715
 21
65.23084
  0
ARC
  8
ボルト／ビス
  6
CONTINUOUS
 62
    64
 10
134.918019
 20
65.278953
 40
0.104978
 50
152.721967
 51
180.0
  0
ARC
  8
ボルト／ビス
  6
CONTINUOUS
 62
    64
 10
135.215443
 20
65.42329
 40
0.402402
 50
166.165002
 51
193.834985
  0
LINE
  8
ボルト／ビス
  6
CONTINUOUS
 62
    64
 10
134.81304
 20
65.583665
 11
134.824715
 21
65.61574
  0
ARC
  8
ボルト／ビス
  6
CONTINUOUS
 62
    64
 10
134.918019
 20
65.567628
 40
0.104978
 50
180.0
 51
207.278033
  0
LINE
  8
ボルト／ビス
  6
CONTINUOUS
 62
    64
 10
134.81304
 20
65.262915
 11
134.81304
 21
65.583665
  0
LINE
  8
ボルト／ビス
  6
CONTINUOUS
 62
    64
 10
134.824715
 20
65.61574
 11
134.946375
 21
65.61574
  0
LINE
  8
ボルト／ビス
  6
CONTINUOUS
 62
    64
 10
134.824715
 20
65.519515
 11
134.946375
 21
65.519515
  0
LINE
  8
ボルト／ビス
  6
CONTINUOUS
 62
    64
 10
134.824715
 20
65.23084
 11
134.946375
 21
65.23084
  0
LINE
  8
ボルト／ビス
  6
CONTINUOUS
 62
    64
 10
134.824715
 20
65.327065
 11
134.946375
 21
65.327065
  0
LINE
  8
ボルト／ビス
  6
CONTINUOUS
 10
134.946375
 20
65.23084
 11
134.946375
 21
65.61574
  0
LINE
  8
ボルト／ビス
  6
CONTINUOUS
 10
134.946375
 20
65.22329
 11
135.01304
 21
65.22329
  0
LINE
  8
ボルト／ビス
  6
CONTINUOUS
 10
134.946375
 20
65.22329
 11
134.946375
 21
65.62329
  0
LINE
  8
ボルト／ビス
  6
CONTINUOUS
 10
134.946375
 20
65.62329
 11
135.01304
 21
65.62329
  0
ENDBLK
  0
BLOCK
  2
*GRP_0036
 70
    65
 10
0.0
 20
0.0
  0
LINE
  8
ボルト／ビス
  6
CONTINUOUS
 10
-121.753557
 20
-79.624597
 11
-121.753557
 21
-79.157932
  0
LINE
  8
ボルト／ビス
  6
CONTINUOUS
 10
-122.120223
 20
-79.624597
 11
-122.120223
 21
-79.557932
  0
LINE
  8
ボルト／ビス
  6
CONTINUOUS
 10
-122.120223
 20
-79.557932
 11
-121.38689
 21
-79.557932
  0
LINE
  8
ボルト／ビス
  6
CONTINUOUS
 10
-121.38689
 20
-79.557932
 11
-121.38689
 21
-79.624597
  0
LINE
  8
ボルト／ビス
  6
CONTINUOUS
 10
-122.120223
 20
-79.624597
 11
-121.38689
 21
-79.624597
  0
LINE
  8
ボルト／ビス
  6
CONTINUOUS
 10
-122.053557
 20
-79.524597
 11
-122.053557
 21
-79.557932
  0
LINE
  8
ボルト／ビス
  6
CONTINUOUS
 10
-122.053557
 20
-79.524597
 11
-121.453557
 21
-79.524597
  0
LINE
  8
ボルト／ビス
  6
CONTINUOUS
 10
-121.453557
 20
-79.524597
 11
-121.453557
 21
-79.557932
  0
LINE
  8
ボルト／ビス
  6
CONTINUOUS
 62
    64
 10
-121.913933
 20
-79.324597
 11
-121.946007
 21
-79.336272
  0
ARC
  8
ボルト／ビス
  6
CONTINUOUS
 62
    64
 10
-121.897893
 20
-79.429578
 40
0.104978
 50
62.721967
 51
90.0
  0
ARC
  8
ボルト／ビス
  6
CONTINUOUS
 62
    64
 10
-121.753556
 20
-79.727001
 40
0.402402
 50
76.165002
 51
103.834985
  0
LINE
  8
ボルト／ビス
  6
CONTINUOUS
 62
    64
 10
-121.593182
 20
-79.324597
 11
-121.561107
 21
-79.336272
  0
ARC
  8
ボルト／ビス
  6
CONTINUOUS
 62
    64
 10
-121.609218
 20
-79.429578
 40
0.104978
 50
90.0
 51
117.278033
  0
LINE
  8
ボルト／ビス
  6
CONTINUOUS
 62
    64
 10
-121.913933
 20
-79.324597
 11
-121.593182
 21
-79.324597
  0
LINE
  8
ボルト／ビス
  6
CONTINUOUS
 62
    64
 10
-121.561107
 20
-79.336272
 11
-121.561107
 21
-79.457932
  0
LINE
  8
ボルト／ビス
  6
CONTINUOUS
 62
    64
 10
-121.657333
 20
-79.336272
 11
-121.657333
 21
-79.457932
  0
LINE
  8
ボルト／ビス
  6
CONTINUOUS
 62
    64
 10
-121.946007
 20
-79.336272
 11
-121.946007
 21
-79.457932
  0
LINE
  8
ボルト／ビス
  6
CONTINUOUS
 62
    64
 10
-121.849783
 20
-79.336272
 11
-121.849783
 21
-79.457932
  0
LINE
  8
ボルト／ビス
  6
CONTINUOUS
 10
-121.946007
 20
-79.457932
 11
-121.561107
 21
-79.457932
  0
LINE
  8
ボルト／ビス
  6
CONTINUOUS
 10
-121.953557
 20
-79.457932
 11
-121.953557
 21
-79.524597
  0
LINE
  8
ボルト／ビス
  6
CONTINUOUS
 10
-121.953557
 20
-79.457932
 11
-121.553557
 21
-79.457932
  0
LINE
  8
ボルト／ビス
  6
CONTINUOUS
 10
-121.553557
 20
-79.457932
 11
-121.553557
 21
-79.524597
  0
ENDBLK
  0
BLOCK
  2
*GRP_0037
 70
    65
 10
0.0
 20
0.0
  0
LINE
  8
ボルト／ビス
  6
DOT
 10
-121.753557
 20
-57.624597
 11
-121.753557
 21
-57.157932
  0
LINE
  8
ボルト／ビス
  6
DOT
 10
-122.120223
 20
-57.624597
 11
-122.120223
 21
-57.557932
  0
LINE
  8
ボルト／ビス
  6
DOT
 10
-122.120223
 20
-57.557932
 11
-121.38689
 21
-57.557932
  0
LINE
  8
ボルト／ビス
  6
DOT
 10
-121.38689
 20
-57.557932
 11
-121.38689
 21
-57.624597
  0
LINE
  8
ボルト／ビス
  6
DOT
 10
-122.120223
 20
-57.624597
 11
-121.38689
 21
-57.624597
  0
LINE
  8
ボルト／ビス
  6
DOT
 10
-122.053557
 20
-57.524597
 11
-122.053557
 21
-57.557932
  0
LINE
  8
ボルト／ビス
  6
DOT
 10
-122.053557
 20
-57.524597
 11
-121.453557
 21
-57.524597
  0
LINE
  8
ボルト／ビス
  6
DOT
 10
-121.453557
 20
-57.524597
 11
-121.453557
 21
-57.557932
  0
LINE
  8
ボルト／ビス
  6
DOT
 62
    64
 10
-121.913933
 20
-57.324597
 11
-121.946007
 21
-57.336272
  0
ARC
  8
ボルト／ビス
  6
DOT
 62
    64
 10
-121.897893
 20
-57.429578
 40
0.104978
 50
62.721967
 51
90.0
  0
ARC
  8
ボルト／ビス
  6
DOT
 62
    64
 10
-121.753556
 20
-57.727001
 40
0.402402
 50
76.165002
 51
103.834985
  0
LINE
  8
ボルト／ビス
  6
DOT
 62
    64
 10
-121.593182
 20
-57.324597
 11
-121.561107
 21
-57.336272
  0
ARC
  8
ボルト／ビス
  6
DOT
 62
    64
 10
-121.609218
 20
-57.429578
 40
0.104978
 50
90.0
 51
117.278033
  0
LINE
  8
ボルト／ビス
  6
DOT
 62
    64
 10
-121.913933
 20
-57.324597
 11
-121.593182
 21
-57.324597
  0
LINE
  8
ボルト／ビス
  6
DOT
 62
    64
 10
-121.561107
 20
-57.336272
 11
-121.561107
 21
-57.457932
  0
LINE
  8
ボルト／ビス
  6
DOT
 62
    64
 10
-121.657333
 20
-57.336272
 11
-121.657333
 21
-57.457932
  0
LINE
  8
ボルト／ビス
  6
DOT
 62
    64
 10
-121.946007
 20
-57.336272
 11
-121.946007
 21
-57.457932
  0
LINE
  8
ボルト／ビス
  6
DOT
 62
    64
 10
-121.849783
 20
-57.336272
 11
-121.849783
 21
-57.457932
  0
LINE
  8
ボルト／ビス
  6
DOT
 10
-121.946007
 20
-57.457932
 11
-121.561107
 21
-57.457932
  0
LINE
  8
ボルト／ビス
  6
DOT
 10
-121.953557
 20
-57.457932
 11
-121.953557
 21
-57.524597
  0
LINE
  8
ボルト／ビス
  6
DOT
 10
-121.953557
 20
-57.457932
 11
-121.553557
 21
-57.457932
  0
LINE
  8
ボルト／ビス
  6
DOT
 10
-121.553557
 20
-57.457932
 11
-121.553557
 21
-57.524597
  0
ENDBLK
  0
BLOCK
  2
*GRP_0038
 70
    65
 10
0.0
 20
0.0
  0
LINE
  8
ボルト／ビス
  6
CONTINUOUS
 10
46.246443
 20
-79.624597
 11
46.246443
 21
-79.157932
  0
LINE
  8
ボルト／ビス
  6
CONTINUOUS
 10
45.879777
 20
-79.624597
 11
45.879777
 21
-79.557932
  0
LINE
  8
ボルト／ビス
  6
CONTINUOUS
 10
45.879777
 20
-79.557932
 11
46.61311
 21
-79.557932
  0
LINE
  8
ボルト／ビス
  6
CONTINUOUS
 10
46.61311
 20
-79.557932
 11
46.61311
 21
-79.624597
  0
LINE
  8
ボルト／ビス
  6
CONTINUOUS
 10
45.879777
 20
-79.624597
 11
46.61311
 21
-79.624597
  0
LINE
  8
ボルト／ビス
  6
CONTINUOUS
 10
45.946443
 20
-79.524597
 11
45.946443
 21
-79.557932
  0
LINE
  8
ボルト／ビス
  6
CONTINUOUS
 10
45.946443
 20
-79.524597
 11
46.546443
 21
-79.524597
  0
LINE
  8
ボルト／ビス
  6
CONTINUOUS
 10
46.546443
 20
-79.524597
 11
46.546443
 21
-79.557932
  0
LINE
  8
ボルト／ビス
  6
CONTINUOUS
 62
    64
 10
46.086067
 20
-79.324597
 11
46.053992
 21
-79.336272
  0
ARC
  8
ボルト／ビス
  6
CONTINUOUS
 62
    64
 10
46.102107
 20
-79.429578
 40
0.104978
 50
62.721967
 51
90.0
  0
ARC
  8
ボルト／ビス
  6
CONTINUOUS
 62
    64
 10
46.246444
 20
-79.727001
 40
0.402402
 50
76.165002
 51
103.834985
  0
LINE
  8
ボルト／ビス
  6
CONTINUOUS
 62
    64
 10
46.406818
 20
-79.324597
 11
46.438892
 21
-79.336272
  0
ARC
  8
ボルト／ビス
  6
CONTINUOUS
 62
    64
 10
46.390782
 20
-79.429578
 40
0.104978
 50
90.0
 51
117.278033
  0
LINE
  8
ボルト／ビス
  6
CONTINUOUS
 62
    64
 10
46.086067
 20
-79.324597
 11
46.406818
 21
-79.324597
  0
LINE
  8
ボルト／ビス
  6
CONTINUOUS
 62
    64
 10
46.438892
 20
-79.336272
 11
46.438892
 21
-79.457932
  0
LINE
  8
ボルト／ビス
  6
CONTINUOUS
 62
    64
 10
46.342668
 20
-79.336272
 11
46.342668
 21
-79.457932
  0
LINE
  8
ボルト／ビス
  6
CONTINUOUS
 62
    64
 10
46.053992
 20
-79.336272
 11
46.053992
 21
-79.457932
  0
LINE
  8
ボルト／ビス
  6
CONTINUOUS
 62
    64
 10
46.150217
 20
-79.336272
 11
46.150217
 21
-79.457932
  0
LINE
  8
ボルト／ビス
  6
CONTINUOUS
 10
46.053992
 20
-79.457932
 11
46.438892
 21
-79.457932
  0
LINE
  8
ボルト／ビス
  6
CONTINUOUS
 10
46.046443
 20
-79.457932
 11
46.046443
 21
-79.524597
  0
LINE
  8
ボルト／ビス
  6
CONTINUOUS
 10
46.046443
 20
-79.457932
 11
46.446443
 21
-79.457932
  0
LINE
  8
ボルト／ビス
  6
CONTINUOUS
 10
46.446443
 20
-79.457932
 11
46.446443
 21
-79.524597
  0
ENDBLK
  0
BLOCK
  2
*GRP_0039
 70
    65
 10
0.0
 20
0.0
  0
LINE
  8
ボルト／ビス
  6
DOT
 10
46.246443
 20
-57.624597
 11
46.246443
 21
-57.157932
  0
LINE
  8
ボルト／ビス
  6
DOT
 10
45.879777
 20
-57.624597
 11
45.879777
 21
-57.557932
  0
LINE
  8
ボルト／ビス
  6
DOT
 10
45.879777
 20
-57.557932
 11
46.61311
 21
-57.557932
  0
LINE
  8
ボルト／ビス
  6
DOT
 10
46.61311
 20
-57.557932
 11
46.61311
 21
-57.624597
  0
LINE
  8
ボルト／ビス
  6
DOT
 10
45.879777
 20
-57.624597
 11
46.61311
 21
-57.624597
  0
LINE
  8
ボルト／ビス
  6
DOT
 10
45.946443
 20
-57.524597
 11
45.946443
 21
-57.557932
  0
LINE
  8
ボルト／ビス
  6
DOT
 10
45.946443
 20
-57.524597
 11
46.546443
 21
-57.524597
  0
LINE
  8
ボルト／ビス
  6
DOT
 10
46.546443
 20
-57.524597
 11
46.546443
 21
-57.557932
  0
LINE
  8
ボルト／ビス
  6
DOT
 62
    64
 10
46.086067
 20
-57.324597
 11
46.053992
 21
-57.336272
  0
ARC
  8
ボルト／ビス
  6
DOT
 62
    64
 10
46.102107
 20
-57.429578
 40
0.104978
 50
62.721967
 51
90.0
  0
ARC
  8
ボルト／ビス
  6
DOT
 62
    64
 10
46.246444
 20
-57.727001
 40
0.402402
 50
76.165002
 51
103.834985
  0
LINE
  8
ボルト／ビス
  6
DOT
 62
    64
 10
46.406818
 20
-57.324597
 11
46.438892
 21
-57.336272
  0
ARC
  8
ボルト／ビス
  6
DOT
 62
    64
 10
46.390782
 20
-57.429578
 40
0.104978
 50
90.0
 51
117.278033
  0
LINE
  8
ボルト／ビス
  6
DOT
 62
    64
 10
46.086067
 20
-57.324597
 11
46.406818
 21
-57.324597
  0
LINE
  8
ボルト／ビス
  6
DOT
 62
    64
 10
46.438892
 20
-57.336272
 11
46.438892
 21
-57.457932
  0
LINE
  8
ボルト／ビス
  6
DOT
 62
    64
 10
46.342668
 20
-57.336272
 11
46.342668
 21
-57.457932
  0
LINE
  8
ボルト／ビス
  6
DOT
 62
    64
 10
46.053992
 20
-57.336272
 11
46.053992
 21
-57.457932
  0
LINE
  8
ボルト／ビス
  6
DOT
 62
    64
 10
46.150217
 20
-57.336272
 11
46.150217
 21
-57.457932
  0
LINE
  8
ボルト／ビス
  6
DOT
 10
46.053992
 20
-57.457932
 11
46.438892
 21
-57.457932
  0
LINE
  8
ボルト／ビス
  6
DOT
 10
46.046443
 20
-57.457932
 11
46.046443
 21
-57.524597
  0
LINE
  8
ボルト／ビス
  6
DOT
 10
46.046443
 20
-57.457932
 11
46.446443
 21
-57.457932
  0
LINE
  8
ボルト／ビス
  6
DOT
 10
46.446443
 20
-57.457932
 11
46.446443
 21
-57.524597
  0
ENDBLK
  0
BLOCK
  2
*DIM_0040
 70
    65
 10
0.0
 20
0.0
  0
LINE
  8
寸法
  6
BYBLOCK
 62
     0
 10
13.246443
 20
-40.95793
 11
61.549425
 21
-40.95793
  0
LINE
  8
寸法
  6
BYBLOCK
 62
     0
 10
61.549425
 20
-62.95793
 11
61.549425
 21
-40.95793
  0
POINT
  8
寸法
 62
     0
 10
61.549425
 20
-62.95793
  0
POINT
  8
寸法
 62
     0
 10
61.549425
 20
-40.95793
  0
TEXT
  7
TextStyle03
  8
寸法
  6
CONTINUOUS
 62
     0
 10
61.15
 20
-61.1625
  1
上昇高さ660
 40
3.0
 50
90.0
 72
     5
 11
61.15
 21
-42.7875
  0
ENDBLK
  0
ENDSEC
  0
SECTION
  2
ENTITIES
  0
POLYLINE
  8
通り芯
  6
CONTINUOUS
 66
     1
 70
     1
  0
VERTEX
  8
通り芯
 10
-210.0
 20
-148.5
  0
VERTEX
  8
通り芯
 10
210.0
 20
-148.5
  0
VERTEX
  8
通り芯
 10
210.0
 20
148.5
  0
VERTEX
  8
通り芯
 10
-210.0
 20
148.5
  0
SEQEND
  0
INSERT
  2
*GRP_0001
  8
型材断面
  6
CONTINUOUS
 10
0.0
 20
0.0
  0
LINE
  8
型材断面
  6
DASHDOT
 10
45.579775
 20
64.756625
 11
45.579775
 21
-87.251428
  0
LINE
  8
型材断面
  6
DASHDOT
 10
143.256538
 20
-1.910042
 11
-121.086892
 21
-1.910042
  0
LINE
  8
型材断面
  6
DASHDOT
 10
143.256538
 20
31.423293
 11
-121.086892
 21
31.423293
  0
LINE
  8
型材断面
  6
DASHDOT
 10
143.256538
 20
64.756625
 11
-121.086892
 21
64.756625
  0
LINE
  8
型材断面
  6
DASHDOT
 10
-37.753557
 20
64.756625
 11
-37.753557
 21
-87.251428
  0
LINE
  8
型材断面
  6
DASHDOT
 10
-121.086892
 20
64.756625
 11
-121.086892
 21
-87.251428
  0
LINE
  8
型材断面
  6
DOT
 10
13.616445
 20
32.673293
 11
45.579775
 21
32.673293
  0
LINE
  8
型材断面
  6
DOT
 10
13.616445
 20
30.173293
 11
45.579775
 21
30.173293
  0
LINE
  8
型材断面
  6
DOT
 10
11.116445
 20
32.673293
 11
-19.796887
 21
32.673293
  0
LINE
  8
型材断面
  6
DOT
 10
11.116445
 20
30.173293
 11
-19.796887
 21
30.173293
  0
LINE
  8
型材断面
  6
DOT
 10
-22.296887
 20
32.673293
 11
-53.210228
 21
32.673293
  0
LINE
  8
型材断面
  6
DOT
 10
-22.296887
 20
30.173293
 11
-53.210228
 21
30.173293
  0
LINE
  8
型材断面
  6
DOT
 10
-89.12356
 20
32.673293
 11
-121.08689
 21
32.673293
  0
LINE
  8
型材断面
  6
DOT
 10
-89.12356
 20
30.173293
 11
-121.08689
 21
30.173293
  0
LINE
  8
型材断面
  6
DOT
 10
-86.62356
 20
32.673293
 11
-55.710228
 21
32.673293
  0
LINE
  8
型材断面
  6
DOT
 10
-86.62356
 20
30.173293
 11
-55.710228
 21
30.173293
  0
POLYLINE
  8
型材断面
  6
CONTINUOUS
 66
     1
 70
     1
  0
VERTEX
  8
型材断面
 10
-28.31609
 20
-11.012788
  0
VERTEX
  8
型材断面
 10
-47.08802
 20
-11.012788
  0
VERTEX
  8
型材断面
 10
-47.08802
 20
-15.74963
  0
VERTEX
  8
型材断面
 10
-28.31609
 20
-15.74963
  0
SEQEND
  0
POLYLINE
  8
型材断面
  6
CONTINUOUS
 66
     1
 70
     1
  0
VERTEX
  8
型材断面
 10
-28.31609
 20
75.205727
  0
VERTEX
  8
型材断面
 10
-47.08802
 20
75.205727
  0
VERTEX
  8
型材断面
 10
-47.08802
 20
79.94257
  0
VERTEX
  8
型材断面
 10
-28.31609
 20
79.94257
  0
SEQEND
  0
LINE
  8
型材断面
  6
CONTINUOUS
 10
-123.717022
 20
31.423293
 11
-126.30753
 21
32.918923
  0
LINE
  8
型材断面
  6
CONTINUOUS
 10
-123.717022
 20
31.423293
 11
-126.30753
 21
29.927663
  0
LINE
  8
型材断面
  6
CONTINUOUS
 10
-126.30753
 20
29.927663
 11
-126.30753
 21
32.918923
  0
LINE
  8
型材断面
  6
CONTINUOUS
 10
-161.9391
 20
102.734097
 11
-161.343045
 21
100.14359
  0
LINE
  8
型材断面
  6
CONTINUOUS
 10
-161.9391
 20
102.734097
 11
-162.535157
 21
100.14359
  0
LINE
  8
型材断面
  6
CONTINUOUS
 10
-162.535157
 20
100.14359
 11
-161.343045
 21
100.14359
  0
LINE
  8
型材断面
  6
CONTINUOUS
 10
-167.961687
 20
96.864697
 11
-121.71991
 21
96.864697
  0
LINE
  8
型材断面
  6
CONTINUOUS
 10
-161.9391
 20
109.263973
 11
-163.43473
 21
106.673465
  0
LINE
  8
型材断面
  6
CONTINUOUS
 10
-161.9391
 20
109.263973
 11
-160.44347
 21
106.673465
  0
LINE
  8
型材断面
  6
CONTINUOUS
 10
-160.44347
 20
106.673465
 11
-163.43473
 21
106.673465
  0
LINE
  8
型材断面
  6
CONTINUOUS
 10
-167.961687
 20
105.73487
 11
-121.71991
 21
105.73487
  0
LINE
  8
型材断面
  6
CONTINUOUS
 10
-167.961687
 20
91.076665
 11
-121.71991
 21
91.076665
  0
LINE
  8
型材断面
  6
CONTINUOUS
 10
-104.420225
 20
-4.54017
 11
-105.915855
 21
-7.130678
  0
LINE
  8
型材断面
  6
CONTINUOUS
 10
-104.420225
 20
-4.54017
 11
-102.924595
 21
-7.130678
  0
LINE
  8
型材断面
  6
CONTINUOUS
 10
-102.924595
 20
-7.130678
 11
-105.915855
 21
-7.130678
  0
LINE
  8
型材断面
  6
CONTINUOUS
 10
-104.420225
 20
67.386755
 11
-105.915855
 21
69.977262
  0
LINE
  8
型材断面
  6
CONTINUOUS
 10
-104.420225
 20
67.386755
 11
-102.924595
 21
69.977262
  0
LINE
  8
型材断面
  6
CONTINUOUS
 10
-102.924595
 20
69.977262
 11
-105.915855
 21
69.977262
  0
LINE
  8
型材断面
  6
CONTINUOUS
 10
48.209908
 20
31.423293
 11
50.800415
 21
32.918923
  0
LINE
  8
型材断面
  6
CONTINUOUS
 10
48.209908
 20
31.423293
 11
50.800415
 21
29.927663
  0
LINE
  8
型材断面
  6
CONTINUOUS
 10
50.800415
 20
29.927663
 11
50.800415
 21
32.918923
  0
LINE
  8
型材断面
  6
CONTINUOUS
 10
28.91311
 20
-4.54017
 11
30.40874
 21
-7.130678
  0
LINE
  8
型材断面
  6
CONTINUOUS
 10
28.91311
 20
-4.54017
 11
27.41748
 21
-7.130678
  0
LINE
  8
型材断面
  6
CONTINUOUS
 10
27.41748
 20
-7.130678
 11
30.40874
 21
-7.130678
  0
LINE
  8
型材断面
  6
CONTINUOUS
 10
28.91311
 20
67.386755
 11
30.40874
 21
69.977262
  0
LINE
  8
型材断面
  6
CONTINUOUS
 10
28.91311
 20
67.386755
 11
27.41748
 21
69.977262
  0
LINE
  8
型材断面
  6
CONTINUOUS
 10
27.41748
 20
69.977262
 11
30.40874
 21
69.977262
  0
LINE
  8
型材断面
  6
CONTINUOUS
 10
-37.753557
 20
-4.54017
 11
-36.257928
 21
-7.130678
  0
LINE
  8
型材断面
  6
CONTINUOUS
 10
-37.753557
 20
-4.54017
 11
-39.249187
 21
-7.130678
  0
LINE
  8
型材断面
  6
CONTINUOUS
 10
-39.249187
 20
-7.130678
 11
-36.257928
 21
-7.130678
  0
LINE
  8
型材断面
  6
CONTINUOUS
 10
-37.753557
 20
67.386755
 11
-36.257928
 21
69.977262
  0
LINE
  8
型材断面
  6
CONTINUOUS
 10
-37.753557
 20
67.386755
 11
-39.249187
 21
69.977262
  0
LINE
  8
型材断面
  6
CONTINUOUS
 10
-39.249187
 20
69.977262
 11
-36.257928
 21
69.977262
  0
LINE
  8
型材断面
  6
CONTINUOUS
 10
48.209905
 20
61.056627
 11
50.800415
 21
60.460575
  0
LINE
  8
型材断面
  6
CONTINUOUS
 10
48.209905
 20
61.056627
 11
50.800412
 21
61.652687
  0
LINE
  8
型材断面
  6
CONTINUOUS
 10
50.800412
 20
61.652687
 11
50.800415
 21
60.460575
  0
LINE
  8
型材断面
  6
CONTINUOUS
 10
48.209905
 20
1.789957
 11
50.800415
 21
2.38601
  0
LINE
  8
型材断面
  6
CONTINUOUS
 10
48.209905
 20
1.789957
 11
50.800412
 21
1.193897
  0
LINE
  8
型材断面
  6
CONTINUOUS
 10
50.800412
 20
1.193897
 11
50.800415
 21
2.38601
  0
LINE
  8
型材断面
  6
CONTINUOUS
 10
-123.71702
 20
61.056627
 11
-126.30753
 21
60.460575
  0
LINE
  8
型材断面
  6
CONTINUOUS
 10
-123.71702
 20
61.056627
 11
-126.307528
 21
61.652687
  0
LINE
  8
型材断面
  6
CONTINUOUS
 10
-126.307528
 20
61.652687
 11
-126.30753
 21
60.460575
  0
LINE
  8
型材断面
  6
CONTINUOUS
 10
-123.71702
 20
1.789957
 11
-126.30753
 21
2.38601
  0
LINE
  8
型材断面
  6
CONTINUOUS
 10
-123.71702
 20
1.789957
 11
-126.307528
 21
1.193897
  0
LINE
  8
型材断面
  6
CONTINUOUS
 10
-126.307528
 20
1.193897
 11
-126.30753
 21
2.38601
  0
INSERT
  2
*GRP_0012
  8
型材断面
  6
CONTINUOUS
 10
0.0
 20
0.0
  0
INSERT
  2
*GRP_0013
  8
型材断面
  6
CONTINUOUS
 10
0.0
 20
0.0
  0
INSERT
  2
*GRP_0014
  8
型材断面
  6
CONTINUOUS
 10
0.0
 20
0.0
  0
INSERT
  2
*GRP_0015
  8
型材断面
  6
CONTINUOUS
 10
0.0
 20
0.0
  0
INSERT
  2
*GRP_0016
  8
型材断面
  6
CONTINUOUS
 10
0.0
 20
0.0
  0
INSERT
  2
*GRP_0017
  8
型材断面
  6
CONTINUOUS
 10
0.0
 20
0.0
  0
LINE
  8
型材断面
  6
CONTINUOUS
 62
    47
 10
142.646543
 20
-3.393378
 11
142.146543
 21
-3.393378
  0
LINE
  8
型材断面
  6
CONTINUOUS
 62
    47
 10
142.146543
 20
-3.893378
 11
138.829875
 21
-3.893378
  0
LINE
  8
型材断面
  6
CONTINUOUS
 62
    47
 10
136.489825
 20
-3.893378
 11
138.663157
 21
-3.893378
  0
LINE
  8
型材断面
  6
CONTINUOUS
 62
    47
 10
136.489825
 20
-3.010042
 11
136.11304
 21
-3.010042
  0
LINE
  8
型材断面
  6
CONTINUOUS
 62
    47
 10
142.646543
 20
-3.393378
 11
142.646543
 21
31.42329
  0
LINE
  8
型材断面
  6
CONTINUOUS
 62
    47
 10
142.146543
 20
-3.893378
 11
142.146543
 21
31.42329
  0
LINE
  8
型材断面
  6
CONTINUOUS
 62
    47
 10
138.829875
 20
-3.893378
 11
138.829805
 21
31.42329
  0
LINE
  8
型材断面
  6
CONTINUOUS
 62
    47
 10
138.663157
 20
-3.893378
 11
138.663157
 21
31.42329
  0
LINE
  8
型材断面
  6
CONTINUOUS
 62
    47
 10
136.489825
 20
-3.893378
 11
136.489825
 21
31.42329
  0
LINE
  8
型材断面
  6
CONTINUOUS
 62
    47
 10
142.646543
 20
66.239957
 11
142.146543
 21
66.239957
  0
LINE
  8
型材断面
  6
CONTINUOUS
 62
    47
 10
142.146543
 20
66.739957
 11
138.829875
 21
66.739957
  0
LINE
  8
型材断面
  6
CONTINUOUS
 62
    47
 10
136.489825
 20
66.739957
 11
138.663157
 21
66.739957
  0
LINE
  8
型材断面
  6
CONTINUOUS
 62
    47
 10
136.489825
 20
65.856623
 11
136.11304
 21
65.856623
  0
LINE
  8
型材断面
  6
CONTINUOUS
 62
    47
 10
142.646543
 20
66.239957
 11
142.646543
 21
31.42329
  0
LINE
  8
型材断面
  6
CONTINUOUS
 62
    47
 10
142.146543
 20
66.739957
 11
142.146543
 21
31.42329
  0
LINE
  8
型材断面
  6
CONTINUOUS
 62
    47
 10
138.829875
 20
66.739957
 11
138.829805
 21
31.42329
  0
LINE
  8
型材断面
  6
CONTINUOUS
 62
    47
 10
138.663157
 20
66.739957
 11
138.663157
 21
31.42329
  0
LINE
  8
型材断面
  6
CONTINUOUS
 62
    47
 10
136.489825
 20
66.739957
 11
136.489825
 21
31.42329
  0
LINE
  8
型材断面
  6
CONTINUOUS
 62
    47
 10
47.06311
 20
-87.1581
 11
47.06311
 21
-86.6581
  0
LINE
  8
型材断面
  6
CONTINUOUS
 62
    47
 10
47.56311
 20
-86.6581
 11
47.56311
 21
-83.341432
  0
LINE
  8
型材断面
  6
CONTINUOUS
 62
    47
 10
47.56311
 20
-81.001383
 11
47.56311
 21
-83.174715
  0
LINE
  8
型材断面
  6
CONTINUOUS
 62
    47
 10
46.679777
 20
-81.001383
 11
46.679777
 21
-80.624597
  0
LINE
  8
型材断面
  6
CONTINUOUS
 62
    47
 10
47.06311
 20
-87.1581
 11
-37.753557
 21
-87.1581
  0
LINE
  8
型材断面
  6
CONTINUOUS
 62
    47
 10
47.56311
 20
-86.6581
 11
-37.753557
 21
-86.6581
  0
LINE
  8
型材断面
  6
CONTINUOUS
 62
    47
 10
47.56311
 20
-83.341432
 11
-37.753557
 21
-83.341273
  0
LINE
  8
型材断面
  6
CONTINUOUS
 62
    47
 10
47.56311
 20
-83.174715
 11
-37.753557
 21
-83.174715
  0
LINE
  8
型材断面
  6
CONTINUOUS
 62
    47
 10
47.56311
 20
-81.001383
 11
-37.753557
 21
-81.001383
  0
LINE
  8
型材断面
  6
CONTINUOUS
 62
    47
 10
-122.570225
 20
-87.1581
 11
-122.570225
 21
-86.6581
  0
LINE
  8
型材断面
  6
CONTINUOUS
 62
    47
 10
-123.070225
 20
-86.6581
 11
-123.070225
 21
-83.341432
  0
LINE
  8
型材断面
  6
CONTINUOUS
 62
    47
 10
-123.070225
 20
-81.001383
 11
-123.070225
 21
-83.174715
  0
LINE
  8
型材断面
  6
CONTINUOUS
 62
    47
 10
-122.186892
 20
-81.001383
 11
-122.186892
 21
-80.624597
  0
LINE
  8
型材断面
  6
CONTINUOUS
 62
    47
 10
-122.570225
 20
-87.1581
 11
-37.753557
 21
-87.1581
  0
LINE
  8
型材断面
  6
CONTINUOUS
 62
    47
 10
-123.070225
 20
-86.6581
 11
-37.753557
 21
-86.6581
  0
LINE
  8
型材断面
  6
CONTINUOUS
 62
    47
 10
-123.070225
 20
-83.341432
 11
-37.753557
 21
-83.341273
  0
LINE
  8
型材断面
  6
CONTINUOUS
 62
    47
 10
-123.070225
 20
-83.174715
 11
-37.753557
 21
-83.174715
  0
LINE
  8
型材断面
  6
CONTINUOUS
 62
    47
 10
-123.070225
 20
-81.001383
 11
-37.753557
 21
-81.001383
  0
LINE
  8
型材断面
  6
CONTINUOUS
 10
-167.961687
 20
85.288632
 11
-121.71991
 21
85.288632
  0
LINE
  8
型材断面
  6
DASHDOT
 10
-87.873557
 20
-1.910042
 11
-87.873557
 21
64.756625
  0
LINE
  8
型材断面
  6
DOT
 10
-89.123557
 20
-1.910042
 11
-89.123557
 21
64.756625
  0
LINE
  8
型材断面
  6
DOT
 10
-86.623557
 20
-1.910042
 11
-86.623557
 21
64.756625
  0
LINE
  8
型材断面
  6
DASHDOT
 10
-54.460222
 20
-1.910042
 11
-54.460222
 21
64.756625
  0
LINE
  8
型材断面
  6
DOT
 10
-55.710222
 20
-1.910042
 11
-55.710222
 21
64.756625
  0
LINE
  8
型材断面
  6
DOT
 10
-53.210222
 20
-1.910042
 11
-53.210222
 21
64.756625
  0
LINE
  8
型材断面
  6
DASHDOT
 10
12.366443
 20
-1.910042
 11
12.366443
 21
64.756625
  0
LINE
  8
型材断面
  6
DOT
 10
13.616443
 20
-1.910042
 11
13.616443
 21
64.756625
  0
LINE
  8
型材断面
  6
DOT
 10
11.116443
 20
-1.910042
 11
11.116443
 21
64.756625
  0
LINE
  8
型材断面
  6
DASHDOT
 10
-21.046893
 20
-1.910042
 11
-21.046893
 21
64.756625
  0
LINE
  8
型材断面
  6
DOT
 10
-19.796893
 20
-1.910042
 11
-19.796893
 21
64.756625
  0
LINE
  8
型材断面
  6
DOT
 10
-22.296893
 20
-1.910042
 11
-22.296893
 21
64.756625
  0
TEXT
  7
TextStyle03
  8
文字
  6
CONTINUOUS
 10
113.55
 20
-83.825
  1
網入り6.8t
 40
3.0
 72
     5
 11
130.2375
 21
-83.825
  0
TEXT
  7
TextStyle03
  8
文字
  6
CONTINUOUS
 10
117.15
 20
-88.45
  1
×１０枚
 40
3.0
 72
     5
 11
130.275
 21
-88.45
  0
TEXT
  7
TextStyle03
  8
文字
  6
CONTINUOUS
 10
-46.025
 20
-14.7
  1
可動装置側
 40
3.0
 72
     5
 11
-29.525
 21
-14.7
  0
TEXT
  7
TextStyle03
  8
文字
  6
CONTINUOUS
 10
-46.025
 20
75.975
  1
可動装置側
 40
3.0
 72
     5
 11
-29.525
 21
75.975
  0
TEXT
  7
TextStyle03
  8
文字
  6
CONTINUOUS
 10
-159.125
 20
101.325
  1
はケーシング位置を示す
 40
3.0
 72
     5
 11
-122.375
 21
101.325
  0
TEXT
  7
TextStyle03
  8
文字
  6
CONTINUOUS
 10
-159.125
 20
97.95
  1
４ヶ所中1ヶ所に設定
 40
3.0
 72
     5
 11
-127.4375
 21
97.95
  0
TEXT
  7
TextStyle03
  8
文字
  6
CONTINUOUS
 10
-159.125
 20
106.85
  1
は排水穴位置を示す
 40
3.0
 72
     5
 11
-129.125
 21
106.85
  0
TEXT
  7
TextStyle03
  8
文字
  6
CONTINUOUS
 10
-159.8
 20
2.025
  1
アンカーピッチ
 40
3.0
 50
90.0
 72
     5
 11
-159.8
 21
25.275
  0
TEXT
  7
TextStyle03
  8
文字
  6
CONTINUOUS
 10
-110.35
 20
102.175
  1
アンカーピッチ
 40
3.0
 72
     5
 11
-87.1
 21
102.175
  0
TEXT
  7
TextStyle03
  8
文字
  6
CONTINUOUS
 10
-162.85
 20
91.975
  1
アンカー数量　２０ヶ所
 40
3.0
 72
     5
 11
-126.1
 21
91.975
  0
TEXT
  7
TextStyle03
  8
文字
  6
CONTINUOUS
 10
-162.925
 20
86.2
  1
アームユニット数　６ヶ所
 40
3.0
 72
     5
 11
-122.8
 21
86.2
  0
TEXT
  7
TextStyle03
  8
文字
  6
CONTINUOUS
 10
78.1
 20
125.25
  1
シリーズ：ＴＤ２Ｌ
 40
5.0
 72
     5
 11
128.1
 21
125.25
  0
TEXT
  7
TextStyle03
  8
文字
  6
CONTINUOUS
 10
78.1
 20
119.625
  1
　　　　　（上下可動）2000×5000タイプ
 40
5.0
 72
     5
 11
184.35
 21
119.625
  0
TEXT
  7
TextStyle03
  8
文字
  6
CONTINUOUS
 10
78.1
 20
114.0
  1
図面名　：外観姿図
 40
5.0
 72
     5
 11
128.1
 21
114.0
  0
TEXT
  7
TextStyle03
  8
文字
  6
CONTINUOUS
 10
78.1
 20
108.375
  1
　　　　　　
 40
5.0
 72
     5
 11
111.225
 21
108.375
  0
TEXT
  7
TextStyle03
  8
文字
  6
CONTINUOUS
 10
77.125
 20
103.95
  1
ＮＳコード：ＮＳＤＺＬ
 40
5.0
 72
     5
 11
138.375
 21
103.95
  0
INSERT
  2
*DIM_0002
  8
寸法
  6
CONTINUOUS
 10
0.0
 20
0.0
  0
INSERT
  2
*DIM_0003
  8
寸法
  6
CONTINUOUS
 10
0.0
 20
0.0
  0
INSERT
  2
*DIM_0004
  8
寸法
  6
CONTINUOUS
 10
0.0
 20
0.0
  0
INSERT
  2
*DIM_0005
  8
寸法
  6
CONTINUOUS
 10
0.0
 20
0.0
  0
INSERT
  2
*DIM_0006
  8
寸法
  6
CONTINUOUS
 10
0.0
 20
0.0
  0
INSERT
  2
*DIM_0007
  8
寸法
  6
CONTINUOUS
 10
0.0
 20
0.0
  0
INSERT
  2
*DIM_0008
  8
寸法
  6
CONTINUOUS
 10
0.0
 20
0.0
  0
INSERT
  2
*DIM_0009
  8
寸法
  6
CONTINUOUS
 10
0.0
 20
0.0
  0
INSERT
  2
*DIM_0010
  8
寸法
  6
CONTINUOUS
 10
0.0
 20
0.0
  0
INSERT
  2
*DIM_0018
  8
寸法
  6
CONTINUOUS
 10
0.0
 20
0.0
  0
INSERT
  2
*DIM_0019
  8
寸法
  6
CONTINUOUS
 10
0.0
 20
0.0
  0
INSERT
  2
*DIM_0020
  8
寸法
  6
CONTINUOUS
 10
0.0
 20
0.0
  0
INSERT
  2
*DIM_0021
  8
寸法
  6
CONTINUOUS
 10
0.0
 20
0.0
  0
INSERT
  2
*DIM_0022
  8
寸法
  6
CONTINUOUS
 10
0.0
 20
0.0
  0
INSERT
  2
*DIM_0023
  8
寸法
  6
CONTINUOUS
 10
0.0
 20
0.0
  0
INSERT
  2
*DIM_0024
  8
寸法
  6
CONTINUOUS
 10
0.0
 20
0.0
  0
INSERT
  2
*DIM_0025
  8
寸法
  6
CONTINUOUS
 10
0.0
 20
0.0
  0
INSERT
  2
*DIM_0026
  8
寸法
  6
CONTINUOUS
 10
0.0
 20
0.0
  0
INSERT
  2
*DIM_0027
  8
寸法
  6
CONTINUOUS
 10
0.0
 20
0.0
  0
INSERT
  2
*DIM_0028
  8
寸法
  6
CONTINUOUS
 10
0.0
 20
0.0
  0
INSERT
  2
*DIM_0029
  8
寸法
  6
CONTINUOUS
 10
0.0
 20
0.0
  0
INSERT
  2
*DIM_0030
  8
寸法
  6
CONTINUOUS
 10
0.0
 20
0.0
  0
INSERT
  2
*DIM_0031
  8
寸法
  6
CONTINUOUS
 10
0.0
 20
0.0
  0
INSERT
  2
*DIM_0032
  8
寸法
  6
CONTINUOUS
 10
0.0
 20
0.0
  0
INSERT
  2
*DIM_0040
  8
寸法
  6
CONTINUOUS
 10
0.0
 20
0.0
  0
LINE
  8
別途部材
  6
CONTINUOUS
 10
47.646443
 20
-3.97671
 11
47.246443
 21
-3.57671
  0
LINE
  8
別途部材
  6
CONTINUOUS
 10
45.579775
 20
-1.910042
 11
37.52052
 21
6.149215
  0
LINE
  8
別途部材
  6
CONTINUOUS
 10
47.646443
 20
-3.97671
 11
47.646443
 21
31.423293
  0
LINE
  8
別途部材
  6
CONTINUOUS
 10
47.246443
 20
-3.57671
 11
47.246443
 21
31.423293
  0
LINE
  8
別途部材
  6
CONTINUOUS
 10
47.646443
 20
66.823295
 11
47.246443
 21
66.423295
  0
LINE
  8
別途部材
  6
CONTINUOUS
 10
45.579775
 20
64.756627
 11
37.52052
 21
56.69737
  0
LINE
  8
別途部材
  6
CONTINUOUS
 10
47.646443
 20
66.823295
 11
47.646443
 21
31.423293
  0
LINE
  8
別途部材
  6
CONTINUOUS
 10
47.246443
 20
66.423295
 11
47.246443
 21
31.423293
  0
LINE
  8
別途部材
  6
CONTINUOUS
 62
    96
 10
135.11304
 20
-3.57671
 11
136.11304
 21
-3.97671
  0
ARC
  8
別途部材
  6
CONTINUOUS
 10
160.113036
 20
31.42329
 40
41.666665
 50
180.0
 51
233.130105
  0
ARC
  8
別途部材
  6
CONTINUOUS
 10
160.113036
 20
31.423291
 40
41.666665
 50
126.869895
 51
180.0
  0
LINE
  8
別途部材
  6
CONTINUOUS
 10
136.11304
 20
-3.97671
 11
136.11304
 21
31.42329
  0
LINE
  8
別途部材
  6
CONTINUOUS
 62
    96
 10
135.11304
 20
-3.57671
 11
135.11304
 21
31.42329
  0
LINE
  8
別途部材
  6
CONTINUOUS
 62
    96
 10
135.11304
 20
66.42329
 11
136.11304
 21
66.82329
  0
LINE
  8
別途部材
  6
CONTINUOUS
 10
136.11304
 20
66.82329
 11
136.11304
 21
31.42329
  0
LINE
  8
別途部材
  6
CONTINUOUS
 62
    96
 10
135.11304
 20
66.42329
 11
135.11304
 21
31.42329
  0
LINE
  8
別途部材
  6
CONTINUOUS
 10
47.246443
 20
-3.57671
 11
-37.753557
 21
-3.57671
  0
LINE
  8
別途部材
  6
CONTINUOUS
 10
47.646443
 20
-3.97671
 11
-37.753557
 21
-3.97671
  0
LINE
  8
別途部材
  6
CONTINUOUS
 10
47.246443
 20
66.423295
 11
-37.753557
 21
66.423295
  0
LINE
  8
別途部材
  6
CONTINUOUS
 10
47.646443
 20
66.823295
 11
-37.753557
 21
66.823295
  0
LINE
  8
別途部材
  6
CONTINUOUS
 10
-123.153557
 20
-3.97671
 11
-122.753557
 21
-3.57671
  0
LINE
  8
別途部材
  6
CONTINUOUS
 10
-121.08689
 20
-1.910042
 11
-113.027635
 21
6.149215
  0
LINE
  8
別途部材
  6
CONTINUOUS
 10
-123.153557
 20
-3.97671
 11
-123.153557
 21
31.423293
  0
LINE
  8
別途部材
  6
CONTINUOUS
 10
-122.753557
 20
-3.57671
 11
-122.753557
 21
31.423293
  0
LINE
  8
別途部材
  6
CONTINUOUS
 10
-123.153557
 20
66.823295
 11
-122.753557
 21
66.423295
  0
LINE
  8
別途部材
  6
CONTINUOUS
 10
-121.08689
 20
64.756627
 11
-113.027635
 21
56.69737
  0
LINE
  8
別途部材
  6
CONTINUOUS
 10
-123.153557
 20
66.823295
 11
-123.153557
 21
31.423293
  0
LINE
  8
別途部材
  6
CONTINUOUS
 10
-122.753557
 20
66.423295
 11
-122.753557
 21
31.423293
  0
LINE
  8
別途部材
  6
CONTINUOUS
 10
-122.753557
 20
-3.57671
 11
-37.753557
 21
-3.57671
  0
LINE
  8
別途部材
  6
CONTINUOUS
 10
-123.153557
 20
-3.97671
 11
-37.753557
 21
-3.97671
  0
LINE
  8
別途部材
  6
CONTINUOUS
 10
-122.753557
 20
66.423295
 11
-37.753557
 21
66.423295
  0
LINE
  8
別途部材
  6
CONTINUOUS
 10
-123.153557
 20
66.823295
 11
-37.753557
 21
66.823295
  0
INSERT
  2
*GRP_0011
  8
別途部材
  6
CONTINUOUS
 10
0.0
 20
0.0
  0
LINE
  8
別途部材
  6
DOT
 62
    96
 10
47.246443
 20
-57.624597
 11
47.646443
 21
-58.624597
  0
ARC
  8
別途部材
  6
DOT
 10
12.246442
 20
-82.624595
 40
41.666665
 50
36.869895
 51
90.0
  0
LINE
  8
別途部材
  6
DOT
 10
12.246443
 20
-40.95793
 11
-37.753557
 21
-40.95793
  0
LINE
  8
別途部材
  6
DOT
 62
    96
 10
47.246443
 20
-57.624597
 11
-37.753557
 21
-57.624597
  0
LINE
  8
別途部材
  6
DOT
 10
47.646443
 20
-58.624597
 11
-37.753557
 21
-58.624597
  0
LINE
  8
別途部材
  6
DOT
 62
    96
 10
-122.753557
 20
-57.624597
 11
-123.153557
 21
-58.624597
  0
ARC
  8
別途部材
  6
DOT
 10
-87.753558
 20
-82.624595
 40
41.666665
 50
90.0
 51
143.130105
  0
LINE
  8
別途部材
  6
DOT
 10
-87.753557
 20
-40.95793
 11
-37.753557
 21
-40.95793
  0
LINE
  8
別途部材
  6
DOT
 62
    96
 10
-122.753557
 20
-57.624597
 11
-37.753557
 21
-57.624597
  0
LINE
  8
別途部材
  6
DOT
 10
-123.153557
 20
-58.624597
 11
-37.753557
 21
-58.624597
  0
INSERT
  2
*GRP_0034
  8
別途部材
  6
DOT
 10
0.0
 20
0.0
  0
INSERT
  2
*GRP_0035
  8
別途部材
  6
DOT
 10
0.0
 20
0.0
  0
INSERT
  2
*GRP_0036
  8
別途部材
  6
DOT
 10
0.0
 20
0.0
  0
INSERT
  2
*GRP_0037
  8
別途部材
  6
DOT
 10
0.0
 20
0.0
  0
INSERT
  2
*GRP_0038
  8
別途部材
  6
DOT
 10
0.0
 20
0.0
  0
INSERT
  2
*GRP_0039
  8
別途部材
  6
DOT
 10
0.0
 20
0.0
  0
LINE
  8
曲げ物
  6
CONTINUOUS
 10
133.229935
 20
-90.759512
 11
100.883267
 21
-90.759512
  0
LINE
  8
曲げ物
  6
CONTINUOUS
 10
100.883267
 20
-90.759512
 11
100.883267
 21
-58.292845
  0
LINE
  8
曲げ物
  6
CONTINUOUS
 10
100.883267
 20
-58.292845
 11
133.229935
 21
-58.292845
  0
LINE
  8
曲げ物
  6
CONTINUOUS
 10
133.229935
 20
-90.759512
 11
133.229935
 21
-58.292845
  0
ENDSEC
  0
EOF
