  0
SECTION
  2
HEADER
  9
$EXTMIN
 10
-210.0
 20
-148.5
  9
$EXTMAX
 10
210.0
 20
148.5
  9
$PDMODE
 70
    32
  9
$PDSIZE
 40
1.5
  9
$LTSCALE
 40
10.0
  0
ENDSEC
  0
SECTION
  2
TABLES
  0
TABLE
  2
LTYPE
 70
    15
  0
LTYPE
  2
CONTINUOUS
 70
    64
  3
実線
 72
    65
 73
     0
 40
0.0
  0
LTYPE
  2
DASHED
 70
    64
  3
破線A
 72
    65
 73
     2
 40
0.6
 49
0.4
 49
-0.2
  0
LTYPE
  2
DASHEDX2
 70
    64
  3
破線B
 72
    65
 73
     2
 40
1.3
 49
0.9
 49
-0.4
  0
LTYPE
  2
DASHDOT
 70
    64
  3
１点鎖線A
 72
    65
 73
     4
 40
0.5375
 49
0.375
 49
-0.05
 49
0.0625
 49
-0.05
  0
LTYPE
  2
DASHDOTX2
 70
    64
  3
１点鎖線B
 72
    65
 73
     4
 40
1.075
 49
0.75
 49
-0.1
 49
0.125
 49
-0.1
  0
LTYPE
  2
DIVIDE2
 70
    64
  3
２点鎖線A
 72
    65
 73
     6
 40
0.5125
 49
0.3
 49
-0.0375
 49
0.05
 49
-0.0375
 49
0.05
 49
-0.0375
  0
LTYPE
  2
DIVIDE
 70
    64
  3
２点鎖線B
 72
    65
 73
     6
 40
1.05
 49
0.55
 49
-0.1
 49
0.1
 49
-0.1
 49
0.1
 49
-0.1
  0
LTYPE
  2
DOT
 70
    64
  3
点線A
 72
    65
 73
     2
 40
0.1125
 49
0.0625
 49
-0.05
  0
LTYPE
  2
DOTX2
 70
    64
  3
点線B
 72
    65
 73
     2
 40
0.275
 49
0.15
 49
-0.125
  0
LTYPE
  2
CONTINUOUS
 70
    64
  3
実線
 72
    65
 73
     0
 40
0.0
  0
LTYPE
  2
CONTINUOUS
 70
    64
  3
実線
 72
    65
 73
     0
 40
0.0
  0
LTYPE
  2
CONTINUOUS
 70
    64
  3
実線
 72
    65
 73
     0
 40
0.0
  0
LTYPE
  2
CONTINUOUS
 70
    64
  3
実線
 72
    65
 73
     0
 40
0.0
  0
LTYPE
  2
CONTINUOUS
 70
    64
  3
実線
 72
    65
 73
     0
 40
0.0
  0
LTYPE
  2
CONTINUOUS
 70
    64
  3
実線
 72
    65
 73
     0
 40
0.0
  0
ENDTAB
  0
TABLE
  2
LAYER
 70
    34
  0
LAYER
  2
通り芯
 70
     0
 62
    15
  6
CONTINUOUS
  0
LAYER
  2
補助線
 70
     0
 62
    16
  6
DOT
  0
LAYER
  2
躯体
 70
     0
 62
    31
  6
CONTINUOUS
  0
LAYER
  2
型材
 70
     0
 62
    32
  6
CONTINUOUS
  0
LAYER
  2
型材断面
 70
     0
 62
    47
  6
CONTINUOUS
  0
LAYER
  2
ガラス
 70
     0
 62
    48
  6
CONTINUOUS
  0
LAYER
  2
ゴム等
 70
     0
 62
    63
  6
CONTINUOUS
  0
LAYER
  2
ボルト／ビス
 70
     0
 62
    64
  6
CONTINUOUS
  0
LAYER
  2
文字
 70
     0
 62
    79
  6
CONTINUOUS
  0
LAYER
  2
寸法
 70
     0
 62
    80
  6
CONTINUOUS
  0
LAYER
  2
ﾊｯﾁﾝｸﾞ
 70
     0
 62
    95
  6
CONTINUOUS
  0
LAYER
  2
別途部材
 70
     0
 62
    96
  6
CONTINUOUS
  0
LAYER
  2
曲げ物
 70
     0
 62
   111
  6
CONTINUOUS
  0
LAYER
  2
鉄骨等
 70
     0
 62
   112
  6
CONTINUOUS
  0
LAYER
  2
St
 70
     0
 62
   127
  6
CONTINUOUS
  0
LAYER
  2
その他部品等
 70
     0
 62
   128
  6
CONTINUOUS
  0
LAYER
  2
ｶﾞｽｹｯﾄ
 70
     0
 62
   143
  6
CONTINUOUS
  0
LAYER
  2
ｽｹｯﾁ
 70
     0
 62
    14
  6
CONTINUOUS
  0
LAYER
  2
0
 70
     0
 62
    17
  6
CONTINUOUS
  0
LAYER
  2
1
 70
     0
 62
    30
  6
CONTINUOUS
  0
LAYER
  2
4
 70
     0
 62
    33
  6
CONTINUOUS
  0
LAYER
  2
ﾚｲﾔ3
 70
     0
 62
    46
  6
CONTINUOUS
  0
LAYER
  2
外形線
 70
     0
 62
    49
  6
CONTINUOUS
  0
LAYER
  2
部品
 70
     0
 62
    14
  6
CONTINUOUS
  0
LAYER
  2
サッシ芯
 70
     0
 62
    17
  6
DASHDOTX2
  0
LAYER
  2
寸法線
 70
     0
 62
    62
  6
CONTINUOUS
  0
LAYER
  2
姿図外形線
 70
     0
 62
    65
  6
CONTINUOUS
  0
LAYER
  2
姿補助線
 70
     0
 62
    30
  6
CONTINUOUS
  0
LAYER
  2
透視線
 70
     0
 62
    78
  6
DOT
  0
LAYER
  2
用紙
 70
     0
 62
    81
  6
CONTINUOUS
  0
LAYER
  2
実線図枠
 70
     0
 62
    94
  6
CONTINUOUS
  0
LAYER
  2
補助図枠
 70
     0
 62
    97
  6
CONTINUOUS
  0
LAYER
  2
建具記号
 70
     0
 62
   110
  6
CONTINUOUS
  0
LAYER
  2
補助文字
 70
     0
 62
   113
  6
CONTINUOUS
  0
ENDTAB
  0
TABLE
  2
STYLE
 70
    10
  0
STYLE
  2
STANDARD
 70
     0
 40
1.0
 41
1.0
 42
1.0
 50
0.0
 71
     0
  3
TXT
  4
BIGFONT
  0
STYLE
  2
TATE
 70
     4
 40
1.0
 41
1.0
 42
1.0
 50
0.0
 71
     0
  3
TXT
  4
BIGFONT
  0
STYLE
  2
TextStyle03
 70
     0
 40
1.0
 41
1.0
 42
1.0
 50
0.0
 71
     0
  3
MONOTXT
  4
BIGFONT
  0
STYLE
  2
TextStyle04
 70
     0
 40
1.0
 41
1.0
 42
1.0
 50
0.0
 71
     0
  3
MONOTXT
  4
BIGFONT
  0
STYLE
  2
TextStyle05
 70
     0
 40
1.0
 41
1.0
 42
1.0
 50
0.0
 71
     0
  3
MONOTXT
  4
BIGFONT
  0
STYLE
  2
TextStyle06
 70
     0
 40
1.0
 41
1.0
 42
1.0
 50
0.0
 71
     0
  3
MONOTXT
  4
BIGFONT
  0
STYLE
  2
TextStyle07
 70
     0
 40
1.0
 41
1.0
 42
1.0
 50
0.0
 71
     0
  3
MONOTXT
  4
BIGFONT
  0
STYLE
  2
TextStyle08
 70
     0
 40
1.0
 41
1.0
 42
1.0
 50
0.0
 71
     0
  3
MONOTXT
  4
BIGFONT
  0
STYLE
  2
TextStyle09
 70
     0
 40
1.0
 41
1.0
 42
1.0
 50
0.0
 71
     0
  3
MONOTXT
  4
BIGFONT
  0
STYLE
  2
TextStyle10
 70
     0
 40
1.0
 41
1.0
 42
1.0
 50
0.0
 71
     0
  3
MONOTXT
  4
BIGFONT
  0
ENDTAB
  0
ENDSEC
  0
SECTION
  2
BLOCKS
  0
BLOCK
  2
*GRP_0001
 70
    65
 10
0.0
 20
0.0
  0
LINE
  8
型材断面
  6
CONTINUOUS
 10
195.0
 20
133.5
 11
195.0
 21
-133.5
  0
LINE
  8
型材断面
  6
CONTINUOUS
 10
195.0
 20
-133.5
 11
-185.0
 21
-133.5
  0
LINE
  8
型材断面
  6
CONTINUOUS
 10
-185.0
 20
-133.5
 11
-185.0
 21
133.5
  0
LINE
  8
型材断面
  6
CONTINUOUS
 10
195.0
 20
133.5
 11
-185.0
 21
133.5
  0
LINE
  8
型材断面
  6
CONTINUOUS
 10
145.0
 20
-133.5
 11
145.0
 21
-118.5
  0
LINE
  8
型材断面
  6
CONTINUOUS
 10
195.0
 20
-118.5
 11
145.0
 21
-118.5
  0
ENDBLK
  0
BLOCK
  2
*DIM_0002
 70
    65
 10
0.0
 20
0.0
  0
LINE
  8
寸法
  6
BYBLOCK
 62
     0
 10
167.343563
 20
-49.867045
 11
175.77841
 21
-49.867045
  0
LINE
  8
寸法
  6
BYBLOCK
 62
     0
 10
167.343563
 20
-92.533713
 11
175.77841
 21
-92.533713
  0
LINE
  8
寸法
  6
BYBLOCK
 62
     0
 10
175.77841
 20
-49.867045
 11
175.77841
 21
-92.533713
  0
POINT
  8
寸法
 62
     0
 10
175.77841
 20
-49.867045
  0
POINT
  8
寸法
 62
     0
 10
175.77841
 20
-92.533713
  0
TEXT
  7
TextStyle03
  8
寸法
  6
CONTINUOUS
 62
     0
 10
175.4
 20
-74.48125
  1
1280
 40
3.0
 50
90.0
 72
     5
 11
175.4
 21
-67.91875
  0
ENDBLK
  0
BLOCK
  2
*DIM_0003
 70
    65
 10
0.0
 20
0.0
  0
LINE
  8
寸法
  6
BYBLOCK
 62
     0
 10
71.257007
 20
-22.536362
 11
-112.076325
 21
-22.536362
  0
POINT
  8
寸法
 62
     0
 10
71.257007
 20
-22.536362
  0
POINT
  8
寸法
 62
     0
 10
-112.076325
 20
-22.536362
  0
TEXT
  7
TextStyle03
  8
寸法
  6
CONTINUOUS
 62
     0
 10
-32.14375
 20
-22.175
  1
呼称寸法　5500
 40
3.0
 72
     5
 11
-8.70625
 21
-22.175
  0
ENDBLK
  0
BLOCK
  2
*DIM_0004
 70
    65
 10
0.0
 20
0.0
  0
LINE
  8
寸法
  6
BYBLOCK
 62
     0
 10
130.663563
 20
-48.867045
 11
130.663563
 21
-41.211578
  0
LINE
  8
寸法
  6
BYBLOCK
 62
     0
 10
166.343563
 20
-48.867045
 11
166.343563
 21
-41.211578
  0
LINE
  8
寸法
  6
BYBLOCK
 62
     0
 10
130.663563
 20
-41.211578
 11
166.343563
 21
-41.211578
  0
POINT
  8
寸法
 62
     0
 10
130.663563
 20
-41.211578
  0
POINT
  8
寸法
 62
     0
 10
166.343563
 20
-41.211578
  0
TEXT
  7
TextStyle03
  8
寸法
  6
CONTINUOUS
 62
     0
 10
143.53125
 20
-40.85
  1
1070.4
 40
3.0
 72
     5
 11
153.46875
 21
-40.85
  0
ENDBLK
  0
BLOCK
  2
*DIM_0005
 70
    65
 10
0.0
 20
0.0
  0
LINE
  8
寸法
  6
BYBLOCK
 62
     0
 10
-95.409657
 20
9.76892
 11
-95.409657
 21
4.438815
  0
LINE
  8
寸法
  6
BYBLOCK
 62
     0
 10
-20.40966
 20
9.76892
 11
-20.40966
 21
4.438815
  0
LINE
  8
寸法
  6
BYBLOCK
 62
     0
 10
-95.409657
 20
4.438815
 11
-20.40966
 21
4.438815
  0
POINT
  8
寸法
 62
     0
 10
-95.409657
 20
4.438815
  0
POINT
  8
寸法
 62
     0
 10
-20.40966
 20
4.438815
  0
TEXT
  7
TextStyle03
  8
寸法
  6
CONTINUOUS
 62
     0
 10
-61.20625
 20
4.8
  1
2250
 40
3.0
 72
     5
 11
-54.64375
 21
4.8
  0
ENDBLK
  0
BLOCK
  2
*DIM_0006
 70
    65
 10
0.0
 20
0.0
  0
LINE
  8
寸法
  6
BYBLOCK
 62
     0
 10
54.590337
 20
9.76892
 11
54.590337
 21
4.438815
  0
LINE
  8
寸法
  6
BYBLOCK
 62
     0
 10
-20.40966
 20
4.438815
 11
54.590337
 21
4.438815
  0
POINT
  8
寸法
 62
     0
 10
54.590337
 20
4.438815
  0
TEXT
  7
TextStyle03
  8
寸法
  6
CONTINUOUS
 62
     0
 10
13.79375
 20
4.8
  1
2250
 40
3.0
 72
     5
 11
20.35625
 21
4.8
  0
ENDBLK
  0
BLOCK
  2
*DIM_0007
 70
    65
 10
0.0
 20
0.0
  0
LINE
  8
寸法
  6
BYBLOCK
 62
     0
 10
72.257007
 20
56.732382
 11
81.98129
 21
56.732382
  0
LINE
  8
寸法
  6
BYBLOCK
 62
     0
 10
74.887138
 20
53.032382
 11
81.98129
 21
53.032382
  0
LINE
  8
寸法
  6
BYBLOCK
 62
     0
 10
81.98129
 20
56.732382
 11
81.98129
 21
53.032382
  0
POINT
  8
寸法
 62
     0
 10
81.98129
 20
56.732382
  0
POINT
  8
寸法
 62
     0
 10
81.98129
 20
53.032382
  0
TEXT
  7
TextStyle03
  8
寸法
  6
CONTINUOUS
 62
     0
 10
81.65
 20
57.7125
  1
111
 40
3.0
 50
90.0
 72
     5
 11
81.65
 21
62.5875
  0
ENDBLK
  0
BLOCK
  2
*DIM_0008
 70
    65
 10
0.0
 20
0.0
  0
LINE
  8
寸法
  6
BYBLOCK
 62
     0
 10
72.257007
 20
13.399048
 11
81.98129
 21
13.399045
  0
LINE
  8
寸法
  6
BYBLOCK
 62
     0
 10
74.887138
 20
17.099048
 11
81.98129
 21
17.099045
  0
LINE
  8
寸法
  6
BYBLOCK
 62
     0
 10
81.98129
 20
13.399045
 11
81.98129
 21
17.099045
  0
POINT
  8
寸法
 62
     0
 10
81.98129
 20
13.399045
  0
POINT
  8
寸法
 62
     0
 10
81.98129
 20
17.099045
  0
TEXT
  7
TextStyle03
  8
寸法
  6
CONTINUOUS
 62
     0
 10
81.625
 20
7.5375
  1
111
 40
3.0
 50
90.0
 72
     5
 11
81.625
 21
12.4125
  0
ENDBLK
  0
BLOCK
  2
*DIM_0009
 70
    65
 10
0.0
 20
0.0
  0
LINE
  8
寸法
  6
BYBLOCK
 62
     0
 10
105.276657
 20
13.399048
 11
105.276657
 21
56.73238
  0
POINT
  8
寸法
 62
     0
 10
105.276657
 20
13.399048
  0
POINT
  8
寸法
 62
     0
 10
105.276657
 20
56.73238
  0
TEXT
  7
TextStyle03
  8
寸法
  6
CONTINUOUS
 62
     0
 10
104.9
 20
23.33125
  1
呼称寸法　1300
 40
3.0
 50
90.0
 72
     5
 11
104.9
 21
46.76875
  0
ENDBLK
  0
BLOCK
  2
*DIM_0010
 70
    65
 10
0.0
 20
0.0
  0
LINE
  8
寸法
  6
BYBLOCK
 62
     0
 10
149.123605
 20
36.065715
 11
149.123605
 21
72.668433
  0
LINE
  8
寸法
  6
BYBLOCK
 62
     0
 10
160.790272
 20
72.668433
 11
149.123605
 21
72.668433
  0
POINT
  8
寸法
 62
     0
 10
149.123605
 20
72.668433
  0
TEXT
  7
TextStyle03
  8
寸法
  6
CONTINUOUS
 62
     0
 10
152.5125
 20
73.025
  1
350
 40
3.0
 72
     5
 11
157.3875
 21
73.025
  0
ENDBLK
  0
BLOCK
  2
*GRP_0011
 70
    65
 10
0.0
 20
0.0
  0
LINE
  8
別途部材
  6
CONTINUOUS
 62
    96
 10
-113.742993
 20
-79.624597
 11
-114.142993
 21
-80.624597
  0
ARC
  8
別途部材
  6
CONTINUOUS
 10
-90.409658
 20
-93.910314
 40
25.952382
 50
90.0
 51
146.601512
  0
LINE
  8
別途部材
  6
CONTINUOUS
 10
-114.142993
 20
-80.624597
 11
-20.409657
 21
-80.624597
  0
LINE
  8
別途部材
  6
CONTINUOUS
 62
    96
 10
-113.742993
 20
-79.624597
 11
-20.409657
 21
-79.624597
  0
LINE
  8
別途部材
  6
CONTINUOUS
 10
-20.909657
 20
-66.95793
 11
-21.909657
 21
-67.95793
  0
LINE
  8
別途部材
  6
CONTINUOUS
 10
-22.909657
 20
-67.95793
 11
-23.909657
 21
-66.95793
  0
LINE
  8
別途部材
  6
CONTINUOUS
 10
-24.909657
 20
-66.95793
 11
-25.909657
 21
-67.95793
  0
LINE
  8
別途部材
  6
CONTINUOUS
 10
-23.909657
 20
-66.95793
 11
-24.909657
 21
-66.95793
  0
LINE
  8
別途部材
  6
CONTINUOUS
 10
-20.909657
 20
-66.95793
 11
-20.409657
 21
-66.95793
  0
LINE
  8
別途部材
  6
CONTINUOUS
 10
-26.909657
 20
-67.95793
 11
-27.909657
 21
-66.95793
  0
LINE
  8
別途部材
  6
CONTINUOUS
 10
-28.909657
 20
-66.95793
 11
-29.909657
 21
-67.95793
  0
LINE
  8
別途部材
  6
CONTINUOUS
 10
-27.909657
 20
-66.95793
 11
-28.909657
 21
-66.95793
  0
LINE
  8
別途部材
  6
CONTINUOUS
 10
-30.909657
 20
-67.95793
 11
-31.909657
 21
-66.95793
  0
LINE
  8
別途部材
  6
CONTINUOUS
 10
-32.909657
 20
-66.95793
 11
-33.909657
 21
-67.95793
  0
LINE
  8
別途部材
  6
CONTINUOUS
 10
-31.909657
 20
-66.95793
 11
-32.909657
 21
-66.95793
  0
LINE
  8
別途部材
  6
CONTINUOUS
 10
-34.909657
 20
-67.95793
 11
-35.909657
 21
-66.95793
  0
LINE
  8
別途部材
  6
CONTINUOUS
 10
-36.909657
 20
-66.95793
 11
-37.909657
 21
-67.95793
  0
LINE
  8
別途部材
  6
CONTINUOUS
 10
-35.909657
 20
-66.95793
 11
-36.909657
 21
-66.95793
  0
LINE
  8
別途部材
  6
CONTINUOUS
 10
-38.909657
 20
-67.95793
 11
-39.909657
 21
-66.95793
  0
LINE
  8
別途部材
  6
CONTINUOUS
 10
-40.909657
 20
-66.95793
 11
-41.909657
 21
-67.95793
  0
LINE
  8
別途部材
  6
CONTINUOUS
 10
-39.909657
 20
-66.95793
 11
-40.909657
 21
-66.95793
  0
LINE
  8
別途部材
  6
CONTINUOUS
 10
-42.909657
 20
-67.95793
 11
-43.909657
 21
-66.95793
  0
LINE
  8
別途部材
  6
CONTINUOUS
 10
-44.909657
 20
-66.95793
 11
-45.909657
 21
-67.95793
  0
LINE
  8
別途部材
  6
CONTINUOUS
 10
-43.909657
 20
-66.95793
 11
-44.909657
 21
-66.95793
  0
LINE
  8
別途部材
  6
CONTINUOUS
 10
-46.909657
 20
-67.95793
 11
-47.909657
 21
-66.95793
  0
LINE
  8
別途部材
  6
CONTINUOUS
 10
-48.909657
 20
-66.95793
 11
-49.909657
 21
-67.95793
  0
LINE
  8
別途部材
  6
CONTINUOUS
 10
-47.909657
 20
-66.95793
 11
-48.909657
 21
-66.95793
  0
LINE
  8
別途部材
  6
CONTINUOUS
 10
-50.909657
 20
-67.95793
 11
-51.909657
 21
-66.95793
  0
LINE
  8
別途部材
  6
CONTINUOUS
 10
-52.909657
 20
-66.95793
 11
-53.909657
 21
-67.95793
  0
LINE
  8
別途部材
  6
CONTINUOUS
 10
-51.909657
 20
-66.95793
 11
-52.909657
 21
-66.95793
  0
LINE
  8
別途部材
  6
CONTINUOUS
 10
-54.909657
 20
-67.95793
 11
-55.909657
 21
-66.95793
  0
LINE
  8
別途部材
  6
CONTINUOUS
 10
-56.909657
 20
-66.95793
 11
-57.909657
 21
-67.95793
  0
LINE
  8
別途部材
  6
CONTINUOUS
 10
-55.909657
 20
-66.95793
 11
-56.909657
 21
-66.95793
  0
LINE
  8
別途部材
  6
CONTINUOUS
 10
-58.909657
 20
-67.95793
 11
-59.909657
 21
-66.95793
  0
LINE
  8
別途部材
  6
CONTINUOUS
 10
-60.909657
 20
-66.95793
 11
-61.909657
 21
-67.95793
  0
LINE
  8
別途部材
  6
CONTINUOUS
 10
-59.909657
 20
-66.95793
 11
-60.909657
 21
-66.95793
  0
LINE
  8
別途部材
  6
CONTINUOUS
 10
-62.909657
 20
-67.95793
 11
-63.909657
 21
-66.95793
  0
LINE
  8
別途部材
  6
CONTINUOUS
 10
-64.909657
 20
-66.95793
 11
-65.909657
 21
-67.95793
  0
LINE
  8
別途部材
  6
CONTINUOUS
 10
-63.909657
 20
-66.95793
 11
-64.909657
 21
-66.95793
  0
LINE
  8
別途部材
  6
CONTINUOUS
 10
-61.909657
 20
-67.95793
 11
-62.909657
 21
-67.95793
  0
LINE
  8
別途部材
  6
CONTINUOUS
 10
-57.909657
 20
-67.95793
 11
-58.909657
 21
-67.95793
  0
LINE
  8
別途部材
  6
CONTINUOUS
 10
-53.909657
 20
-67.95793
 11
-54.909657
 21
-67.95793
  0
LINE
  8
別途部材
  6
CONTINUOUS
 10
-49.909657
 20
-67.95793
 11
-50.909657
 21
-67.95793
  0
LINE
  8
別途部材
  6
CONTINUOUS
 10
-45.909657
 20
-67.95793
 11
-46.909657
 21
-67.95793
  0
LINE
  8
別途部材
  6
CONTINUOUS
 10
-41.909657
 20
-67.95793
 11
-42.909657
 21
-67.95793
  0
LINE
  8
別途部材
  6
CONTINUOUS
 10
-37.909657
 20
-67.95793
 11
-38.909657
 21
-67.95793
  0
LINE
  8
別途部材
  6
CONTINUOUS
 10
-33.909657
 20
-67.95793
 11
-34.909657
 21
-67.95793
  0
LINE
  8
別途部材
  6
CONTINUOUS
 10
-29.909657
 20
-67.95793
 11
-30.909657
 21
-67.95793
  0
LINE
  8
別途部材
  6
CONTINUOUS
 10
-25.909657
 20
-67.95793
 11
-26.909657
 21
-67.95793
  0
LINE
  8
別途部材
  6
CONTINUOUS
 10
-22.909657
 20
-67.95793
 11
-21.909657
 21
-67.95793
  0
LINE
  8
別途部材
  6
CONTINUOUS
 10
-62.909657
 20
-67.95793
 11
-62.909657
 21
-79.624597
  0
LINE
  8
別途部材
  6
CONTINUOUS
 10
-61.909657
 20
-67.95793
 11
-61.909657
 21
-79.624597
  0
LINE
  8
別途部材
  6
CONTINUOUS
 10
-63.909657
 20
-66.95793
 11
-63.909657
 21
-79.624597
  0
LINE
  8
別途部材
  6
CONTINUOUS
 10
-65.909657
 20
-67.95793
 11
-65.909657
 21
-79.624597
  0
LINE
  8
別途部材
  6
CONTINUOUS
 10
-64.909657
 20
-66.95793
 11
-64.909657
 21
-79.624597
  0
LINE
  8
別途部材
  6
CONTINUOUS
 10
-54.909657
 20
-67.95793
 11
-54.909657
 21
-79.624597
  0
LINE
  8
別途部材
  6
CONTINUOUS
 10
-56.909657
 20
-66.95793
 11
-56.909657
 21
-79.624597
  0
LINE
  8
別途部材
  6
CONTINUOUS
 10
-57.909657
 20
-67.95793
 11
-57.909657
 21
-79.624597
  0
LINE
  8
別途部材
  6
CONTINUOUS
 10
-59.909657
 20
-66.95793
 11
-59.909657
 21
-79.624597
  0
LINE
  8
別途部材
  6
CONTINUOUS
 10
-60.909657
 20
-66.95793
 11
-60.909657
 21
-79.624597
  0
LINE
  8
別途部材
  6
CONTINUOUS
 10
-58.909657
 20
-67.95793
 11
-58.909657
 21
-79.624597
  0
LINE
  8
別途部材
  6
CONTINUOUS
 10
-55.909657
 20
-66.95793
 11
-55.909657
 21
-79.624597
  0
LINE
  8
別途部材
  6
CONTINUOUS
 10
-53.909657
 20
-67.95793
 11
-53.909657
 21
-79.624597
  0
LINE
  8
別途部材
  6
CONTINUOUS
 10
-52.909657
 20
-66.95793
 11
-52.909657
 21
-79.624597
  0
LINE
  8
別途部材
  6
CONTINUOUS
 10
-42.909657
 20
-67.95793
 11
-42.909657
 21
-79.624597
  0
LINE
  8
別途部材
  6
CONTINUOUS
 10
-36.909657
 20
-66.95793
 11
-36.909657
 21
-79.624597
  0
LINE
  8
別途部材
  6
CONTINUOUS
 10
-35.909657
 20
-66.95793
 11
-35.909657
 21
-79.624597
  0
LINE
  8
別途部材
  6
CONTINUOUS
 10
-25.909657
 20
-67.95793
 11
-25.909657
 21
-79.624597
  0
LINE
  8
別途部材
  6
CONTINUOUS
 10
-20.909657
 20
-66.95793
 11
-20.909657
 21
-79.624597
  0
LINE
  8
別途部材
  6
CONTINUOUS
 10
-21.909657
 20
-67.95793
 11
-21.909657
 21
-79.624597
  0
LINE
  8
別途部材
  6
CONTINUOUS
 10
-23.909657
 20
-66.95793
 11
-23.909657
 21
-79.624597
  0
LINE
  8
別途部材
  6
CONTINUOUS
 10
-24.909657
 20
-66.95793
 11
-24.909657
 21
-79.624597
  0
LINE
  8
別途部材
  6
CONTINUOUS
 10
-26.909657
 20
-67.95793
 11
-26.909657
 21
-79.624597
  0
LINE
  8
別途部材
  6
CONTINUOUS
 10
-37.909657
 20
-67.95793
 11
-37.909657
 21
-79.624597
  0
LINE
  8
別途部材
  6
CONTINUOUS
 10
-38.909657
 20
-67.95793
 11
-38.909657
 21
-79.624597
  0
LINE
  8
別途部材
  6
CONTINUOUS
 10
-43.909657
 20
-66.95793
 11
-43.909657
 21
-79.624597
  0
LINE
  8
別途部材
  6
CONTINUOUS
 10
-45.909657
 20
-67.95793
 11
-45.909657
 21
-79.624597
  0
LINE
  8
別途部材
  6
CONTINUOUS
 10
-48.909657
 20
-66.95793
 11
-48.909657
 21
-79.624597
  0
LINE
  8
別途部材
  6
CONTINUOUS
 10
-51.909657
 20
-66.95793
 11
-51.909657
 21
-79.624597
  0
LINE
  8
別途部材
  6
CONTINUOUS
 10
-44.909657
 20
-66.95793
 11
-44.909657
 21
-79.624597
  0
LINE
  8
別途部材
  6
CONTINUOUS
 10
-46.909657
 20
-67.95793
 11
-46.909657
 21
-79.624597
  0
LINE
  8
別途部材
  6
CONTINUOUS
 10
-49.909657
 20
-67.95793
 11
-49.909657
 21
-79.624597
  0
LINE
  8
別途部材
  6
CONTINUOUS
 10
-50.909657
 20
-67.95793
 11
-50.909657
 21
-79.624597
  0
LINE
  8
別途部材
  6
CONTINUOUS
 10
-40.909657
 20
-66.95793
 11
-40.909657
 21
-79.624597
  0
LINE
  8
別途部材
  6
CONTINUOUS
 10
-39.909657
 20
-66.95793
 11
-39.909657
 21
-79.624597
  0
LINE
  8
別途部材
  6
CONTINUOUS
 10
-41.909657
 20
-67.95793
 11
-41.909657
 21
-79.624597
  0
LINE
  8
別途部材
  6
CONTINUOUS
 10
-47.909657
 20
-66.95793
 11
-47.909657
 21
-79.624597
  0
LINE
  8
別途部材
  6
CONTINUOUS
 10
-33.909657
 20
-67.95793
 11
-33.909657
 21
-79.624597
  0
LINE
  8
別途部材
  6
CONTINUOUS
 10
-34.909657
 20
-67.95793
 11
-34.909657
 21
-79.624597
  0
LINE
  8
別途部材
  6
CONTINUOUS
 10
-32.909657
 20
-66.95793
 11
-32.909657
 21
-79.624597
  0
LINE
  8
別途部材
  6
CONTINUOUS
 10
-30.909657
 20
-67.95793
 11
-30.909657
 21
-79.624597
  0
LINE
  8
別途部材
  6
CONTINUOUS
 10
-31.909657
 20
-66.95793
 11
-31.909657
 21
-79.624597
  0
LINE
  8
別途部材
  6
CONTINUOUS
 10
-29.909657
 20
-67.95793
 11
-29.909657
 21
-79.624597
  0
LINE
  8
別途部材
  6
CONTINUOUS
 10
-27.909657
 20
-66.95793
 11
-27.909657
 21
-79.624597
  0
LINE
  8
別途部材
  6
CONTINUOUS
 10
-28.909657
 20
-66.95793
 11
-28.909657
 21
-79.624597
  0
LINE
  8
別途部材
  6
CONTINUOUS
 10
-22.909657
 20
-67.95793
 11
-22.909657
 21
-79.624597
  0
LINE
  8
別途部材
  6
CONTINUOUS
 10
-66.909657
 20
-67.95793
 11
-67.909657
 21
-66.95793
  0
LINE
  8
別途部材
  6
CONTINUOUS
 10
-68.909657
 20
-66.95793
 11
-69.909657
 21
-67.95793
  0
LINE
  8
別途部材
  6
CONTINUOUS
 10
-67.909657
 20
-66.95793
 11
-68.909657
 21
-66.95793
  0
LINE
  8
別途部材
  6
CONTINUOUS
 10
-70.909657
 20
-67.95793
 11
-71.909657
 21
-66.95793
  0
LINE
  8
別途部材
  6
CONTINUOUS
 10
-72.909657
 20
-66.95793
 11
-73.909657
 21
-67.95793
  0
LINE
  8
別途部材
  6
CONTINUOUS
 10
-71.909657
 20
-66.95793
 11
-72.909657
 21
-66.95793
  0
LINE
  8
別途部材
  6
CONTINUOUS
 10
-74.909657
 20
-67.95793
 11
-75.909657
 21
-66.95793
  0
LINE
  8
別途部材
  6
CONTINUOUS
 10
-76.909657
 20
-66.95793
 11
-77.909657
 21
-67.95793
  0
LINE
  8
別途部材
  6
CONTINUOUS
 10
-75.909657
 20
-66.95793
 11
-76.909657
 21
-66.95793
  0
LINE
  8
別途部材
  6
CONTINUOUS
 10
-78.909657
 20
-67.95793
 11
-79.909657
 21
-66.95793
  0
LINE
  8
別途部材
  6
CONTINUOUS
 10
-80.909657
 20
-66.95793
 11
-81.909657
 21
-67.95793
  0
LINE
  8
別途部材
  6
CONTINUOUS
 10
-79.909657
 20
-66.95793
 11
-80.909657
 21
-66.95793
  0
LINE
  8
別途部材
  6
CONTINUOUS
 10
-82.909657
 20
-67.95793
 11
-83.909657
 21
-66.95793
  0
LINE
  8
別途部材
  6
CONTINUOUS
 10
-84.909657
 20
-66.95793
 11
-85.909657
 21
-67.95793
  0
LINE
  8
別途部材
  6
CONTINUOUS
 10
-83.909657
 20
-66.95793
 11
-84.909657
 21
-66.95793
  0
LINE
  8
別途部材
  6
CONTINUOUS
 10
-86.909657
 20
-67.95793
 11
-87.909657
 21
-66.95793
  0
LINE
  8
別途部材
  6
CONTINUOUS
 10
-88.909657
 20
-66.95793
 11
-89.909657
 21
-67.95793
  0
LINE
  8
別途部材
  6
CONTINUOUS
 10
-87.909657
 20
-66.95793
 11
-88.909657
 21
-66.95793
  0
LINE
  8
別途部材
  6
CONTINUOUS
 10
-85.909657
 20
-67.95793
 11
-86.909657
 21
-67.95793
  0
LINE
  8
別途部材
  6
CONTINUOUS
 10
-81.909657
 20
-67.95793
 11
-82.909657
 21
-67.95793
  0
LINE
  8
別途部材
  6
CONTINUOUS
 10
-77.909657
 20
-67.95793
 11
-78.909657
 21
-67.95793
  0
LINE
  8
別途部材
  6
CONTINUOUS
 10
-73.909657
 20
-67.95793
 11
-74.909657
 21
-67.95793
  0
LINE
  8
別途部材
  6
CONTINUOUS
 10
-69.909657
 20
-67.95793
 11
-70.909657
 21
-67.95793
  0
LINE
  8
別途部材
  6
CONTINUOUS
 10
-65.909657
 20
-67.95793
 11
-66.909657
 21
-67.95793
  0
LINE
  8
別途部材
  6
CONTINUOUS
 10
-89.909657
 20
-67.95793
 11
-89.909657
 21
-79.624597
  0
LINE
  8
別途部材
  6
CONTINUOUS
 10
-88.909657
 20
-66.95793
 11
-88.909657
 21
-79.624597
  0
LINE
  8
別途部材
  6
CONTINUOUS
 10
-78.909657
 20
-67.95793
 11
-78.909657
 21
-79.624597
  0
LINE
  8
別途部材
  6
CONTINUOUS
 10
-72.909657
 20
-66.95793
 11
-72.909657
 21
-79.624597
  0
LINE
  8
別途部材
  6
CONTINUOUS
 10
-71.909657
 20
-66.95793
 11
-71.909657
 21
-79.624597
  0
LINE
  8
別途部材
  6
CONTINUOUS
 10
-73.909657
 20
-67.95793
 11
-73.909657
 21
-79.624597
  0
LINE
  8
別途部材
  6
CONTINUOUS
 10
-74.909657
 20
-67.95793
 11
-74.909657
 21
-79.624597
  0
LINE
  8
別途部材
  6
CONTINUOUS
 10
-79.909657
 20
-66.95793
 11
-79.909657
 21
-79.624597
  0
LINE
  8
別途部材
  6
CONTINUOUS
 10
-81.909657
 20
-67.95793
 11
-81.909657
 21
-79.624597
  0
LINE
  8
別途部材
  6
CONTINUOUS
 10
-84.909657
 20
-66.95793
 11
-84.909657
 21
-79.624597
  0
LINE
  8
別途部材
  6
CONTINUOUS
 10
-87.909657
 20
-66.95793
 11
-87.909657
 21
-79.624597
  0
LINE
  8
別途部材
  6
CONTINUOUS
 10
-80.909657
 20
-66.95793
 11
-80.909657
 21
-79.624597
  0
LINE
  8
別途部材
  6
CONTINUOUS
 10
-82.909657
 20
-67.95793
 11
-82.909657
 21
-79.624597
  0
LINE
  8
別途部材
  6
CONTINUOUS
 10
-85.909657
 20
-67.95793
 11
-85.909657
 21
-79.624597
  0
LINE
  8
別途部材
  6
CONTINUOUS
 10
-86.909657
 20
-67.95793
 11
-86.909657
 21
-79.624597
  0
LINE
  8
別途部材
  6
CONTINUOUS
 10
-76.909657
 20
-66.95793
 11
-76.909657
 21
-79.624597
  0
LINE
  8
別途部材
  6
CONTINUOUS
 10
-75.909657
 20
-66.95793
 11
-75.909657
 21
-79.624597
  0
LINE
  8
別途部材
  6
CONTINUOUS
 10
-77.909657
 20
-67.95793
 11
-77.909657
 21
-79.624597
  0
LINE
  8
別途部材
  6
CONTINUOUS
 10
-83.909657
 20
-66.95793
 11
-83.909657
 21
-79.624597
  0
LINE
  8
別途部材
  6
CONTINUOUS
 10
-69.909657
 20
-67.95793
 11
-69.909657
 21
-79.624597
  0
LINE
  8
別途部材
  6
CONTINUOUS
 10
-70.909657
 20
-67.95793
 11
-70.909657
 21
-79.624597
  0
LINE
  8
別途部材
  6
CONTINUOUS
 10
-68.909657
 20
-66.95793
 11
-68.909657
 21
-79.624597
  0
LINE
  8
別途部材
  6
CONTINUOUS
 10
-66.909657
 20
-67.95793
 11
-66.909657
 21
-79.624597
  0
LINE
  8
別途部材
  6
CONTINUOUS
 10
-67.909657
 20
-66.95793
 11
-67.909657
 21
-79.624597
  0
LINE
  8
別途部材
  6
CONTINUOUS
 62
    96
 10
72.923675
 20
-79.624597
 11
73.323675
 21
-80.624597
  0
ARC
  8
別途部材
  6
CONTINUOUS
 10
49.590342
 20
-93.910314
 40
25.952382
 50
33.398488
 51
90.0
  0
LINE
  8
別途部材
  6
CONTINUOUS
 10
73.323675
 20
-80.624597
 11
-20.409657
 21
-80.624597
  0
LINE
  8
別途部材
  6
CONTINUOUS
 62
    96
 10
72.923675
 20
-79.624597
 11
-20.409657
 21
-79.624597
  0
LINE
  8
別途部材
  6
CONTINUOUS
 10
-19.909657
 20
-66.95793
 11
-18.909657
 21
-67.95793
  0
LINE
  8
別途部材
  6
CONTINUOUS
 10
-17.909657
 20
-67.95793
 11
-16.909657
 21
-66.95793
  0
LINE
  8
別途部材
  6
CONTINUOUS
 10
-15.909657
 20
-66.95793
 11
-14.909657
 21
-67.95793
  0
LINE
  8
別途部材
  6
CONTINUOUS
 10
-16.909657
 20
-66.95793
 11
-15.909657
 21
-66.95793
  0
LINE
  8
別途部材
  6
CONTINUOUS
 10
-19.909657
 20
-66.95793
 11
-20.409657
 21
-66.95793
  0
LINE
  8
別途部材
  6
CONTINUOUS
 10
-13.909657
 20
-67.95793
 11
-12.909657
 21
-66.95793
  0
LINE
  8
別途部材
  6
CONTINUOUS
 10
-11.909657
 20
-66.95793
 11
-10.909657
 21
-67.95793
  0
LINE
  8
別途部材
  6
CONTINUOUS
 10
-12.909657
 20
-66.95793
 11
-11.909657
 21
-66.95793
  0
LINE
  8
別途部材
  6
CONTINUOUS
 10
-9.909657
 20
-67.95793
 11
-8.909657
 21
-66.95793
  0
LINE
  8
別途部材
  6
CONTINUOUS
 10
-7.909657
 20
-66.95793
 11
-6.909657
 21
-67.95793
  0
LINE
  8
別途部材
  6
CONTINUOUS
 10
-8.909657
 20
-66.95793
 11
-7.909657
 21
-66.95793
  0
LINE
  8
別途部材
  6
CONTINUOUS
 10
-5.909657
 20
-67.95793
 11
-4.909657
 21
-66.95793
  0
LINE
  8
別途部材
  6
CONTINUOUS
 10
-3.909657
 20
-66.95793
 11
-2.909657
 21
-67.95793
  0
LINE
  8
別途部材
  6
CONTINUOUS
 10
-4.909657
 20
-66.95793
 11
-3.909657
 21
-66.95793
  0
LINE
  8
別途部材
  6
CONTINUOUS
 10
-1.909657
 20
-67.95793
 11
-0.909657
 21
-66.95793
  0
LINE
  8
別途部材
  6
CONTINUOUS
 10
0.090343
 20
-66.95793
 11
1.090343
 21
-67.95793
  0
LINE
  8
別途部材
  6
CONTINUOUS
 10
-0.909657
 20
-66.95793
 11
0.090343
 21
-66.95793
  0
LINE
  8
別途部材
  6
CONTINUOUS
 10
2.090343
 20
-67.95793
 11
3.090343
 21
-66.95793
  0
LINE
  8
別途部材
  6
CONTINUOUS
 10
4.090343
 20
-66.95793
 11
5.090343
 21
-67.95793
  0
LINE
  8
別途部材
  6
CONTINUOUS
 10
3.090343
 20
-66.95793
 11
4.090343
 21
-66.95793
  0
LINE
  8
別途部材
  6
CONTINUOUS
 10
6.090343
 20
-67.95793
 11
7.090343
 21
-66.95793
  0
LINE
  8
別途部材
  6
CONTINUOUS
 10
8.090343
 20
-66.95793
 11
9.090343
 21
-67.95793
  0
LINE
  8
別途部材
  6
CONTINUOUS
 10
7.090343
 20
-66.95793
 11
8.090343
 21
-66.95793
  0
LINE
  8
別途部材
  6
CONTINUOUS
 10
10.090343
 20
-67.95793
 11
11.090343
 21
-66.95793
  0
LINE
  8
別途部材
  6
CONTINUOUS
 10
12.090343
 20
-66.95793
 11
13.090343
 21
-67.95793
  0
LINE
  8
別途部材
  6
CONTINUOUS
 10
11.090343
 20
-66.95793
 11
12.090343
 21
-66.95793
  0
LINE
  8
別途部材
  6
CONTINUOUS
 10
14.090343
 20
-67.95793
 11
15.090343
 21
-66.95793
  0
LINE
  8
別途部材
  6
CONTINUOUS
 10
16.090343
 20
-66.95793
 11
17.090343
 21
-67.95793
  0
LINE
  8
別途部材
  6
CONTINUOUS
 10
15.090343
 20
-66.95793
 11
16.090343
 21
-66.95793
  0
LINE
  8
別途部材
  6
CONTINUOUS
 10
18.090343
 20
-67.95793
 11
19.090343
 21
-66.95793
  0
LINE
  8
別途部材
  6
CONTINUOUS
 10
20.090343
 20
-66.95793
 11
21.090343
 21
-67.95793
  0
LINE
  8
別途部材
  6
CONTINUOUS
 10
19.090343
 20
-66.95793
 11
20.090343
 21
-66.95793
  0
LINE
  8
別途部材
  6
CONTINUOUS
 10
22.090343
 20
-67.95793
 11
23.090343
 21
-66.95793
  0
LINE
  8
別途部材
  6
CONTINUOUS
 10
24.090343
 20
-66.95793
 11
25.090343
 21
-67.95793
  0
LINE
  8
別途部材
  6
CONTINUOUS
 10
23.090343
 20
-66.95793
 11
24.090343
 21
-66.95793
  0
LINE
  8
別途部材
  6
CONTINUOUS
 10
21.090343
 20
-67.95793
 11
22.090343
 21
-67.95793
  0
LINE
  8
別途部材
  6
CONTINUOUS
 10
17.090343
 20
-67.95793
 11
18.090343
 21
-67.95793
  0
LINE
  8
別途部材
  6
CONTINUOUS
 10
13.090343
 20
-67.95793
 11
14.090343
 21
-67.95793
  0
LINE
  8
別途部材
  6
CONTINUOUS
 10
9.090343
 20
-67.95793
 11
10.090343
 21
-67.95793
  0
LINE
  8
別途部材
  6
CONTINUOUS
 10
5.090343
 20
-67.95793
 11
6.090343
 21
-67.95793
  0
LINE
  8
別途部材
  6
CONTINUOUS
 10
1.090343
 20
-67.95793
 11
2.090343
 21
-67.95793
  0
LINE
  8
別途部材
  6
CONTINUOUS
 10
-2.909657
 20
-67.95793
 11
-1.909657
 21
-67.95793
  0
LINE
  8
別途部材
  6
CONTINUOUS
 10
-6.909657
 20
-67.95793
 11
-5.909657
 21
-67.95793
  0
LINE
  8
別途部材
  6
CONTINUOUS
 10
-10.909657
 20
-67.95793
 11
-9.909657
 21
-67.95793
  0
LINE
  8
別途部材
  6
CONTINUOUS
 10
-14.909657
 20
-67.95793
 11
-13.909657
 21
-67.95793
  0
LINE
  8
別途部材
  6
CONTINUOUS
 10
-17.909657
 20
-67.95793
 11
-18.909657
 21
-67.95793
  0
LINE
  8
別途部材
  6
CONTINUOUS
 10
22.090343
 20
-67.95793
 11
22.090343
 21
-79.624597
  0
LINE
  8
別途部材
  6
CONTINUOUS
 10
21.090343
 20
-67.95793
 11
21.090343
 21
-79.624597
  0
LINE
  8
別途部材
  6
CONTINUOUS
 10
23.090343
 20
-66.95793
 11
23.090343
 21
-79.624597
  0
LINE
  8
別途部材
  6
CONTINUOUS
 10
25.090343
 20
-67.95793
 11
25.090343
 21
-79.624597
  0
LINE
  8
別途部材
  6
CONTINUOUS
 10
24.090343
 20
-66.95793
 11
24.090343
 21
-79.624597
  0
LINE
  8
別途部材
  6
CONTINUOUS
 10
14.090343
 20
-67.95793
 11
14.090343
 21
-79.624597
  0
LINE
  8
別途部材
  6
CONTINUOUS
 10
16.090343
 20
-66.95793
 11
16.090343
 21
-79.624597
  0
LINE
  8
別途部材
  6
CONTINUOUS
 10
17.090343
 20
-67.95793
 11
17.090343
 21
-79.624597
  0
LINE
  8
別途部材
  6
CONTINUOUS
 10
19.090343
 20
-66.95793
 11
19.090343
 21
-79.624597
  0
LINE
  8
別途部材
  6
CONTINUOUS
 10
20.090343
 20
-66.95793
 11
20.090343
 21
-79.624597
  0
LINE
  8
別途部材
  6
CONTINUOUS
 10
18.090343
 20
-67.95793
 11
18.090343
 21
-79.624597
  0
LINE
  8
別途部材
  6
CONTINUOUS
 10
15.090343
 20
-66.95793
 11
15.090343
 21
-79.624597
  0
LINE
  8
別途部材
  6
CONTINUOUS
 10
13.090343
 20
-67.95793
 11
13.090343
 21
-79.624597
  0
LINE
  8
別途部材
  6
CONTINUOUS
 10
12.090343
 20
-66.95793
 11
12.090343
 21
-79.624597
  0
LINE
  8
別途部材
  6
CONTINUOUS
 10
2.090343
 20
-67.95793
 11
2.090343
 21
-79.624597
  0
LINE
  8
別途部材
  6
CONTINUOUS
 10
-3.909657
 20
-66.95793
 11
-3.909657
 21
-79.624597
  0
LINE
  8
別途部材
  6
CONTINUOUS
 10
-4.909657
 20
-66.95793
 11
-4.909657
 21
-79.624597
  0
LINE
  8
別途部材
  6
CONTINUOUS
 10
-14.909657
 20
-67.95793
 11
-14.909657
 21
-79.624597
  0
LINE
  8
別途部材
  6
CONTINUOUS
 10
-19.909657
 20
-66.95793
 11
-19.909657
 21
-79.624597
  0
LINE
  8
別途部材
  6
CONTINUOUS
 10
-18.909657
 20
-67.95793
 11
-18.909657
 21
-79.624597
  0
LINE
  8
別途部材
  6
CONTINUOUS
 10
-16.909657
 20
-66.95793
 11
-16.909657
 21
-79.624597
  0
LINE
  8
別途部材
  6
CONTINUOUS
 10
-15.909657
 20
-66.95793
 11
-15.909657
 21
-79.624597
  0
LINE
  8
別途部材
  6
CONTINUOUS
 10
-13.909657
 20
-67.95793
 11
-13.909657
 21
-79.624597
  0
LINE
  8
別途部材
  6
CONTINUOUS
 10
-2.909657
 20
-67.95793
 11
-2.909657
 21
-79.624597
  0
LINE
  8
別途部材
  6
CONTINUOUS
 10
-1.909657
 20
-67.95793
 11
-1.909657
 21
-79.624597
  0
LINE
  8
別途部材
  6
CONTINUOUS
 10
3.090343
 20
-66.95793
 11
3.090343
 21
-79.624597
  0
LINE
  8
別途部材
  6
CONTINUOUS
 10
5.090343
 20
-67.95793
 11
5.090343
 21
-79.624597
  0
LINE
  8
別途部材
  6
CONTINUOUS
 10
8.090343
 20
-66.95793
 11
8.090343
 21
-79.624597
  0
LINE
  8
別途部材
  6
CONTINUOUS
 10
11.090343
 20
-66.95793
 11
11.090343
 21
-79.624597
  0
LINE
  8
別途部材
  6
CONTINUOUS
 10
4.090343
 20
-66.95793
 11
4.090343
 21
-79.624597
  0
LINE
  8
別途部材
  6
CONTINUOUS
 10
6.090343
 20
-67.95793
 11
6.090343
 21
-79.624597
  0
LINE
  8
別途部材
  6
CONTINUOUS
 10
9.090343
 20
-67.95793
 11
9.090343
 21
-79.624597
  0
LINE
  8
別途部材
  6
CONTINUOUS
 10
10.090343
 20
-67.95793
 11
10.090343
 21
-79.624597
  0
LINE
  8
別途部材
  6
CONTINUOUS
 10
0.090343
 20
-66.95793
 11
0.090343
 21
-79.624597
  0
LINE
  8
別途部材
  6
CONTINUOUS
 10
-0.909657
 20
-66.95793
 11
-0.909657
 21
-79.624597
  0
LINE
  8
別途部材
  6
CONTINUOUS
 10
1.090343
 20
-67.95793
 11
1.090343
 21
-79.624597
  0
LINE
  8
別途部材
  6
CONTINUOUS
 10
7.090343
 20
-66.95793
 11
7.090343
 21
-79.624597
  0
LINE
  8
別途部材
  6
CONTINUOUS
 10
-6.909657
 20
-67.95793
 11
-6.909657
 21
-79.624597
  0
LINE
  8
別途部材
  6
CONTINUOUS
 10
-5.909657
 20
-67.95793
 11
-5.909657
 21
-79.624597
  0
LINE
  8
別途部材
  6
CONTINUOUS
 10
-7.909657
 20
-66.95793
 11
-7.909657
 21
-79.624597
  0
LINE
  8
別途部材
  6
CONTINUOUS
 10
-9.909657
 20
-67.95793
 11
-9.909657
 21
-79.624597
  0
LINE
  8
別途部材
  6
CONTINUOUS
 10
-8.909657
 20
-66.95793
 11
-8.909657
 21
-79.624597
  0
LINE
  8
別途部材
  6
CONTINUOUS
 10
-10.909657
 20
-67.95793
 11
-10.909657
 21
-79.624597
  0
LINE
  8
別途部材
  6
CONTINUOUS
 10
-12.909657
 20
-66.95793
 11
-12.909657
 21
-79.624597
  0
LINE
  8
別途部材
  6
CONTINUOUS
 10
-11.909657
 20
-66.95793
 11
-11.909657
 21
-79.624597
  0
LINE
  8
別途部材
  6
CONTINUOUS
 10
-17.909657
 20
-67.95793
 11
-17.909657
 21
-79.624597
  0
LINE
  8
別途部材
  6
CONTINUOUS
 10
26.090343
 20
-67.95793
 11
27.090343
 21
-66.95793
  0
LINE
  8
別途部材
  6
CONTINUOUS
 10
28.090343
 20
-66.95793
 11
29.090343
 21
-67.95793
  0
LINE
  8
別途部材
  6
CONTINUOUS
 10
27.090343
 20
-66.95793
 11
28.090343
 21
-66.95793
  0
LINE
  8
別途部材
  6
CONTINUOUS
 10
30.090343
 20
-67.95793
 11
31.090343
 21
-66.95793
  0
LINE
  8
別途部材
  6
CONTINUOUS
 10
32.090343
 20
-66.95793
 11
33.090343
 21
-67.95793
  0
LINE
  8
別途部材
  6
CONTINUOUS
 10
31.090343
 20
-66.95793
 11
32.090343
 21
-66.95793
  0
LINE
  8
別途部材
  6
CONTINUOUS
 10
34.090343
 20
-67.95793
 11
35.090343
 21
-66.95793
  0
LINE
  8
別途部材
  6
CONTINUOUS
 10
36.090343
 20
-66.95793
 11
37.090343
 21
-67.95793
  0
LINE
  8
別途部材
  6
CONTINUOUS
 10
35.090343
 20
-66.95793
 11
36.090343
 21
-66.95793
  0
LINE
  8
別途部材
  6
CONTINUOUS
 10
38.090343
 20
-67.95793
 11
39.090343
 21
-66.95793
  0
LINE
  8
別途部材
  6
CONTINUOUS
 10
40.090343
 20
-66.95793
 11
41.090343
 21
-67.95793
  0
LINE
  8
別途部材
  6
CONTINUOUS
 10
39.090343
 20
-66.95793
 11
40.090343
 21
-66.95793
  0
LINE
  8
別途部材
  6
CONTINUOUS
 10
42.090343
 20
-67.95793
 11
43.090343
 21
-66.95793
  0
LINE
  8
別途部材
  6
CONTINUOUS
 10
44.090343
 20
-66.95793
 11
45.090343
 21
-67.95793
  0
LINE
  8
別途部材
  6
CONTINUOUS
 10
43.090343
 20
-66.95793
 11
44.090343
 21
-66.95793
  0
LINE
  8
別途部材
  6
CONTINUOUS
 10
46.090343
 20
-67.95793
 11
47.090343
 21
-66.95793
  0
LINE
  8
別途部材
  6
CONTINUOUS
 10
48.090343
 20
-66.95793
 11
49.090343
 21
-67.95793
  0
LINE
  8
別途部材
  6
CONTINUOUS
 10
47.090343
 20
-66.95793
 11
48.090343
 21
-66.95793
  0
LINE
  8
別途部材
  6
CONTINUOUS
 10
45.090343
 20
-67.95793
 11
46.090343
 21
-67.95793
  0
LINE
  8
別途部材
  6
CONTINUOUS
 10
41.090343
 20
-67.95793
 11
42.090343
 21
-67.95793
  0
LINE
  8
別途部材
  6
CONTINUOUS
 10
37.090343
 20
-67.95793
 11
38.090343
 21
-67.95793
  0
LINE
  8
別途部材
  6
CONTINUOUS
 10
33.090343
 20
-67.95793
 11
34.090343
 21
-67.95793
  0
LINE
  8
別途部材
  6
CONTINUOUS
 10
29.090343
 20
-67.95793
 11
30.090343
 21
-67.95793
  0
LINE
  8
別途部材
  6
CONTINUOUS
 10
25.090343
 20
-67.95793
 11
26.090343
 21
-67.95793
  0
LINE
  8
別途部材
  6
CONTINUOUS
 10
49.090343
 20
-67.95793
 11
49.090343
 21
-79.624597
  0
LINE
  8
別途部材
  6
CONTINUOUS
 10
48.090343
 20
-66.95793
 11
48.090343
 21
-79.624597
  0
LINE
  8
別途部材
  6
CONTINUOUS
 10
38.090343
 20
-67.95793
 11
38.090343
 21
-79.624597
  0
LINE
  8
別途部材
  6
CONTINUOUS
 10
32.090343
 20
-66.95793
 11
32.090343
 21
-79.624597
  0
LINE
  8
別途部材
  6
CONTINUOUS
 10
31.090343
 20
-66.95793
 11
31.090343
 21
-79.624597
  0
LINE
  8
別途部材
  6
CONTINUOUS
 10
33.090343
 20
-67.95793
 11
33.090343
 21
-79.624597
  0
LINE
  8
別途部材
  6
CONTINUOUS
 10
34.090343
 20
-67.95793
 11
34.090343
 21
-79.624597
  0
LINE
  8
別途部材
  6
CONTINUOUS
 10
39.090343
 20
-66.95793
 11
39.090343
 21
-79.624597
  0
LINE
  8
別途部材
  6
CONTINUOUS
 10
41.090343
 20
-67.95793
 11
41.090343
 21
-79.624597
  0
LINE
  8
別途部材
  6
CONTINUOUS
 10
44.090343
 20
-66.95793
 11
44.090343
 21
-79.624597
  0
LINE
  8
別途部材
  6
CONTINUOUS
 10
47.090343
 20
-66.95793
 11
47.090343
 21
-79.624597
  0
LINE
  8
別途部材
  6
CONTINUOUS
 10
40.090343
 20
-66.95793
 11
40.090343
 21
-79.624597
  0
LINE
  8
別途部材
  6
CONTINUOUS
 10
42.090343
 20
-67.95793
 11
42.090343
 21
-79.624597
  0
LINE
  8
別途部材
  6
CONTINUOUS
 10
45.090343
 20
-67.95793
 11
45.090343
 21
-79.624597
  0
LINE
  8
別途部材
  6
CONTINUOUS
 10
46.090343
 20
-67.95793
 11
46.090343
 21
-79.624597
  0
LINE
  8
別途部材
  6
CONTINUOUS
 10
36.090343
 20
-66.95793
 11
36.090343
 21
-79.624597
  0
LINE
  8
別途部材
  6
CONTINUOUS
 10
35.090343
 20
-66.95793
 11
35.090343
 21
-79.624597
  0
LINE
  8
別途部材
  6
CONTINUOUS
 10
37.090343
 20
-67.95793
 11
37.090343
 21
-79.624597
  0
LINE
  8
別途部材
  6
CONTINUOUS
 10
43.090343
 20
-66.95793
 11
43.090343
 21
-79.624597
  0
LINE
  8
別途部材
  6
CONTINUOUS
 10
29.090343
 20
-67.95793
 11
29.090343
 21
-79.624597
  0
LINE
  8
別途部材
  6
CONTINUOUS
 10
30.090343
 20
-67.95793
 11
30.090343
 21
-79.624597
  0
LINE
  8
別途部材
  6
CONTINUOUS
 10
28.090343
 20
-66.95793
 11
28.090343
 21
-79.624597
  0
LINE
  8
別途部材
  6
CONTINUOUS
 10
26.090343
 20
-67.95793
 11
26.090343
 21
-79.624597
  0
LINE
  8
別途部材
  6
CONTINUOUS
 10
27.090343
 20
-66.95793
 11
27.090343
 21
-79.624597
  0
ENDBLK
  0
BLOCK
  2
*DIM_0012
 70
    65
 10
0.0
 20
0.0
  0
LINE
  8
寸法
  6
BYBLOCK
 62
     0
 10
47.423675
 20
-67.95793
 11
92.877188
 21
-67.95793
  0
LINE
  8
寸法
  6
BYBLOCK
 62
     0
 10
92.877188
 20
-79.624597
 11
92.877188
 21
-67.95793
  0
POINT
  8
寸法
 62
     0
 10
92.877188
 20
-67.95793
  0
TEXT
  7
TextStyle03
  8
寸法
  6
CONTINUOUS
 62
     0
 10
92.475
 20
-76.2375
  1
350
 40
3.0
 50
90.0
 72
     5
 11
92.475
 21
-71.3625
  0
ENDBLK
  0
BLOCK
  2
*GRP_0013
 70
    65
 10
0.0
 20
0.0
  0
LINE
  8
補助線
  6
BYBLOCK
 62
    64
 10
-92.014405
 20
-84.528997
 11
-92.13825
 21
-84.640532
  0
LINE
  8
補助線
  6
BYBLOCK
 62
    64
 10
-92.132097
 20
-84.52284
 11
-92.02056
 21
-84.646688
  0
LINE
  8
補助線
  6
BYBLOCK
 62
    64
 10
-81.299302
 20
-74.878972
 11
-81.423147
 21
-74.990507
  0
LINE
  8
補助線
  6
BYBLOCK
 62
    64
 10
-81.416993
 20
-74.872815
 11
-81.305458
 21
-74.996662
  0
LINE
  8
補助線
  6
BYBLOCK
 62
    64
 10
-70.708045
 20
-65.340482
 11
-70.584202
 21
-65.228947
  0
LINE
  8
補助線
  6
BYBLOCK
 62
    64
 10
-70.701893
 20
-65.22279
 11
-70.590355
 21
-65.346638
  0
LINE
  8
型材断面
  6
CONTINUOUS
 10
-92.881695
 20
-84.18861
 11
-92.918623
 21
-84.89475
  0
LINE
  8
型材断面
  6
CONTINUOUS
 10
-92.918623
 20
-84.89475
 11
-92.472483
 21
-85.390132
  0
LINE
  8
型材断面
  6
CONTINUOUS
 10
-92.472483
 20
-85.390132
 11
-91.76634
 21
-85.427063
  0
LINE
  8
型材断面
  6
CONTINUOUS
 10
-70.956107
 20
-64.44242
 11
-70.249967
 21
-64.47935
  0
LINE
  8
型材断面
  6
CONTINUOUS
 10
-70.249967
 20
-64.47935
 11
-69.803825
 21
-64.97473
  0
LINE
  8
型材断面
  6
CONTINUOUS
 10
-69.803825
 20
-64.97473
 11
-69.840755
 21
-65.680875
  0
LINE
  8
型材断面
  6
CONTINUOUS
 10
-91.76634
 20
-85.427063
 11
-69.840755
 21
-65.680875
  0
LINE
  8
型材断面
  6
CONTINUOUS
 10
-92.881695
 20
-84.18861
 11
-70.956107
 21
-64.44242
  0
CIRCLE
  8
ボルト／ビス
  6
CONTINUOUS
 10
-92.076328
 20
-84.584765
 40
0.250185
  0
CIRCLE
  8
ボルト／ビス
  6
CONTINUOUS
 10
-92.076328
 20
-84.584765
 40
0.301025
  0
LINE
  8
ボルト／ビス
  6
CONTINUOUS
 62
    64
 10
-92.32104
 20
-84.63681
 11
-92.243755
 21
-84.39886
  0
LINE
  8
ボルト／ビス
  6
CONTINUOUS
 62
    64
 10
-91.999043
 20
-84.346815
 11
-92.243755
 21
-84.39886
  0
LINE
  8
ボルト／ビス
  6
CONTINUOUS
 62
    64
 10
-92.153612
 20
-84.822715
 11
-91.9089
 21
-84.77067
  0
LINE
  8
ボルト／ビス
  6
CONTINUOUS
 62
    64
 10
-91.831615
 20
-84.53272
 11
-91.9089
 21
-84.77067
  0
LINE
  8
ボルト／ビス
  6
CONTINUOUS
 62
    64
 10
-92.32104
 20
-84.63681
 11
-92.153612
 21
-84.822715
  0
LINE
  8
ボルト／ビス
  6
CONTINUOUS
 62
    64
 10
-91.999043
 20
-84.346815
 11
-91.831615
 21
-84.53272
  0
CIRCLE
  8
ボルト／ビス
  6
CONTINUOUS
 62
    64
 10
-92.076328
 20
-84.584765
 40
0.216668
  0
CIRCLE
  8
ボルト／ビス
  6
CONTINUOUS
 10
-81.361225
 20
-74.934742
 40
0.250185
  0
CIRCLE
  8
ボルト／ビス
  6
CONTINUOUS
 10
-81.361225
 20
-74.934742
 40
0.301025
  0
LINE
  8
ボルト／ビス
  6
CONTINUOUS
 62
    64
 10
-81.60594
 20
-74.986785
 11
-81.528653
 21
-74.748835
  0
LINE
  8
ボルト／ビス
  6
CONTINUOUS
 62
    64
 10
-81.28394
 20
-74.696792
 11
-81.528653
 21
-74.748835
  0
LINE
  8
ボルト／ビス
  6
CONTINUOUS
 62
    64
 10
-81.438512
 20
-75.17269
 11
-81.1938
 21
-75.120645
  0
LINE
  8
ボルト／ビス
  6
CONTINUOUS
 62
    64
 10
-81.116513
 20
-74.882697
 11
-81.1938
 21
-75.120645
  0
LINE
  8
ボルト／ビス
  6
CONTINUOUS
 62
    64
 10
-81.60594
 20
-74.986785
 11
-81.438512
 21
-75.17269
  0
LINE
  8
ボルト／ビス
  6
CONTINUOUS
 62
    64
 10
-81.28394
 20
-74.696792
 11
-81.116513
 21
-74.882697
  0
CIRCLE
  8
ボルト／ビス
  6
CONTINUOUS
 62
    64
 10
-81.361225
 20
-74.934742
 40
0.216668
  0
CIRCLE
  8
ボルト／ビス
  6
CONTINUOUS
 10
-70.646125
 20
-65.284715
 40
0.250185
  0
CIRCLE
  8
ボルト／ビス
  6
CONTINUOUS
 10
-70.646125
 20
-65.284715
 40
0.301025
  0
LINE
  8
ボルト／ビス
  6
CONTINUOUS
 62
    64
 10
-70.568837
 20
-65.046765
 11
-70.81355
 21
-65.09881
  0
LINE
  8
ボルト／ビス
  6
CONTINUOUS
 62
    64
 10
-70.890835
 20
-65.33676
 11
-70.81355
 21
-65.09881
  0
LINE
  8
ボルト／ビス
  6
CONTINUOUS
 62
    64
 10
-70.40141
 20
-65.23267
 11
-70.478697
 21
-65.47062
  0
LINE
  8
ボルト／ビス
  6
CONTINUOUS
 62
    64
 10
-70.72341
 20
-65.522665
 11
-70.478697
 21
-65.47062
  0
LINE
  8
ボルト／ビス
  6
CONTINUOUS
 62
    64
 10
-70.568837
 20
-65.046765
 11
-70.40141
 21
-65.23267
  0
LINE
  8
ボルト／ビス
  6
CONTINUOUS
 62
    64
 10
-70.890835
 20
-65.33676
 11
-70.72341
 21
-65.522665
  0
CIRCLE
  8
ボルト／ビス
  6
CONTINUOUS
 62
    64
 10
-70.646125
 20
-65.284715
 40
0.216668
  0
ENDBLK
  0
BLOCK
  2
*GRP_0014
 70
    65
 10
0.0
 20
0.0
  0
LINE
  8
補助線
  6
BYBLOCK
 62
    64
 10
-70.708045
 20
-84.528997
 11
-70.5842
 21
-84.640532
  0
LINE
  8
補助線
  6
BYBLOCK
 62
    64
 10
-70.590352
 20
-84.52284
 11
-70.70189
 21
-84.646688
  0
LINE
  8
補助線
  6
BYBLOCK
 62
    64
 10
-81.423147
 20
-74.878972
 11
-81.299302
 21
-74.990507
  0
LINE
  8
補助線
  6
BYBLOCK
 62
    64
 10
-81.305458
 20
-74.872815
 11
-81.416993
 21
-74.996662
  0
LINE
  8
補助線
  6
BYBLOCK
 62
    64
 10
-92.014405
 20
-65.340482
 11
-92.138248
 21
-65.228947
  0
LINE
  8
補助線
  6
BYBLOCK
 62
    64
 10
-92.020557
 20
-65.22279
 11
-92.132095
 21
-65.346638
  0
LINE
  8
型材断面
  6
CONTINUOUS
 10
-69.840755
 20
-84.18861
 11
-69.803827
 21
-84.89475
  0
LINE
  8
型材断面
  6
CONTINUOUS
 10
-69.803827
 20
-84.89475
 11
-70.249967
 21
-85.390132
  0
LINE
  8
型材断面
  6
CONTINUOUS
 10
-70.249967
 20
-85.390132
 11
-70.95611
 21
-85.427063
  0
LINE
  8
型材断面
  6
CONTINUOUS
 10
-91.766342
 20
-64.44242
 11
-92.472483
 21
-64.47935
  0
LINE
  8
型材断面
  6
CONTINUOUS
 10
-92.472483
 20
-64.47935
 11
-92.918625
 21
-64.97473
  0
LINE
  8
型材断面
  6
CONTINUOUS
 10
-92.918625
 20
-64.97473
 11
-92.881695
 21
-65.680875
  0
LINE
  8
型材断面
  6
CONTINUOUS
 10
-70.95611
 20
-85.427063
 11
-92.881695
 21
-65.680875
  0
LINE
  8
型材断面
  6
CONTINUOUS
 10
-69.840755
 20
-84.18861
 11
-91.766342
 21
-64.44242
  0
CIRCLE
  8
ボルト／ビス
  6
CONTINUOUS
 10
-70.646123
 20
-84.584765
 40
0.250185
  0
CIRCLE
  8
ボルト／ビス
  6
CONTINUOUS
 10
-70.646123
 20
-84.584765
 40
0.301025
  0
LINE
  8
ボルト／ビス
  6
CONTINUOUS
 62
    64
 10
-70.40141
 20
-84.63681
 11
-70.478695
 21
-84.39886
  0
LINE
  8
ボルト／ビス
  6
CONTINUOUS
 62
    64
 10
-70.723408
 20
-84.346815
 11
-70.478695
 21
-84.39886
  0
LINE
  8
ボルト／ビス
  6
CONTINUOUS
 62
    64
 10
-70.568837
 20
-84.822715
 11
-70.81355
 21
-84.77067
  0
LINE
  8
ボルト／ビス
  6
CONTINUOUS
 62
    64
 10
-70.890835
 20
-84.53272
 11
-70.81355
 21
-84.77067
  0
LINE
  8
ボルト／ビス
  6
CONTINUOUS
 62
    64
 10
-70.40141
 20
-84.63681
 11
-70.568837
 21
-84.822715
  0
LINE
  8
ボルト／ビス
  6
CONTINUOUS
 62
    64
 10
-70.723408
 20
-84.346815
 11
-70.890835
 21
-84.53272
  0
CIRCLE
  8
ボルト／ビス
  6
CONTINUOUS
 62
    64
 10
-70.646123
 20
-84.584765
 40
0.216668
  0
CIRCLE
  8
ボルト／ビス
  6
CONTINUOUS
 10
-81.361225
 20
-74.934742
 40
0.250185
  0
CIRCLE
  8
ボルト／ビス
  6
CONTINUOUS
 10
-81.361225
 20
-74.934742
 40
0.301025
  0
LINE
  8
ボルト／ビス
  6
CONTINUOUS
 62
    64
 10
-81.11651
 20
-74.986785
 11
-81.193797
 21
-74.748835
  0
LINE
  8
ボルト／ビス
  6
CONTINUOUS
 62
    64
 10
-81.43851
 20
-74.696792
 11
-81.193797
 21
-74.748835
  0
LINE
  8
ボルト／ビス
  6
CONTINUOUS
 62
    64
 10
-81.283937
 20
-75.17269
 11
-81.52865
 21
-75.120645
  0
LINE
  8
ボルト／ビス
  6
CONTINUOUS
 62
    64
 10
-81.605937
 20
-74.882697
 11
-81.52865
 21
-75.120645
  0
LINE
  8
ボルト／ビス
  6
CONTINUOUS
 62
    64
 10
-81.11651
 20
-74.986785
 11
-81.283937
 21
-75.17269
  0
LINE
  8
ボルト／ビス
  6
CONTINUOUS
 62
    64
 10
-81.43851
 20
-74.696792
 11
-81.605937
 21
-74.882697
  0
CIRCLE
  8
ボルト／ビス
  6
CONTINUOUS
 62
    64
 10
-81.361225
 20
-74.934742
 40
0.216668
  0
CIRCLE
  8
ボルト／ビス
  6
CONTINUOUS
 10
-92.076325
 20
-65.284715
 40
0.250185
  0
CIRCLE
  8
ボルト／ビス
  6
CONTINUOUS
 10
-92.076325
 20
-65.284715
 40
0.301025
  0
LINE
  8
ボルト／ビス
  6
CONTINUOUS
 62
    64
 10
-92.153612
 20
-65.046765
 11
-91.9089
 21
-65.09881
  0
LINE
  8
ボルト／ビス
  6
CONTINUOUS
 62
    64
 10
-91.831615
 20
-65.33676
 11
-91.9089
 21
-65.09881
  0
LINE
  8
ボルト／ビス
  6
CONTINUOUS
 62
    64
 10
-92.32104
 20
-65.23267
 11
-92.243753
 21
-65.47062
  0
LINE
  8
ボルト／ビス
  6
CONTINUOUS
 62
    64
 10
-91.99904
 20
-65.522665
 11
-92.243753
 21
-65.47062
  0
LINE
  8
ボルト／ビス
  6
CONTINUOUS
 62
    64
 10
-92.153612
 20
-65.046765
 11
-92.32104
 21
-65.23267
  0
LINE
  8
ボルト／ビス
  6
CONTINUOUS
 62
    64
 10
-91.831615
 20
-65.33676
 11
-91.99904
 21
-65.522665
  0
CIRCLE
  8
ボルト／ビス
  6
CONTINUOUS
 62
    64
 10
-92.076325
 20
-65.284715
 40
0.216668
  0
ENDBLK
  0
BLOCK
  2
*GRP_0015
 70
    65
 10
0.0
 20
0.0
  0
LINE
  8
補助線
  6
BYBLOCK
 62
    64
 10
51.195085
 20
-84.528997
 11
51.31893
 21
-84.640532
  0
LINE
  8
補助線
  6
BYBLOCK
 62
    64
 10
51.312778
 20
-84.52284
 11
51.20124
 21
-84.646688
  0
LINE
  8
補助線
  6
BYBLOCK
 62
    64
 10
40.479983
 20
-74.878972
 11
40.603828
 21
-74.990507
  0
LINE
  8
補助線
  6
BYBLOCK
 62
    64
 10
40.597673
 20
-74.872815
 11
40.486138
 21
-74.996662
  0
LINE
  8
補助線
  6
BYBLOCK
 62
    64
 10
29.888725
 20
-65.340482
 11
29.764883
 21
-65.228947
  0
LINE
  8
補助線
  6
BYBLOCK
 62
    64
 10
29.882573
 20
-65.22279
 11
29.771035
 21
-65.346638
  0
LINE
  8
型材断面
  6
CONTINUOUS
 10
52.062375
 20
-84.18861
 11
52.099302
 21
-84.89475
  0
LINE
  8
型材断面
  6
CONTINUOUS
 10
52.099302
 20
-84.89475
 11
51.653162
 21
-85.390132
  0
LINE
  8
型材断面
  6
CONTINUOUS
 10
51.653162
 20
-85.390132
 11
50.94702
 21
-85.427063
  0
LINE
  8
型材断面
  6
CONTINUOUS
 10
30.136787
 20
-64.44242
 11
29.430647
 21
-64.47935
  0
LINE
  8
型材断面
  6
CONTINUOUS
 10
29.430647
 20
-64.47935
 11
28.984505
 21
-64.97473
  0
LINE
  8
型材断面
  6
CONTINUOUS
 10
28.984505
 20
-64.97473
 11
29.021435
 21
-65.680875
  0
LINE
  8
型材断面
  6
CONTINUOUS
 10
50.94702
 20
-85.427063
 11
29.021435
 21
-65.680875
  0
LINE
  8
型材断面
  6
CONTINUOUS
 10
52.062375
 20
-84.18861
 11
30.136787
 21
-64.44242
  0
CIRCLE
  8
ボルト／ビス
  6
CONTINUOUS
 10
51.257007
 20
-84.584765
 40
0.250185
  0
CIRCLE
  8
ボルト／ビス
  6
CONTINUOUS
 10
51.257007
 20
-84.584765
 40
0.301025
  0
LINE
  8
ボルト／ビス
  6
CONTINUOUS
 62
    64
 10
51.50172
 20
-84.63681
 11
51.424435
 21
-84.39886
  0
LINE
  8
ボルト／ビス
  6
CONTINUOUS
 62
    64
 10
51.179723
 20
-84.346815
 11
51.424435
 21
-84.39886
  0
LINE
  8
ボルト／ビス
  6
CONTINUOUS
 62
    64
 10
51.334293
 20
-84.822715
 11
51.08958
 21
-84.77067
  0
LINE
  8
ボルト／ビス
  6
CONTINUOUS
 62
    64
 10
51.012295
 20
-84.53272
 11
51.08958
 21
-84.77067
  0
LINE
  8
ボルト／ビス
  6
CONTINUOUS
 62
    64
 10
51.50172
 20
-84.63681
 11
51.334293
 21
-84.822715
  0
LINE
  8
ボルト／ビス
  6
CONTINUOUS
 62
    64
 10
51.179723
 20
-84.346815
 11
51.012295
 21
-84.53272
  0
CIRCLE
  8
ボルト／ビス
  6
CONTINUOUS
 62
    64
 10
51.257007
 20
-84.584765
 40
0.216668
  0
CIRCLE
  8
ボルト／ビス
  6
CONTINUOUS
 10
40.541905
 20
-74.934742
 40
0.250185
  0
CIRCLE
  8
ボルト／ビス
  6
CONTINUOUS
 10
40.541905
 20
-74.934742
 40
0.301025
  0
LINE
  8
ボルト／ビス
  6
CONTINUOUS
 62
    64
 10
40.78662
 20
-74.986785
 11
40.709332
 21
-74.748835
  0
LINE
  8
ボルト／ビス
  6
CONTINUOUS
 62
    64
 10
40.46462
 20
-74.696792
 11
40.709332
 21
-74.748835
  0
LINE
  8
ボルト／ビス
  6
CONTINUOUS
 62
    64
 10
40.619192
 20
-75.17269
 11
40.37448
 21
-75.120645
  0
LINE
  8
ボルト／ビス
  6
CONTINUOUS
 62
    64
 10
40.297192
 20
-74.882697
 11
40.37448
 21
-75.120645
  0
LINE
  8
ボルト／ビス
  6
CONTINUOUS
 62
    64
 10
40.78662
 20
-74.986785
 11
40.619192
 21
-75.17269
  0
LINE
  8
ボルト／ビス
  6
CONTINUOUS
 62
    64
 10
40.46462
 20
-74.696792
 11
40.297192
 21
-74.882697
  0
CIRCLE
  8
ボルト／ビス
  6
CONTINUOUS
 62
    64
 10
40.541905
 20
-74.934742
 40
0.216668
  0
CIRCLE
  8
ボルト／ビス
  6
CONTINUOUS
 10
29.826805
 20
-65.284715
 40
0.250185
  0
CIRCLE
  8
ボルト／ビス
  6
CONTINUOUS
 10
29.826805
 20
-65.284715
 40
0.301025
  0
LINE
  8
ボルト／ビス
  6
CONTINUOUS
 62
    64
 10
29.749518
 20
-65.046765
 11
29.99423
 21
-65.09881
  0
LINE
  8
ボルト／ビス
  6
CONTINUOUS
 62
    64
 10
30.071515
 20
-65.33676
 11
29.99423
 21
-65.09881
  0
LINE
  8
ボルト／ビス
  6
CONTINUOUS
 62
    64
 10
29.58209
 20
-65.23267
 11
29.659377
 21
-65.47062
  0
LINE
  8
ボルト／ビス
  6
CONTINUOUS
 62
    64
 10
29.90409
 20
-65.522665
 11
29.659377
 21
-65.47062
  0
LINE
  8
ボルト／ビス
  6
CONTINUOUS
 62
    64
 10
29.749518
 20
-65.046765
 11
29.58209
 21
-65.23267
  0
LINE
  8
ボルト／ビス
  6
CONTINUOUS
 62
    64
 10
30.071515
 20
-65.33676
 11
29.90409
 21
-65.522665
  0
CIRCLE
  8
ボルト／ビス
  6
CONTINUOUS
 62
    64
 10
29.826805
 20
-65.284715
 40
0.216668
  0
ENDBLK
  0
BLOCK
  2
*GRP_0016
 70
    65
 10
0.0
 20
0.0
  0
LINE
  8
補助線
  6
BYBLOCK
 62
    64
 10
29.888725
 20
-84.528997
 11
29.76488
 21
-84.640532
  0
LINE
  8
補助線
  6
BYBLOCK
 62
    64
 10
29.771033
 20
-84.52284
 11
29.88257
 21
-84.646688
  0
LINE
  8
補助線
  6
BYBLOCK
 62
    64
 10
40.603828
 20
-74.878972
 11
40.479983
 21
-74.990507
  0
LINE
  8
補助線
  6
BYBLOCK
 62
    64
 10
40.486138
 20
-74.872815
 11
40.597673
 21
-74.996662
  0
LINE
  8
補助線
  6
BYBLOCK
 62
    64
 10
51.195085
 20
-65.340482
 11
51.318928
 21
-65.228947
  0
LINE
  8
補助線
  6
BYBLOCK
 62
    64
 10
51.201238
 20
-65.22279
 11
51.312775
 21
-65.346638
  0
LINE
  8
型材断面
  6
CONTINUOUS
 10
29.021435
 20
-84.18861
 11
28.984507
 21
-84.89475
  0
LINE
  8
型材断面
  6
CONTINUOUS
 10
28.984507
 20
-84.89475
 11
29.430647
 21
-85.390132
  0
LINE
  8
型材断面
  6
CONTINUOUS
 10
29.430647
 20
-85.390132
 11
30.13679
 21
-85.427063
  0
LINE
  8
型材断面
  6
CONTINUOUS
 10
50.947022
 20
-64.44242
 11
51.653162
 21
-64.47935
  0
LINE
  8
型材断面
  6
CONTINUOUS
 10
51.653162
 20
-64.47935
 11
52.099305
 21
-64.97473
  0
LINE
  8
型材断面
  6
CONTINUOUS
 10
52.099305
 20
-64.97473
 11
52.062375
 21
-65.680875
  0
LINE
  8
型材断面
  6
CONTINUOUS
 10
30.13679
 20
-85.427063
 11
52.062375
 21
-65.680875
  0
LINE
  8
型材断面
  6
CONTINUOUS
 10
29.021435
 20
-84.18861
 11
50.947022
 21
-64.44242
  0
CIRCLE
  8
ボルト／ビス
  6
CONTINUOUS
 10
29.826802
 20
-84.584765
 40
0.250185
  0
CIRCLE
  8
ボルト／ビス
  6
CONTINUOUS
 10
29.826802
 20
-84.584765
 40
0.301025
  0
LINE
  8
ボルト／ビス
  6
CONTINUOUS
 62
    64
 10
29.58209
 20
-84.63681
 11
29.659375
 21
-84.39886
  0
LINE
  8
ボルト／ビス
  6
CONTINUOUS
 62
    64
 10
29.904088
 20
-84.346815
 11
29.659375
 21
-84.39886
  0
LINE
  8
ボルト／ビス
  6
CONTINUOUS
 62
    64
 10
29.749518
 20
-84.822715
 11
29.99423
 21
-84.77067
  0
LINE
  8
ボルト／ビス
  6
CONTINUOUS
 62
    64
 10
30.071515
 20
-84.53272
 11
29.99423
 21
-84.77067
  0
LINE
  8
ボルト／ビス
  6
CONTINUOUS
 62
    64
 10
29.58209
 20
-84.63681
 11
29.749518
 21
-84.822715
  0
LINE
  8
ボルト／ビス
  6
CONTINUOUS
 62
    64
 10
29.904088
 20
-84.346815
 11
30.071515
 21
-84.53272
  0
CIRCLE
  8
ボルト／ビス
  6
CONTINUOUS
 62
    64
 10
29.826802
 20
-84.584765
 40
0.216668
  0
CIRCLE
  8
ボルト／ビス
  6
CONTINUOUS
 10
40.541905
 20
-74.934742
 40
0.250185
  0
CIRCLE
  8
ボルト／ビス
  6
CONTINUOUS
 10
40.541905
 20
-74.934742
 40
0.301025
  0
LINE
  8
ボルト／ビス
  6
CONTINUOUS
 62
    64
 10
40.29719
 20
-74.986785
 11
40.374477
 21
-74.748835
  0
LINE
  8
ボルト／ビス
  6
CONTINUOUS
 62
    64
 10
40.61919
 20
-74.696792
 11
40.374477
 21
-74.748835
  0
LINE
  8
ボルト／ビス
  6
CONTINUOUS
 62
    64
 10
40.464617
 20
-75.17269
 11
40.70933
 21
-75.120645
  0
LINE
  8
ボルト／ビス
  6
CONTINUOUS
 62
    64
 10
40.786617
 20
-74.882697
 11
40.70933
 21
-75.120645
  0
LINE
  8
ボルト／ビス
  6
CONTINUOUS
 62
    64
 10
40.29719
 20
-74.986785
 11
40.464617
 21
-75.17269
  0
LINE
  8
ボルト／ビス
  6
CONTINUOUS
 62
    64
 10
40.61919
 20
-74.696792
 11
40.786617
 21
-74.882697
  0
CIRCLE
  8
ボルト／ビス
  6
CONTINUOUS
 62
    64
 10
40.541905
 20
-74.934742
 40
0.216668
  0
CIRCLE
  8
ボルト／ビス
  6
CONTINUOUS
 10
51.257005
 20
-65.284715
 40
0.250185
  0
CIRCLE
  8
ボルト／ビス
  6
CONTINUOUS
 10
51.257005
 20
-65.284715
 40
0.301025
  0
LINE
  8
ボルト／ビス
  6
CONTINUOUS
 62
    64
 10
51.334293
 20
-65.046765
 11
51.08958
 21
-65.09881
  0
LINE
  8
ボルト／ビス
  6
CONTINUOUS
 62
    64
 10
51.012295
 20
-65.33676
 11
51.08958
 21
-65.09881
  0
LINE
  8
ボルト／ビス
  6
CONTINUOUS
 62
    64
 10
51.50172
 20
-65.23267
 11
51.424432
 21
-65.47062
  0
LINE
  8
ボルト／ビス
  6
CONTINUOUS
 62
    64
 10
51.17972
 20
-65.522665
 11
51.424432
 21
-65.47062
  0
LINE
  8
ボルト／ビス
  6
CONTINUOUS
 62
    64
 10
51.334293
 20
-65.046765
 11
51.50172
 21
-65.23267
  0
LINE
  8
ボルト／ビス
  6
CONTINUOUS
 62
    64
 10
51.012295
 20
-65.33676
 11
51.17972
 21
-65.522665
  0
CIRCLE
  8
ボルト／ビス
  6
CONTINUOUS
 62
    64
 10
51.257005
 20
-65.284715
 40
0.216668
  0
ENDBLK
  0
BLOCK
  2
*DIM_0017
 70
    65
 10
0.0
 20
0.0
  0
LINE
  8
寸法
  6
BYBLOCK
 62
     0
 10
160.790272
 20
61.39905
 11
160.790272
 21
72.668433
  0
LINE
  8
寸法
  6
BYBLOCK
 62
     0
 10
167.823775
 20
61.715715
 11
167.823775
 21
72.668433
  0
LINE
  8
寸法
  6
BYBLOCK
 62
     0
 10
160.790272
 20
72.668433
 11
167.823775
 21
72.668433
  0
POINT
  8
寸法
 62
     0
 10
160.790272
 20
72.668433
  0
POINT
  8
寸法
 62
     0
 10
167.823775
 20
72.668433
  0
TEXT
  7
TextStyle03
  8
寸法
  6
CONTINUOUS
 62
     0
 10
161.8125
 20
73.025
  1
211
 40
3.0
 72
     5
 11
166.6875
 21
73.025
  0
ENDBLK
  0
BLOCK
  2
*DIM_0018
 70
    65
 10
0.0
 20
0.0
  0
LINE
  8
寸法
  6
BYBLOCK
 62
     0
 10
159.167058
 20
58.715715
 11
105.276657
 21
58.715715
  0
LINE
  8
寸法
  6
BYBLOCK
 62
     0
 10
105.276657
 20
56.73238
 11
105.276657
 21
58.715715
  0
POINT
  8
寸法
 62
     0
 10
105.276657
 20
56.73238
  0
POINT
  8
寸法
 62
     0
 10
105.276657
 20
58.715715
  0
TEXT
  7
TextStyle03
  8
寸法
  6
CONTINUOUS
 62
     0
 10
104.85
 20
61.16875
  1
59.5
 40
3.0
 50
90.0
 72
     5
 11
104.85
 21
67.73125
  0
ENDBLK
  0
BLOCK
  2
*DIM_0019
 70
    65
 10
0.0
 20
0.0
  0
LINE
  8
寸法
  6
BYBLOCK
 62
     0
 10
159.167058
 20
11.415715
 11
105.276657
 21
11.415715
  0
LINE
  8
寸法
  6
BYBLOCK
 62
     0
 10
105.276657
 20
13.399048
 11
105.276657
 21
11.415715
  0
POINT
  8
寸法
 62
     0
 10
105.276657
 20
13.399048
  0
POINT
  8
寸法
 62
     0
 10
105.276657
 20
11.415715
  0
TEXT
  7
TextStyle03
  8
寸法
  6
CONTINUOUS
 62
     0
 10
104.85
 20
2.36875
  1
59.5
 40
3.0
 50
90.0
 72
     5
 11
104.85
 21
8.93125
  0
ENDBLK
  0
BLOCK
  2
*DIM_0020
 70
    65
 10
0.0
 20
0.0
  0
LINE
  8
寸法
  6
BYBLOCK
 62
     0
 10
73.24034
 20
-78.001383
 11
73.24034
 21
-22.536362
  0
LINE
  8
寸法
  6
BYBLOCK
 62
     0
 10
71.257007
 20
-22.536362
 11
73.24034
 21
-22.536362
  0
POINT
  8
寸法
 62
     0
 10
71.257007
 20
-22.536362
  0
POINT
  8
寸法
 62
     0
 10
73.24034
 20
-22.536362
  0
TEXT
  7
TextStyle03
  8
寸法
  6
CONTINUOUS
 62
     0
 10
75.69375
 20
-22.15
  1
59.5
 40
3.0
 72
     5
 11
82.25625
 21
-22.15
  0
ENDBLK
  0
BLOCK
  2
*DIM_0021
 70
    65
 10
0.0
 20
0.0
  0
LINE
  8
寸法
  6
BYBLOCK
 62
     0
 10
-114.05966
 20
-78.001383
 11
-114.05966
 21
-22.536362
  0
LINE
  8
寸法
  6
BYBLOCK
 62
     0
 10
-112.076325
 20
-22.536362
 11
-114.05966
 21
-22.536362
  0
POINT
  8
寸法
 62
     0
 10
-112.076325
 20
-22.536362
  0
POINT
  8
寸法
 62
     0
 10
-114.05966
 20
-22.536362
  0
TEXT
  7
TextStyle03
  8
寸法
  6
CONTINUOUS
 62
     0
 10
-123.13125
 20
-22.15
  1
59.5
 40
3.0
 72
     5
 11
-116.56875
 21
-22.15
  0
ENDBLK
  0
BLOCK
  2
*DIM_0022
 70
    65
 10
0.0
 20
0.0
  0
LINE
  8
寸法
  6
BYBLOCK
 62
     0
 10
75.923675
 20
-79.624597
 11
92.877188
 21
-79.624597
  0
LINE
  8
寸法
  6
BYBLOCK
 62
     0
 10
76.24034
 20
-86.6581
 11
92.877188
 21
-86.6581
  0
LINE
  8
寸法
  6
BYBLOCK
 62
     0
 10
92.877188
 20
-79.624597
 11
92.877188
 21
-86.6581
  0
POINT
  8
寸法
 62
     0
 10
92.877188
 20
-79.624597
  0
POINT
  8
寸法
 62
     0
 10
92.877188
 20
-86.6581
  0
TEXT
  7
TextStyle03
  8
寸法
  6
CONTINUOUS
 62
     0
 10
92.5
 20
-85.5875
  1
211
 40
3.0
 50
90.0
 72
     5
 11
92.5
 21
-80.7125
  0
ENDBLK
  0
BLOCK
  2
*DIM_0023
 70
    65
 10
0.0
 20
0.0
  0
LINE
  8
寸法
  6
BYBLOCK
 62
     0
 10
-115.076325
 20
23.399048
 11
-144.02149
 21
23.399048
  0
LINE
  8
寸法
  6
BYBLOCK
 62
     0
 10
-115.076325
 20
46.732382
 11
-144.02149
 21
46.732382
  0
LINE
  8
寸法
  6
BYBLOCK
 62
     0
 10
-144.02149
 20
23.399048
 11
-144.02149
 21
46.732382
  0
POINT
  8
寸法
 62
     0
 10
-144.02149
 20
23.399048
  0
POINT
  8
寸法
 62
     0
 10
-144.02149
 20
46.732382
  0
TEXT
  7
TextStyle03
  8
寸法
  6
CONTINUOUS
 62
     0
 10
-144.35
 20
32.6125
  1
700
 40
3.0
 50
90.0
 72
     5
 11
-144.35
 21
37.4875
  0
ENDBLK
  0
BLOCK
  2
*DIM_0024
 70
    65
 10
0.0
 20
0.0
  0
LINE
  8
寸法
  6
BYBLOCK
 62
     0
 10
-100.40966
 20
59.73238
 11
-100.40966
 21
88.840452
  0
LINE
  8
寸法
  6
BYBLOCK
 62
     0
 10
-73.742993
 20
59.73238
 11
-73.742993
 21
88.840452
  0
LINE
  8
寸法
  6
BYBLOCK
 62
     0
 10
-100.40966
 20
88.840452
 11
-73.742993
 21
88.840452
  0
POINT
  8
寸法
 62
     0
 10
-100.40966
 20
88.840452
  0
POINT
  8
寸法
 62
     0
 10
-73.742993
 20
88.840452
  0
TEXT
  7
TextStyle03
  8
寸法
  6
CONTINUOUS
 62
     0
 10
-89.5375
 20
89.2
  1
800
 40
3.0
 72
     5
 11
-84.6625
 21
89.2
  0
ENDBLK
  0
BLOCK
  2
*DIM_0025
 70
    65
 10
0.0
 20
0.0
  0
LINE
  8
寸法
  6
BYBLOCK
 62
     0
 10
-47.076328
 20
59.73238
 11
-47.076328
 21
88.840452
  0
LINE
  8
寸法
  6
BYBLOCK
 62
     0
 10
-73.742993
 20
88.840452
 11
-47.076328
 21
88.840452
  0
POINT
  8
寸法
 62
     0
 10
-47.076328
 20
88.840452
  0
TEXT
  7
TextStyle03
  8
寸法
  6
CONTINUOUS
 62
     0
 10
-62.8625
 20
89.2
  1
800
 40
3.0
 72
     5
 11
-57.9875
 21
89.2
  0
ENDBLK
  0
BLOCK
  2
*DIM_0026
 70
    65
 10
0.0
 20
0.0
  0
LINE
  8
寸法
  6
BYBLOCK
 62
     0
 10
-20.40966
 20
59.73238
 11
-20.40966
 21
88.840452
  0
LINE
  8
寸法
  6
BYBLOCK
 62
     0
 10
-47.076328
 20
88.840452
 11
-20.40966
 21
88.840452
  0
POINT
  8
寸法
 62
     0
 10
-20.40966
 20
88.840452
  0
TEXT
  7
TextStyle03
  8
寸法
  6
CONTINUOUS
 62
     0
 10
-36.1875
 20
89.2
  1
800
 40
3.0
 72
     5
 11
-31.3125
 21
89.2
  0
ENDBLK
  0
BLOCK
  2
*DIM_0027
 70
    65
 10
0.0
 20
0.0
  0
LINE
  8
寸法
  6
BYBLOCK
 62
     0
 10
6.257007
 20
59.73238
 11
6.257007
 21
88.840452
  0
LINE
  8
寸法
  6
BYBLOCK
 62
     0
 10
-20.40966
 20
88.840452
 11
6.257007
 21
88.840452
  0
POINT
  8
寸法
 62
     0
 10
6.257007
 20
88.840452
  0
TEXT
  7
TextStyle03
  8
寸法
  6
CONTINUOUS
 62
     0
 10
-9.5375
 20
89.2
  1
800
 40
3.0
 72
     5
 11
-4.6625
 21
89.2
  0
ENDBLK
  0
BLOCK
  2
*DIM_0028
 70
    65
 10
0.0
 20
0.0
  0
LINE
  8
寸法
  6
BYBLOCK
 62
     0
 10
32.923673
 20
59.73238
 11
32.923673
 21
88.840452
  0
LINE
  8
寸法
  6
BYBLOCK
 62
     0
 10
6.257007
 20
88.840452
 11
32.923673
 21
88.840452
  0
POINT
  8
寸法
 62
     0
 10
32.923673
 20
88.840452
  0
TEXT
  7
TextStyle03
  8
寸法
  6
CONTINUOUS
 62
     0
 10
17.1375
 20
89.2
  1
800
 40
3.0
 72
     5
 11
22.0125
 21
89.2
  0
ENDBLK
  0
BLOCK
  2
*DIM_0029
 70
    65
 10
0.0
 20
0.0
  0
LINE
  8
寸法
  6
BYBLOCK
 62
     0
 10
59.59034
 20
59.73238
 11
59.59034
 21
88.840452
  0
LINE
  8
寸法
  6
BYBLOCK
 62
     0
 10
32.923673
 20
88.840452
 11
59.59034
 21
88.840452
  0
POINT
  8
寸法
 62
     0
 10
59.59034
 20
88.840452
  0
TEXT
  7
TextStyle03
  8
寸法
  6
CONTINUOUS
 62
     0
 10
43.8125
 20
89.2
  1
800
 40
3.0
 72
     5
 11
48.6875
 21
89.2
  0
ENDBLK
  0
BLOCK
  2
*GRP_0030
 70
    65
 10
0.0
 20
0.0
  0
LINE
  8
補助線
  6
BYBLOCK
 62
    64
 10
-31.06284
 20
-84.528997
 11
-31.186685
 21
-84.640532
  0
LINE
  8
補助線
  6
BYBLOCK
 62
    64
 10
-31.180533
 20
-84.52284
 11
-31.068995
 21
-84.646688
  0
LINE
  8
補助線
  6
BYBLOCK
 62
    64
 10
-20.347738
 20
-74.878972
 11
-20.471583
 21
-74.990507
  0
LINE
  8
補助線
  6
BYBLOCK
 62
    64
 10
-20.465427
 20
-74.872815
 11
-20.353892
 21
-74.996662
  0
LINE
  8
補助線
  6
BYBLOCK
 62
    64
 10
-9.75648
 20
-65.340482
 11
-9.632637
 21
-65.228947
  0
LINE
  8
補助線
  6
BYBLOCK
 62
    64
 10
-9.750328
 20
-65.22279
 11
-9.63879
 21
-65.346638
  0
LINE
  8
型材断面
  6
CONTINUOUS
 10
-31.93013
 20
-84.18861
 11
-31.967058
 21
-84.89475
  0
LINE
  8
型材断面
  6
CONTINUOUS
 10
-31.967058
 20
-84.89475
 11
-31.520917
 21
-85.390132
  0
LINE
  8
型材断面
  6
CONTINUOUS
 10
-31.520917
 20
-85.390132
 11
-30.814775
 21
-85.427063
  0
LINE
  8
型材断面
  6
CONTINUOUS
 10
-10.004543
 20
-64.44242
 11
-9.298402
 21
-64.47935
  0
LINE
  8
型材断面
  6
CONTINUOUS
 10
-9.298402
 20
-64.47935
 11
-8.85226
 21
-64.97473
  0
LINE
  8
型材断面
  6
CONTINUOUS
 10
-8.85226
 20
-64.97473
 11
-8.88919
 21
-65.680875
  0
LINE
  8
型材断面
  6
CONTINUOUS
 10
-30.814775
 20
-85.427063
 11
-8.88919
 21
-65.680875
  0
LINE
  8
型材断面
  6
CONTINUOUS
 10
-31.93013
 20
-84.18861
 11
-10.004543
 21
-64.44242
  0
CIRCLE
  8
ボルト／ビス
  6
CONTINUOUS
 10
-31.124762
 20
-84.584765
 40
0.250185
  0
CIRCLE
  8
ボルト／ビス
  6
CONTINUOUS
 10
-31.124762
 20
-84.584765
 40
0.301025
  0
LINE
  8
ボルト／ビス
  6
CONTINUOUS
 62
    64
 10
-31.369475
 20
-84.63681
 11
-31.29219
 21
-84.39886
  0
LINE
  8
ボルト／ビス
  6
CONTINUOUS
 62
    64
 10
-31.047477
 20
-84.346815
 11
-31.29219
 21
-84.39886
  0
LINE
  8
ボルト／ビス
  6
CONTINUOUS
 62
    64
 10
-31.202048
 20
-84.822715
 11
-30.957335
 21
-84.77067
  0
LINE
  8
ボルト／ビス
  6
CONTINUOUS
 62
    64
 10
-30.88005
 20
-84.53272
 11
-30.957335
 21
-84.77067
  0
LINE
  8
ボルト／ビス
  6
CONTINUOUS
 62
    64
 10
-31.369475
 20
-84.63681
 11
-31.202048
 21
-84.822715
  0
LINE
  8
ボルト／ビス
  6
CONTINUOUS
 62
    64
 10
-31.047477
 20
-84.346815
 11
-30.88005
 21
-84.53272
  0
CIRCLE
  8
ボルト／ビス
  6
CONTINUOUS
 62
    64
 10
-31.124762
 20
-84.584765
 40
0.216668
  0
CIRCLE
  8
ボルト／ビス
  6
CONTINUOUS
 10
-20.40966
 20
-74.934742
 40
0.250185
  0
CIRCLE
  8
ボルト／ビス
  6
CONTINUOUS
 10
-20.40966
 20
-74.934742
 40
0.301025
  0
LINE
  8
ボルト／ビス
  6
CONTINUOUS
 62
    64
 10
-20.654375
 20
-74.986785
 11
-20.577088
 21
-74.748835
  0
LINE
  8
ボルト／ビス
  6
CONTINUOUS
 62
    64
 10
-20.332375
 20
-74.696792
 11
-20.577088
 21
-74.748835
  0
LINE
  8
ボルト／ビス
  6
CONTINUOUS
 62
    64
 10
-20.486948
 20
-75.17269
 11
-20.242235
 21
-75.120645
  0
LINE
  8
ボルト／ビス
  6
CONTINUOUS
 62
    64
 10
-20.164948
 20
-74.882697
 11
-20.242235
 21
-75.120645
  0
LINE
  8
ボルト／ビス
  6
CONTINUOUS
 62
    64
 10
-20.654375
 20
-74.986785
 11
-20.486948
 21
-75.17269
  0
LINE
  8
ボルト／ビス
  6
CONTINUOUS
 62
    64
 10
-20.332375
 20
-74.696792
 11
-20.164948
 21
-74.882697
  0
CIRCLE
  8
ボルト／ビス
  6
CONTINUOUS
 62
    64
 10
-20.40966
 20
-74.934742
 40
0.216668
  0
CIRCLE
  8
ボルト／ビス
  6
CONTINUOUS
 10
-9.69456
 20
-65.284715
 40
0.250185
  0
CIRCLE
  8
ボルト／ビス
  6
CONTINUOUS
 10
-9.69456
 20
-65.284715
 40
0.301025
  0
LINE
  8
ボルト／ビス
  6
CONTINUOUS
 62
    64
 10
-9.617273
 20
-65.046765
 11
-9.861985
 21
-65.09881
  0
LINE
  8
ボルト／ビス
  6
CONTINUOUS
 62
    64
 10
-9.93927
 20
-65.33676
 11
-9.861985
 21
-65.09881
  0
LINE
  8
ボルト／ビス
  6
CONTINUOUS
 62
    64
 10
-9.449845
 20
-65.23267
 11
-9.527132
 21
-65.47062
  0
LINE
  8
ボルト／ビス
  6
CONTINUOUS
 62
    64
 10
-9.771845
 20
-65.522665
 11
-9.527132
 21
-65.47062
  0
LINE
  8
ボルト／ビス
  6
CONTINUOUS
 62
    64
 10
-9.617273
 20
-65.046765
 11
-9.449845
 21
-65.23267
  0
LINE
  8
ボルト／ビス
  6
CONTINUOUS
 62
    64
 10
-9.93927
 20
-65.33676
 11
-9.771845
 21
-65.522665
  0
CIRCLE
  8
ボルト／ビス
  6
CONTINUOUS
 62
    64
 10
-9.69456
 20
-65.284715
 40
0.216668
  0
ENDBLK
  0
BLOCK
  2
*GRP_0031
 70
    65
 10
0.0
 20
0.0
  0
LINE
  8
補助線
  6
BYBLOCK
 62
    64
 10
-9.75648
 20
-84.528997
 11
-9.632635
 21
-84.640532
  0
LINE
  8
補助線
  6
BYBLOCK
 62
    64
 10
-9.638788
 20
-84.52284
 11
-9.750325
 21
-84.646688
  0
LINE
  8
補助線
  6
BYBLOCK
 62
    64
 10
-20.471583
 20
-74.878972
 11
-20.347738
 21
-74.990507
  0
LINE
  8
補助線
  6
BYBLOCK
 62
    64
 10
-20.353892
 20
-74.872815
 11
-20.465427
 21
-74.996662
  0
LINE
  8
補助線
  6
BYBLOCK
 62
    64
 10
-31.06284
 20
-65.340482
 11
-31.186683
 21
-65.228947
  0
LINE
  8
補助線
  6
BYBLOCK
 62
    64
 10
-31.068992
 20
-65.22279
 11
-31.18053
 21
-65.346638
  0
LINE
  8
型材断面
  6
CONTINUOUS
 10
-8.88919
 20
-84.18861
 11
-8.852262
 21
-84.89475
  0
LINE
  8
型材断面
  6
CONTINUOUS
 10
-8.852262
 20
-84.89475
 11
-9.298402
 21
-85.390132
  0
LINE
  8
型材断面
  6
CONTINUOUS
 10
-9.298402
 20
-85.390132
 11
-10.004545
 21
-85.427063
  0
LINE
  8
型材断面
  6
CONTINUOUS
 10
-30.814778
 20
-64.44242
 11
-31.520917
 21
-64.47935
  0
LINE
  8
型材断面
  6
CONTINUOUS
 10
-31.520917
 20
-64.47935
 11
-31.96706
 21
-64.97473
  0
LINE
  8
型材断面
  6
CONTINUOUS
 10
-31.96706
 20
-64.97473
 11
-31.93013
 21
-65.680875
  0
LINE
  8
型材断面
  6
CONTINUOUS
 10
-10.004545
 20
-85.427063
 11
-31.93013
 21
-65.680875
  0
LINE
  8
型材断面
  6
CONTINUOUS
 10
-8.88919
 20
-84.18861
 11
-30.814778
 21
-64.44242
  0
CIRCLE
  8
ボルト／ビス
  6
CONTINUOUS
 10
-9.694557
 20
-84.584765
 40
0.250185
  0
CIRCLE
  8
ボルト／ビス
  6
CONTINUOUS
 10
-9.694557
 20
-84.584765
 40
0.301025
  0
LINE
  8
ボルト／ビス
  6
CONTINUOUS
 62
    64
 10
-9.449845
 20
-84.63681
 11
-9.52713
 21
-84.39886
  0
LINE
  8
ボルト／ビス
  6
CONTINUOUS
 62
    64
 10
-9.771843
 20
-84.346815
 11
-9.52713
 21
-84.39886
  0
LINE
  8
ボルト／ビス
  6
CONTINUOUS
 62
    64
 10
-9.617273
 20
-84.822715
 11
-9.861985
 21
-84.77067
  0
LINE
  8
ボルト／ビス
  6
CONTINUOUS
 62
    64
 10
-9.93927
 20
-84.53272
 11
-9.861985
 21
-84.77067
  0
LINE
  8
ボルト／ビス
  6
CONTINUOUS
 62
    64
 10
-9.449845
 20
-84.63681
 11
-9.617273
 21
-84.822715
  0
LINE
  8
ボルト／ビス
  6
CONTINUOUS
 62
    64
 10
-9.771843
 20
-84.346815
 11
-9.93927
 21
-84.53272
  0
CIRCLE
  8
ボルト／ビス
  6
CONTINUOUS
 62
    64
 10
-9.694557
 20
-84.584765
 40
0.216668
  0
CIRCLE
  8
ボルト／ビス
  6
CONTINUOUS
 10
-20.40966
 20
-74.934742
 40
0.250185
  0
CIRCLE
  8
ボルト／ビス
  6
CONTINUOUS
 10
-20.40966
 20
-74.934742
 40
0.301025
  0
LINE
  8
ボルト／ビス
  6
CONTINUOUS
 62
    64
 10
-20.164945
 20
-74.986785
 11
-20.242232
 21
-74.748835
  0
LINE
  8
ボルト／ビス
  6
CONTINUOUS
 62
    64
 10
-20.486945
 20
-74.696792
 11
-20.242232
 21
-74.748835
  0
LINE
  8
ボルト／ビス
  6
CONTINUOUS
 62
    64
 10
-20.332373
 20
-75.17269
 11
-20.577085
 21
-75.120645
  0
LINE
  8
ボルト／ビス
  6
CONTINUOUS
 62
    64
 10
-20.654373
 20
-74.882697
 11
-20.577085
 21
-75.120645
  0
LINE
  8
ボルト／ビス
  6
CONTINUOUS
 62
    64
 10
-20.164945
 20
-74.986785
 11
-20.332373
 21
-75.17269
  0
LINE
  8
ボルト／ビス
  6
CONTINUOUS
 62
    64
 10
-20.486945
 20
-74.696792
 11
-20.654373
 21
-74.882697
  0
CIRCLE
  8
ボルト／ビス
  6
CONTINUOUS
 62
    64
 10
-20.40966
 20
-74.934742
 40
0.216668
  0
CIRCLE
  8
ボルト／ビス
  6
CONTINUOUS
 10
-31.12476
 20
-65.284715
 40
0.250185
  0
CIRCLE
  8
ボルト／ビス
  6
CONTINUOUS
 10
-31.12476
 20
-65.284715
 40
0.301025
  0
LINE
  8
ボルト／ビス
  6
CONTINUOUS
 62
    64
 10
-31.202048
 20
-65.046765
 11
-30.957335
 21
-65.09881
  0
LINE
  8
ボルト／ビス
  6
CONTINUOUS
 62
    64
 10
-30.88005
 20
-65.33676
 11
-30.957335
 21
-65.09881
  0
LINE
  8
ボルト／ビス
  6
CONTINUOUS
 62
    64
 10
-31.369475
 20
-65.23267
 11
-31.292188
 21
-65.47062
  0
LINE
  8
ボルト／ビス
  6
CONTINUOUS
 62
    64
 10
-31.047475
 20
-65.522665
 11
-31.292188
 21
-65.47062
  0
LINE
  8
ボルト／ビス
  6
CONTINUOUS
 62
    64
 10
-31.202048
 20
-65.046765
 11
-31.369475
 21
-65.23267
  0
LINE
  8
ボルト／ビス
  6
CONTINUOUS
 62
    64
 10
-30.88005
 20
-65.33676
 11
-31.047475
 21
-65.522665
  0
CIRCLE
  8
ボルト／ビス
  6
CONTINUOUS
 62
    64
 10
-31.12476
 20
-65.284715
 40
0.216668
  0
ENDBLK
  0
BLOCK
  2
*GRP_0033
 70
    65
 10
0.0
 20
0.0
  0
LINE
  8
ボルト／ビス
  6
CONTINUOUS
 10
160.790272
 20
12.73238
 11
160.323608
 21
12.73238
  0
LINE
  8
ボルト／ビス
  6
CONTINUOUS
 10
160.790272
 20
12.365715
 11
160.723608
 21
12.365715
  0
LINE
  8
ボルト／ビス
  6
CONTINUOUS
 10
160.723608
 20
12.365715
 11
160.723608
 21
13.099048
  0
LINE
  8
ボルト／ビス
  6
CONTINUOUS
 10
160.723608
 20
13.099048
 11
160.790272
 21
13.099048
  0
LINE
  8
ボルト／ビス
  6
CONTINUOUS
 10
160.790272
 20
12.365715
 11
160.790272
 21
13.099048
  0
LINE
  8
ボルト／ビス
  6
CONTINUOUS
 10
160.690272
 20
12.43238
 11
160.723608
 21
12.43238
  0
LINE
  8
ボルト／ビス
  6
CONTINUOUS
 10
160.690272
 20
12.43238
 11
160.690272
 21
13.03238
  0
LINE
  8
ボルト／ビス
  6
CONTINUOUS
 10
160.690272
 20
13.03238
 11
160.723608
 21
13.03238
  0
LINE
  8
ボルト／ビス
  6
CONTINUOUS
 62
    64
 10
160.490273
 20
12.572005
 11
160.501947
 21
12.53993
  0
ARC
  8
ボルト／ビス
  6
CONTINUOUS
 62
    64
 10
160.595252
 20
12.588044
 40
0.104978
 50
152.721967
 51
180.0
  0
ARC
  8
ボルト／ビス
  6
CONTINUOUS
 62
    64
 10
160.892675
 20
12.732382
 40
0.402402
 50
166.165002
 51
193.834985
  0
LINE
  8
ボルト／ビス
  6
CONTINUOUS
 62
    64
 10
160.490273
 20
12.892755
 11
160.501947
 21
12.92483
  0
ARC
  8
ボルト／ビス
  6
CONTINUOUS
 62
    64
 10
160.595252
 20
12.876719
 40
0.104978
 50
180.0
 51
207.278033
  0
LINE
  8
ボルト／ビス
  6
CONTINUOUS
 62
    64
 10
160.490273
 20
12.572005
 11
160.490273
 21
12.892755
  0
LINE
  8
ボルト／ビス
  6
CONTINUOUS
 62
    64
 10
160.501947
 20
12.92483
 11
160.623608
 21
12.92483
  0
LINE
  8
ボルト／ビス
  6
CONTINUOUS
 62
    64
 10
160.501947
 20
12.828605
 11
160.623608
 21
12.828605
  0
LINE
  8
ボルト／ビス
  6
CONTINUOUS
 62
    64
 10
160.501947
 20
12.53993
 11
160.623608
 21
12.53993
  0
LINE
  8
ボルト／ビス
  6
CONTINUOUS
 62
    64
 10
160.501947
 20
12.636155
 11
160.623608
 21
12.636155
  0
LINE
  8
ボルト／ビス
  6
CONTINUOUS
 10
160.623608
 20
12.53993
 11
160.623608
 21
12.92483
  0
LINE
  8
ボルト／ビス
  6
CONTINUOUS
 10
160.623608
 20
12.53238
 11
160.690272
 21
12.53238
  0
LINE
  8
ボルト／ビス
  6
CONTINUOUS
 10
160.623608
 20
12.53238
 11
160.623608
 21
12.93238
  0
LINE
  8
ボルト／ビス
  6
CONTINUOUS
 10
160.623608
 20
12.93238
 11
160.690272
 21
12.93238
  0
ENDBLK
  0
BLOCK
  2
*GRP_0034
 70
    65
 10
0.0
 20
0.0
  0
LINE
  8
ボルト／ビス
  6
CONTINUOUS
 10
160.790272
 20
57.39905
 11
160.323608
 21
57.39905
  0
LINE
  8
ボルト／ビス
  6
CONTINUOUS
 10
160.790272
 20
57.765715
 11
160.723608
 21
57.765715
  0
LINE
  8
ボルト／ビス
  6
CONTINUOUS
 10
160.723608
 20
57.765715
 11
160.723608
 21
57.032382
  0
LINE
  8
ボルト／ビス
  6
CONTINUOUS
 10
160.723608
 20
57.032382
 11
160.790272
 21
57.032382
  0
LINE
  8
ボルト／ビス
  6
CONTINUOUS
 10
160.790272
 20
57.765715
 11
160.790272
 21
57.032382
  0
LINE
  8
ボルト／ビス
  6
CONTINUOUS
 10
160.690272
 20
57.69905
 11
160.723608
 21
57.69905
  0
LINE
  8
ボルト／ビス
  6
CONTINUOUS
 10
160.690272
 20
57.69905
 11
160.690272
 21
57.09905
  0
LINE
  8
ボルト／ビス
  6
CONTINUOUS
 10
160.690272
 20
57.09905
 11
160.723608
 21
57.09905
  0
LINE
  8
ボルト／ビス
  6
CONTINUOUS
 62
    64
 10
160.490273
 20
57.559425
 11
160.501947
 21
57.5915
  0
ARC
  8
ボルト／ビス
  6
CONTINUOUS
 62
    64
 10
160.595252
 20
57.543386
 40
0.104978
 50
180.0
 51
207.278033
  0
ARC
  8
ボルト／ビス
  6
CONTINUOUS
 62
    64
 10
160.892675
 20
57.399048
 40
0.402402
 50
166.165015
 51
193.834998
  0
LINE
  8
ボルト／ビス
  6
CONTINUOUS
 62
    64
 10
160.490273
 20
57.238675
 11
160.501947
 21
57.2066
  0
ARC
  8
ボルト／ビス
  6
CONTINUOUS
 62
    64
 10
160.595252
 20
57.254711
 40
0.104978
 50
152.721967
 51
180.0
  0
LINE
  8
ボルト／ビス
  6
CONTINUOUS
 62
    64
 10
160.490273
 20
57.559425
 11
160.490273
 21
57.238675
  0
LINE
  8
ボルト／ビス
  6
CONTINUOUS
 62
    64
 10
160.501947
 20
57.2066
 11
160.623608
 21
57.2066
  0
LINE
  8
ボルト／ビス
  6
CONTINUOUS
 62
    64
 10
160.501947
 20
57.302825
 11
160.623608
 21
57.302825
  0
LINE
  8
ボルト／ビス
  6
CONTINUOUS
 62
    64
 10
160.501947
 20
57.5915
 11
160.623608
 21
57.5915
  0
LINE
  8
ボルト／ビス
  6
CONTINUOUS
 62
    64
 10
160.501947
 20
57.495275
 11
160.623608
 21
57.495275
  0
LINE
  8
ボルト／ビス
  6
CONTINUOUS
 10
160.623608
 20
57.5915
 11
160.623608
 21
57.2066
  0
LINE
  8
ボルト／ビス
  6
CONTINUOUS
 10
160.623608
 20
57.59905
 11
160.690272
 21
57.59905
  0
LINE
  8
ボルト／ビス
  6
CONTINUOUS
 10
160.623608
 20
57.59905
 11
160.623608
 21
57.19905
  0
LINE
  8
ボルト／ビス
  6
CONTINUOUS
 10
160.623608
 20
57.19905
 11
160.690272
 21
57.19905
  0
ENDBLK
  0
BLOCK
  2
*GRP_0035
 70
    65
 10
0.0
 20
0.0
  0
LINE
  8
ボルト／ビス
  6
CONTINUOUS
 10
71.923675
 20
-79.624597
 11
71.923675
 21
-79.157932
  0
LINE
  8
ボルト／ビス
  6
CONTINUOUS
 10
71.55701
 20
-79.624597
 11
71.55701
 21
-79.557932
  0
LINE
  8
ボルト／ビス
  6
CONTINUOUS
 10
71.55701
 20
-79.557932
 11
72.290343
 21
-79.557932
  0
LINE
  8
ボルト／ビス
  6
CONTINUOUS
 10
72.290343
 20
-79.557932
 11
72.290343
 21
-79.624597
  0
LINE
  8
ボルト／ビス
  6
CONTINUOUS
 10
71.55701
 20
-79.624597
 11
72.290343
 21
-79.624597
  0
LINE
  8
ボルト／ビス
  6
CONTINUOUS
 10
71.623675
 20
-79.524597
 11
71.623675
 21
-79.557932
  0
LINE
  8
ボルト／ビス
  6
CONTINUOUS
 10
71.623675
 20
-79.524597
 11
72.223675
 21
-79.524597
  0
LINE
  8
ボルト／ビス
  6
CONTINUOUS
 10
72.223675
 20
-79.524597
 11
72.223675
 21
-79.557932
  0
LINE
  8
ボルト／ビス
  6
CONTINUOUS
 62
    64
 10
71.7633
 20
-79.324597
 11
71.731225
 21
-79.336272
  0
ARC
  8
ボルト／ビス
  6
CONTINUOUS
 62
    64
 10
71.779339
 20
-79.429577
 40
0.104978
 50
62.721967
 51
90.0
  0
ARC
  8
ボルト／ビス
  6
CONTINUOUS
 62
    64
 10
71.923676
 20
-79.727001
 40
0.402402
 50
76.165002
 51
103.834985
  0
LINE
  8
ボルト／ビス
  6
CONTINUOUS
 62
    64
 10
72.08405
 20
-79.324597
 11
72.116125
 21
-79.336272
  0
ARC
  8
ボルト／ビス
  6
CONTINUOUS
 62
    64
 10
72.068014
 20
-79.429577
 40
0.104978
 50
90.0
 51
117.278033
  0
LINE
  8
ボルト／ビス
  6
CONTINUOUS
 62
    64
 10
71.7633
 20
-79.324597
 11
72.08405
 21
-79.324597
  0
LINE
  8
ボルト／ビス
  6
CONTINUOUS
 62
    64
 10
72.116125
 20
-79.336272
 11
72.116125
 21
-79.457932
  0
LINE
  8
ボルト／ビス
  6
CONTINUOUS
 62
    64
 10
72.0199
 20
-79.336272
 11
72.0199
 21
-79.457932
  0
LINE
  8
ボルト／ビス
  6
CONTINUOUS
 62
    64
 10
71.731225
 20
-79.336272
 11
71.731225
 21
-79.457932
  0
LINE
  8
ボルト／ビス
  6
CONTINUOUS
 62
    64
 10
71.82745
 20
-79.336272
 11
71.82745
 21
-79.457932
  0
LINE
  8
ボルト／ビス
  6
CONTINUOUS
 10
71.731225
 20
-79.457932
 11
72.116125
 21
-79.457932
  0
LINE
  8
ボルト／ビス
  6
CONTINUOUS
 10
71.723675
 20
-79.457932
 11
71.723675
 21
-79.524597
  0
LINE
  8
ボルト／ビス
  6
CONTINUOUS
 10
71.723675
 20
-79.457932
 11
72.123675
 21
-79.457932
  0
LINE
  8
ボルト／ビス
  6
CONTINUOUS
 10
72.123675
 20
-79.457932
 11
72.123675
 21
-79.524597
  0
ENDBLK
  0
BLOCK
  2
*GRP_0036
 70
    65
 10
0.0
 20
0.0
  0
LINE
  8
ボルト／ビス
  6
DOT
 10
71.923675
 20
-62.95793
 11
71.923675
 21
-62.491265
  0
LINE
  8
ボルト／ビス
  6
DOT
 10
71.55701
 20
-62.95793
 11
71.55701
 21
-62.891265
  0
LINE
  8
ボルト／ビス
  6
DOT
 10
71.55701
 20
-62.891265
 11
72.290343
 21
-62.891265
  0
LINE
  8
ボルト／ビス
  6
DOT
 10
72.290343
 20
-62.891265
 11
72.290343
 21
-62.95793
  0
LINE
  8
ボルト／ビス
  6
DOT
 10
71.55701
 20
-62.95793
 11
72.290343
 21
-62.95793
  0
LINE
  8
ボルト／ビス
  6
DOT
 10
71.623675
 20
-62.85793
 11
71.623675
 21
-62.891265
  0
LINE
  8
ボルト／ビス
  6
DOT
 10
71.623675
 20
-62.85793
 11
72.223675
 21
-62.85793
  0
LINE
  8
ボルト／ビス
  6
DOT
 10
72.223675
 20
-62.85793
 11
72.223675
 21
-62.891265
  0
LINE
  8
ボルト／ビス
  6
DOT
 62
    64
 10
71.7633
 20
-62.65793
 11
71.731225
 21
-62.669605
  0
ARC
  8
ボルト／ビス
  6
DOT
 62
    64
 10
71.779339
 20
-62.76291
 40
0.104978
 50
62.721967
 51
90.0
  0
ARC
  8
ボルト／ビス
  6
DOT
 62
    64
 10
71.923676
 20
-63.060334
 40
0.402402
 50
76.165002
 51
103.834985
  0
LINE
  8
ボルト／ビス
  6
DOT
 62
    64
 10
72.08405
 20
-62.65793
 11
72.116125
 21
-62.669605
  0
ARC
  8
ボルト／ビス
  6
DOT
 62
    64
 10
72.068014
 20
-62.76291
 40
0.104978
 50
90.0
 51
117.278033
  0
LINE
  8
ボルト／ビス
  6
DOT
 62
    64
 10
71.7633
 20
-62.65793
 11
72.08405
 21
-62.65793
  0
LINE
  8
ボルト／ビス
  6
DOT
 62
    64
 10
72.116125
 20
-62.669605
 11
72.116125
 21
-62.791265
  0
LINE
  8
ボルト／ビス
  6
DOT
 62
    64
 10
72.0199
 20
-62.669605
 11
72.0199
 21
-62.791265
  0
LINE
  8
ボルト／ビス
  6
DOT
 62
    64
 10
71.731225
 20
-62.669605
 11
71.731225
 21
-62.791265
  0
LINE
  8
ボルト／ビス
  6
DOT
 62
    64
 10
71.82745
 20
-62.669605
 11
71.82745
 21
-62.791265
  0
LINE
  8
ボルト／ビス
  6
DOT
 10
71.731225
 20
-62.791265
 11
72.116125
 21
-62.791265
  0
LINE
  8
ボルト／ビス
  6
DOT
 10
71.723675
 20
-62.791265
 11
71.723675
 21
-62.85793
  0
LINE
  8
ボルト／ビス
  6
DOT
 10
71.723675
 20
-62.791265
 11
72.123675
 21
-62.791265
  0
LINE
  8
ボルト／ビス
  6
DOT
 10
72.123675
 20
-62.791265
 11
72.123675
 21
-62.85793
  0
ENDBLK
  0
BLOCK
  2
*GRP_0037
 70
    65
 10
0.0
 20
0.0
  0
LINE
  8
ボルト／ビス
  6
CONTINUOUS
 10
-112.742995
 20
-79.624597
 11
-112.742995
 21
-79.157932
  0
LINE
  8
ボルト／ビス
  6
CONTINUOUS
 10
-112.37633
 20
-79.624597
 11
-112.37633
 21
-79.557932
  0
LINE
  8
ボルト／ビス
  6
CONTINUOUS
 10
-112.37633
 20
-79.557932
 11
-113.109663
 21
-79.557932
  0
LINE
  8
ボルト／ビス
  6
CONTINUOUS
 10
-113.109663
 20
-79.557932
 11
-113.109663
 21
-79.624597
  0
LINE
  8
ボルト／ビス
  6
CONTINUOUS
 10
-112.37633
 20
-79.624597
 11
-113.109663
 21
-79.624597
  0
LINE
  8
ボルト／ビス
  6
CONTINUOUS
 10
-112.442995
 20
-79.524597
 11
-112.442995
 21
-79.557932
  0
LINE
  8
ボルト／ビス
  6
CONTINUOUS
 10
-112.442995
 20
-79.524597
 11
-113.042995
 21
-79.524597
  0
LINE
  8
ボルト／ビス
  6
CONTINUOUS
 10
-113.042995
 20
-79.524597
 11
-113.042995
 21
-79.557932
  0
LINE
  8
ボルト／ビス
  6
CONTINUOUS
 62
    64
 10
-112.58262
 20
-79.324597
 11
-112.550545
 21
-79.336272
  0
ARC
  8
ボルト／ビス
  6
CONTINUOUS
 62
    64
 10
-112.598659
 20
-79.429577
 40
0.104978
 50
90.0
 51
117.278033
  0
ARC
  8
ボルト／ビス
  6
CONTINUOUS
 62
    64
 10
-112.742996
 20
-79.727001
 40
0.402402
 50
76.165015
 51
103.834998
  0
LINE
  8
ボルト／ビス
  6
CONTINUOUS
 62
    64
 10
-112.90337
 20
-79.324597
 11
-112.935445
 21
-79.336272
  0
ARC
  8
ボルト／ビス
  6
CONTINUOUS
 62
    64
 10
-112.887334
 20
-79.429577
 40
0.104978
 50
62.721967
 51
90.0
  0
LINE
  8
ボルト／ビス
  6
CONTINUOUS
 62
    64
 10
-112.58262
 20
-79.324597
 11
-112.90337
 21
-79.324597
  0
LINE
  8
ボルト／ビス
  6
CONTINUOUS
 62
    64
 10
-112.935445
 20
-79.336272
 11
-112.935445
 21
-79.457932
  0
LINE
  8
ボルト／ビス
  6
CONTINUOUS
 62
    64
 10
-112.83922
 20
-79.336272
 11
-112.83922
 21
-79.457932
  0
LINE
  8
ボルト／ビス
  6
CONTINUOUS
 62
    64
 10
-112.550545
 20
-79.336272
 11
-112.550545
 21
-79.457932
  0
LINE
  8
ボルト／ビス
  6
CONTINUOUS
 62
    64
 10
-112.64677
 20
-79.336272
 11
-112.64677
 21
-79.457932
  0
LINE
  8
ボルト／ビス
  6
CONTINUOUS
 10
-112.550545
 20
-79.457932
 11
-112.935445
 21
-79.457932
  0
LINE
  8
ボルト／ビス
  6
CONTINUOUS
 10
-112.542995
 20
-79.457932
 11
-112.542995
 21
-79.524597
  0
LINE
  8
ボルト／ビス
  6
CONTINUOUS
 10
-112.542995
 20
-79.457932
 11
-112.942995
 21
-79.457932
  0
LINE
  8
ボルト／ビス
  6
CONTINUOUS
 10
-112.942995
 20
-79.457932
 11
-112.942995
 21
-79.524597
  0
ENDBLK
  0
BLOCK
  2
*GRP_0038
 70
    65
 10
0.0
 20
0.0
  0
LINE
  8
ボルト／ビス
  6
DOT
 10
-112.742995
 20
-62.95793
 11
-112.742995
 21
-62.491265
  0
LINE
  8
ボルト／ビス
  6
DOT
 10
-112.37633
 20
-62.95793
 11
-112.37633
 21
-62.891265
  0
LINE
  8
ボルト／ビス
  6
DOT
 10
-112.37633
 20
-62.891265
 11
-113.109663
 21
-62.891265
  0
LINE
  8
ボルト／ビス
  6
DOT
 10
-113.109663
 20
-62.891265
 11
-113.109663
 21
-62.95793
  0
LINE
  8
ボルト／ビス
  6
DOT
 10
-112.37633
 20
-62.95793
 11
-113.109663
 21
-62.95793
  0
LINE
  8
ボルト／ビス
  6
DOT
 10
-112.442995
 20
-62.85793
 11
-112.442995
 21
-62.891265
  0
LINE
  8
ボルト／ビス
  6
DOT
 10
-112.442995
 20
-62.85793
 11
-113.042995
 21
-62.85793
  0
LINE
  8
ボルト／ビス
  6
DOT
 10
-113.042995
 20
-62.85793
 11
-113.042995
 21
-62.891265
  0
LINE
  8
ボルト／ビス
  6
DOT
 62
    64
 10
-112.58262
 20
-62.65793
 11
-112.550545
 21
-62.669605
  0
ARC
  8
ボルト／ビス
  6
DOT
 62
    64
 10
-112.598659
 20
-62.76291
 40
0.104978
 50
90.0
 51
117.278033
  0
ARC
  8
ボルト／ビス
  6
DOT
 62
    64
 10
-112.742996
 20
-63.060334
 40
0.402402
 50
76.165015
 51
103.834998
  0
LINE
  8
ボルト／ビス
  6
DOT
 62
    64
 10
-112.90337
 20
-62.65793
 11
-112.935445
 21
-62.669605
  0
ARC
  8
ボルト／ビス
  6
DOT
 62
    64
 10
-112.887334
 20
-62.76291
 40
0.104978
 50
62.721967
 51
90.0
  0
LINE
  8
ボルト／ビス
  6
DOT
 62
    64
 10
-112.58262
 20
-62.65793
 11
-112.90337
 21
-62.65793
  0
LINE
  8
ボルト／ビス
  6
DOT
 62
    64
 10
-112.935445
 20
-62.669605
 11
-112.935445
 21
-62.791265
  0
LINE
  8
ボルト／ビス
  6
DOT
 62
    64
 10
-112.83922
 20
-62.669605
 11
-112.83922
 21
-62.791265
  0
LINE
  8
ボルト／ビス
  6
DOT
 62
    64
 10
-112.550545
 20
-62.669605
 11
-112.550545
 21
-62.791265
  0
LINE
  8
ボルト／ビス
  6
DOT
 62
    64
 10
-112.64677
 20
-62.669605
 11
-112.64677
 21
-62.791265
  0
LINE
  8
ボルト／ビス
  6
DOT
 10
-112.550545
 20
-62.791265
 11
-112.935445
 21
-62.791265
  0
LINE
  8
ボルト／ビス
  6
DOT
 10
-112.542995
 20
-62.791265
 11
-112.542995
 21
-62.85793
  0
LINE
  8
ボルト／ビス
  6
DOT
 10
-112.542995
 20
-62.791265
 11
-112.942995
 21
-62.791265
  0
LINE
  8
ボルト／ビス
  6
DOT
 10
-112.942995
 20
-62.791265
 11
-112.942995
 21
-62.85793
  0
ENDBLK
  0
BLOCK
  2
*DIM_0039
 70
    65
 10
0.0
 20
0.0
  0
LINE
  8
寸法
  6
BYBLOCK
 62
     0
 10
52.59034
 20
-51.291262
 11
92.877188
 21
-51.291262
  0
LINE
  8
寸法
  6
BYBLOCK
 62
     0
 10
92.877188
 20
-67.95793
 11
92.877188
 21
-51.291262
  0
POINT
  8
寸法
 62
     0
 10
92.877188
 20
-51.291262
  0
TEXT
  7
TextStyle03
  8
寸法
  6
CONTINUOUS
 62
     0
 10
92.65
 20
-49.6375
  1
上昇高さ500
 40
3.0
 50
90.0
 72
     5
 11
92.65
 21
-31.2625
  0
ENDBLK
  0
ENDSEC
  0
SECTION
  2
ENTITIES
  0
POLYLINE
  8
通り芯
  6
CONTINUOUS
 66
     1
 70
     1
  0
VERTEX
  8
通り芯
 10
-210.0
 20
-148.5
  0
VERTEX
  8
通り芯
 10
210.0
 20
-148.5
  0
VERTEX
  8
通り芯
 10
210.0
 20
148.5
  0
VERTEX
  8
通り芯
 10
-210.0
 20
148.5
  0
SEQEND
  0
INSERT
  2
*GRP_0001
  8
型材断面
  6
CONTINUOUS
 10
0.0
 20
0.0
  0
LINE
  8
型材断面
  6
DASHDOT
 10
71.257007
 20
-87.251428
 11
71.257007
 21
56.73238
  0
LINE
  8
型材断面
  6
DASHDOT
 10
-112.076325
 20
-87.251428
 11
-112.076325
 21
56.73238
  0
LINE
  8
型材断面
  6
DASHDOT
 10
-20.40966
 20
-87.251428
 11
-20.40966
 21
56.73238
  0
POLYLINE
  8
型材断面
  6
CONTINUOUS
 66
     1
 70
     1
  0
VERTEX
  8
型材断面
 10
-10.935852
 20
66.508305
  0
VERTEX
  8
型材断面
 10
-29.707783
 20
66.508305
  0
VERTEX
  8
型材断面
 10
-29.707783
 20
71.245147
  0
VERTEX
  8
型材断面
 10
-10.935852
 20
71.245147
  0
SEQEND
  0
POLYLINE
  8
型材断面
  6
CONTINUOUS
 66
     1
 70
     1
  0
VERTEX
  8
型材断面
 10
-10.935852
 20
3.623125
  0
VERTEX
  8
型材断面
 10
-29.707783
 20
3.623125
  0
VERTEX
  8
型材断面
 10
-29.707783
 20
-1.113717
  0
VERTEX
  8
型材断面
 10
-10.935852
 20
-1.113717
  0
SEQEND
  0
LINE
  8
型材断面
  6
DASHDOT
 10
168.93377
 20
56.73238
 11
-112.076325
 21
56.73238
  0
LINE
  8
型材断面
  6
DASHDOT
 10
168.93377
 20
13.399048
 11
-112.076325
 21
13.399048
  0
LINE
  8
型材断面
  6
DASHDOT
 10
168.93377
 20
35.065715
 11
-112.076325
 21
35.065715
  0
LINE
  8
型材断面
  6
CONTINUOUS
 10
-114.706455
 20
35.065715
 11
-117.296962
 21
36.561345
  0
LINE
  8
型材断面
  6
CONTINUOUS
 10
-114.706455
 20
35.065715
 11
-117.296962
 21
33.570085
  0
LINE
  8
型材断面
  6
CONTINUOUS
 10
-117.296962
 20
33.570085
 11
-117.296962
 21
36.561345
  0
LINE
  8
型材断面
  6
CONTINUOUS
 10
-95.409657
 20
59.36251
 11
-96.905288
 21
61.953017
  0
LINE
  8
型材断面
  6
CONTINUOUS
 10
-95.409657
 20
59.36251
 11
-93.914027
 21
61.953017
  0
LINE
  8
型材断面
  6
CONTINUOUS
 10
-93.914027
 20
61.953017
 11
-96.905288
 21
61.953017
  0
LINE
  8
型材断面
  6
CONTINUOUS
 10
-152.928532
 20
94.709852
 11
-152.332478
 21
92.119345
  0
LINE
  8
型材断面
  6
CONTINUOUS
 10
-152.928532
 20
94.709852
 11
-153.52459
 21
92.119345
  0
LINE
  8
型材断面
  6
CONTINUOUS
 10
-153.52459
 20
92.119345
 11
-152.332478
 21
92.119345
  0
LINE
  8
型材断面
  6
CONTINUOUS
 10
-158.95112
 20
88.840452
 11
-112.709343
 21
88.840452
  0
LINE
  8
型材断面
  6
CONTINUOUS
 10
-152.928532
 20
101.239727
 11
-154.424162
 21
98.64922
  0
LINE
  8
型材断面
  6
CONTINUOUS
 10
-152.928532
 20
101.239727
 11
-151.432903
 21
98.64922
  0
LINE
  8
型材断面
  6
CONTINUOUS
 10
-151.432903
 20
98.64922
 11
-154.424162
 21
98.64922
  0
LINE
  8
型材断面
  6
CONTINUOUS
 10
-158.95112
 20
97.710625
 11
-112.709343
 21
97.710625
  0
LINE
  8
型材断面
  6
CONTINUOUS
 10
-158.95112
 20
83.05242
 11
-112.709343
 21
83.05242
  0
LINE
  8
型材断面
  6
CONTINUOUS
 10
-95.409657
 20
10.76892
 11
-96.905288
 21
8.178413
  0
LINE
  8
型材断面
  6
CONTINUOUS
 10
-95.409657
 20
10.76892
 11
-93.914027
 21
8.178413
  0
LINE
  8
型材断面
  6
CONTINUOUS
 10
-93.914027
 20
8.178413
 11
-96.905288
 21
8.178413
  0
LINE
  8
型材断面
  6
CONTINUOUS
 10
73.887135
 20
35.065715
 11
76.477643
 21
36.561345
  0
LINE
  8
型材断面
  6
CONTINUOUS
 10
73.887135
 20
35.065715
 11
76.477643
 21
33.570085
  0
LINE
  8
型材断面
  6
CONTINUOUS
 10
76.477643
 20
33.570085
 11
76.477643
 21
36.561345
  0
LINE
  8
型材断面
  6
CONTINUOUS
 10
54.590337
 20
59.36251
 11
56.085967
 21
61.953017
  0
LINE
  8
型材断面
  6
CONTINUOUS
 10
54.590337
 20
59.36251
 11
53.094708
 21
61.953017
  0
LINE
  8
型材断面
  6
CONTINUOUS
 10
53.094708
 20
61.953017
 11
56.085967
 21
61.953017
  0
LINE
  8
型材断面
  6
CONTINUOUS
 10
54.590337
 20
10.76892
 11
56.085967
 21
8.178413
  0
LINE
  8
型材断面
  6
CONTINUOUS
 10
54.590337
 20
10.76892
 11
53.094708
 21
8.178413
  0
LINE
  8
型材断面
  6
CONTINUOUS
 10
53.094708
 20
8.178413
 11
56.085967
 21
8.178413
  0
LINE
  8
型材断面
  6
CONTINUOUS
 10
-20.40966
 20
59.36251
 11
-21.90529
 21
61.953017
  0
LINE
  8
型材断面
  6
CONTINUOUS
 10
-20.40966
 20
59.36251
 11
-18.91403
 21
61.953017
  0
LINE
  8
型材断面
  6
CONTINUOUS
 10
-18.91403
 20
61.953017
 11
-21.90529
 21
61.953017
  0
LINE
  8
型材断面
  6
CONTINUOUS
 10
-20.40966
 20
10.76892
 11
-21.90529
 21
8.178413
  0
LINE
  8
型材断面
  6
CONTINUOUS
 10
-20.40966
 20
10.76892
 11
-18.91403
 21
8.178413
  0
LINE
  8
型材断面
  6
CONTINUOUS
 10
-18.91403
 20
8.178413
 11
-21.90529
 21
8.178413
  0
LINE
  8
型材断面
  6
CONTINUOUS
 10
73.887138
 20
53.032382
 11
76.477648
 21
52.43633
  0
LINE
  8
型材断面
  6
CONTINUOUS
 10
73.887138
 20
53.032382
 11
76.477645
 21
53.628442
  0
LINE
  8
型材断面
  6
CONTINUOUS
 10
76.477645
 20
53.628442
 11
76.477648
 21
52.43633
  0
LINE
  8
型材断面
  6
CONTINUOUS
 10
73.887138
 20
17.099048
 11
76.477648
 21
17.6951
  0
LINE
  8
型材断面
  6
CONTINUOUS
 10
73.887138
 20
17.099048
 11
76.477645
 21
16.502988
  0
LINE
  8
型材断面
  6
CONTINUOUS
 10
76.477645
 20
16.502988
 11
76.477648
 21
17.6951
  0
LINE
  8
型材断面
  6
CONTINUOUS
 10
-114.706458
 20
53.032382
 11
-117.296968
 21
52.43633
  0
LINE
  8
型材断面
  6
CONTINUOUS
 10
-114.706458
 20
53.032382
 11
-117.296965
 21
53.628442
  0
LINE
  8
型材断面
  6
CONTINUOUS
 10
-117.296965
 20
53.628442
 11
-117.296968
 21
52.43633
  0
LINE
  8
型材断面
  6
CONTINUOUS
 10
-114.706458
 20
17.099048
 11
-117.296968
 21
17.6951
  0
LINE
  8
型材断面
  6
CONTINUOUS
 10
-114.706458
 20
17.099048
 11
-117.296965
 21
16.502988
  0
LINE
  8
型材断面
  6
CONTINUOUS
 10
-117.296965
 20
16.502988
 11
-117.296968
 21
17.6951
  0
INSERT
  2
*GRP_0013
  8
型材断面
  6
CONTINUOUS
 10
0.0
 20
0.0
  0
INSERT
  2
*GRP_0014
  8
型材断面
  6
CONTINUOUS
 10
0.0
 20
0.0
  0
INSERT
  2
*GRP_0015
  8
型材断面
  6
CONTINUOUS
 10
0.0
 20
0.0
  0
INSERT
  2
*GRP_0016
  8
型材断面
  6
CONTINUOUS
 10
0.0
 20
0.0
  0
LINE
  8
型材断面
  6
CONTINUOUS
 62
    47
 10
168.323775
 20
11.915715
 11
167.823775
 21
11.915715
  0
LINE
  8
型材断面
  6
CONTINUOUS
 62
    47
 10
167.823775
 20
11.415715
 11
164.507107
 21
11.415715
  0
LINE
  8
型材断面
  6
CONTINUOUS
 62
    47
 10
162.167058
 20
11.415715
 11
164.34039
 21
11.415715
  0
LINE
  8
型材断面
  6
CONTINUOUS
 62
    47
 10
162.167058
 20
12.299048
 11
161.790272
 21
12.299048
  0
LINE
  8
型材断面
  6
CONTINUOUS
 62
    47
 10
162.167058
 20
11.415715
 11
162.167058
 21
35.065715
  0
LINE
  8
型材断面
  6
CONTINUOUS
 62
    47
 10
164.507107
 20
11.415715
 11
164.50706
 21
35.065715
  0
LINE
  8
型材断面
  6
CONTINUOUS
 62
    47
 10
164.34039
 20
11.415715
 11
164.34039
 21
35.065715
  0
LINE
  8
型材断面
  6
CONTINUOUS
 62
    47
 10
168.323775
 20
11.915715
 11
168.323775
 21
35.065715
  0
LINE
  8
型材断面
  6
CONTINUOUS
 62
    47
 10
167.823775
 20
11.415715
 11
167.823775
 21
35.065715
  0
LINE
  8
型材断面
  6
CONTINUOUS
 62
    47
 10
168.323775
 20
58.215715
 11
167.823775
 21
58.215715
  0
LINE
  8
型材断面
  6
CONTINUOUS
 62
    47
 10
167.823775
 20
58.715715
 11
164.507107
 21
58.715715
  0
LINE
  8
型材断面
  6
CONTINUOUS
 62
    47
 10
162.167058
 20
58.715715
 11
164.34039
 21
58.715715
  0
LINE
  8
型材断面
  6
CONTINUOUS
 62
    47
 10
162.167058
 20
57.832382
 11
161.790272
 21
57.832382
  0
LINE
  8
型材断面
  6
CONTINUOUS
 62
    47
 10
162.167058
 20
58.715715
 11
162.167058
 21
35.065715
  0
LINE
  8
型材断面
  6
CONTINUOUS
 62
    47
 10
164.507107
 20
58.715715
 11
164.50706
 21
35.065715
  0
LINE
  8
型材断面
  6
CONTINUOUS
 62
    47
 10
164.34039
 20
58.715715
 11
164.34039
 21
35.065715
  0
LINE
  8
型材断面
  6
CONTINUOUS
 62
    47
 10
168.323775
 20
58.215715
 11
168.323775
 21
35.065715
  0
LINE
  8
型材断面
  6
CONTINUOUS
 62
    47
 10
167.823775
 20
58.715715
 11
167.823775
 21
35.065715
  0
LINE
  8
型材断面
  6
CONTINUOUS
 62
    47
 10
-113.55966
 20
-87.1581
 11
-113.55966
 21
-86.6581
  0
LINE
  8
型材断面
  6
CONTINUOUS
 62
    47
 10
-114.05966
 20
-86.6581
 11
-114.05966
 21
-83.341432
  0
LINE
  8
型材断面
  6
CONTINUOUS
 62
    47
 10
-114.05966
 20
-81.001383
 11
-114.05966
 21
-83.174715
  0
LINE
  8
型材断面
  6
CONTINUOUS
 62
    47
 10
-113.176328
 20
-81.001383
 11
-113.176328
 21
-80.624597
  0
LINE
  8
型材断面
  6
CONTINUOUS
 62
    47
 10
-113.55966
 20
-87.1581
 11
-20.40966
 21
-87.1581
  0
LINE
  8
型材断面
  6
CONTINUOUS
 62
    47
 10
-114.05966
 20
-86.6581
 11
-20.40966
 21
-86.6581
  0
LINE
  8
型材断面
  6
CONTINUOUS
 62
    47
 10
-114.05966
 20
-83.341432
 11
-20.40966
 21
-83.341258
  0
LINE
  8
型材断面
  6
CONTINUOUS
 62
    47
 10
-114.05966
 20
-83.174715
 11
-20.40966
 21
-83.174715
  0
LINE
  8
型材断面
  6
CONTINUOUS
 62
    47
 10
-114.05966
 20
-81.001383
 11
-20.40966
 21
-81.001383
  0
LINE
  8
型材断面
  6
CONTINUOUS
 62
    47
 10
72.74034
 20
-87.1581
 11
72.74034
 21
-86.6581
  0
LINE
  8
型材断面
  6
CONTINUOUS
 62
    47
 10
73.24034
 20
-86.6581
 11
73.24034
 21
-83.341432
  0
LINE
  8
型材断面
  6
CONTINUOUS
 62
    47
 10
73.24034
 20
-81.001383
 11
73.24034
 21
-83.174715
  0
LINE
  8
型材断面
  6
CONTINUOUS
 62
    47
 10
72.357007
 20
-81.001383
 11
72.357007
 21
-80.624597
  0
LINE
  8
型材断面
  6
CONTINUOUS
 62
    47
 10
72.74034
 20
-87.1581
 11
-20.40966
 21
-87.1581
  0
LINE
  8
型材断面
  6
CONTINUOUS
 62
    47
 10
73.24034
 20
-86.6581
 11
-20.40966
 21
-86.6581
  0
LINE
  8
型材断面
  6
CONTINUOUS
 62
    47
 10
73.24034
 20
-83.341432
 11
-20.40966
 21
-83.341258
  0
LINE
  8
型材断面
  6
CONTINUOUS
 62
    47
 10
73.24034
 20
-83.174715
 11
-20.40966
 21
-83.174715
  0
LINE
  8
型材断面
  6
CONTINUOUS
 62
    47
 10
73.24034
 20
-81.001383
 11
-20.40966
 21
-81.001383
  0
LINE
  8
型材断面
  6
CONTINUOUS
 10
-158.95112
 20
77.264387
 11
-112.709343
 21
77.264387
  0
INSERT
  2
*GRP_0030
  8
型材断面
  6
CONTINUOUS
 10
0.0
 20
0.0
  0
INSERT
  2
*GRP_0031
  8
型材断面
  6
CONTINUOUS
 10
0.0
 20
0.0
  0
LINE
  8
型材断面
  6
DASHDOT
 10
-75.529658
 20
13.399048
 11
-75.529658
 21
56.73238
  0
LINE
  8
型材断面
  6
DOT
 10
-74.279658
 20
13.399048
 11
-74.279658
 21
56.73238
  0
LINE
  8
型材断面
  6
DOT
 10
-76.779658
 20
13.399048
 11
-76.779658
 21
56.73238
  0
LINE
  8
型材断面
  6
DASHDOT
 10
-38.78299
 20
13.399048
 11
-38.78299
 21
56.73238
  0
LINE
  8
型材断面
  6
DOT
 10
-40.03299
 20
13.399048
 11
-40.03299
 21
56.73238
  0
LINE
  8
型材断面
  6
DOT
 10
-37.53299
 20
13.399048
 11
-37.53299
 21
56.73238
  0
LINE
  8
型材断面
  6
DASHDOT
 10
34.710338
 20
13.399048
 11
34.710338
 21
56.73238
  0
LINE
  8
型材断面
  6
DOT
 10
33.460338
 20
13.399048
 11
33.460338
 21
56.73238
  0
LINE
  8
型材断面
  6
DOT
 10
35.960338
 20
13.399048
 11
35.960338
 21
56.73238
  0
LINE
  8
型材断面
  6
DASHDOT
 10
-2.03633
 20
13.399048
 11
-2.03633
 21
56.73238
  0
LINE
  8
型材断面
  6
DOT
 10
-0.78633
 20
13.399048
 11
-0.78633
 21
56.73238
  0
LINE
  8
型材断面
  6
DOT
 10
-3.28633
 20
13.399048
 11
-3.28633
 21
56.73238
  0
TEXT
  7
TextStyle03
  8
文字
  6
CONTINUOUS
 10
147.775
 20
-86.1
  1
網入り6.8t
 40
3.0
 72
     5
 11
164.4625
 21
-86.1
  0
TEXT
  7
TextStyle03
  8
文字
  6
CONTINUOUS
 10
-28.625
 20
67.2
  1
可動装置側
 40
3.0
 72
     5
 11
-12.125
 21
67.2
  0
TEXT
  7
TextStyle03
  8
文字
  6
CONTINUOUS
 10
-28.625
 20
-0.075
  1
可動装置側
 40
3.0
 72
     5
 11
-12.125
 21
-0.075
  0
TEXT
  7
TextStyle03
  8
文字
  6
CONTINUOUS
 10
154.45
 20
-90.775
  1
×５枚
 40
3.0
 72
     5
 11
164.2
 21
-90.775
  0
TEXT
  7
TextStyle03
  8
文字
  6
CONTINUOUS
 10
-150.125
 20
93.325
  1
はケーシング位置を示す
 40
3.0
 72
     5
 11
-113.375
 21
93.325
  0
TEXT
  7
TextStyle03
  8
文字
  6
CONTINUOUS
 10
-150.125
 20
89.95
  1
４ヶ所中1ヶ所に設定
 40
3.0
 72
     5
 11
-118.4375
 21
89.95
  0
TEXT
  7
TextStyle03
  8
文字
  6
CONTINUOUS
 10
-150.125
 20
98.85
  1
は排水穴位置を示す
 40
3.0
 72
     5
 11
-120.125
 21
98.85
  0
TEXT
  7
TextStyle03
  8
文字
  6
CONTINUOUS
 10
-149.55
 20
23.975
  1
アンカーピッチ
 40
3.0
 50
90.0
 72
     5
 11
-149.55
 21
47.225
  0
TEXT
  7
TextStyle03
  8
文字
  6
CONTINUOUS
 10
-98.025
 20
93.125
  1
アンカーピッチ
 40
3.0
 72
     5
 11
-74.775
 21
93.125
  0
TEXT
  7
TextStyle03
  8
文字
  6
CONTINUOUS
 10
-153.85
 20
83.975
  1
アンカー数量　１８ヶ所
 40
3.0
 72
     5
 11
-117.1
 21
83.975
  0
TEXT
  7
TextStyle03
  8
文字
  6
CONTINUOUS
 10
-158.85
 20
73.25
  1
※重量に依るのでご相談ください
 40
3.0
 72
     5
 11
-108.6
 21
73.25
  0
TEXT
  7
TextStyle03
  8
文字
  6
CONTINUOUS
 10
-158.85
 20
78.2
  1
アームユニット数　※６～８ヶ所
 40
3.0
 72
     5
 11
-108.6
 21
78.2
  0
TEXT
  7
TextStyle03
  8
文字
  6
CONTINUOUS
 10
78.1
 20
125.25
  1
シリーズ：ＴＤ２Ｌ
 40
5.0
 72
     5
 11
128.1
 21
125.25
  0
TEXT
  7
TextStyle03
  8
文字
  6
CONTINUOUS
 10
78.1
 20
119.625
  1
　　　　　（上下可動）1300×5500タイプ
 40
5.0
 72
     5
 11
184.35
 21
119.625
  0
TEXT
  7
TextStyle03
  8
文字
  6
CONTINUOUS
 10
78.1
 20
114.0
  1
図面名　：外観姿図
 40
5.0
 72
     5
 11
128.1
 21
114.0
  0
TEXT
  7
TextStyle03
  8
文字
  6
CONTINUOUS
 10
78.1
 20
108.375
  1
　　　　　　
 40
5.0
 72
     5
 11
111.225
 21
108.375
  0
TEXT
  7
TextStyle03
  8
文字
  6
CONTINUOUS
 10
77.125
 20
103.95
  1
ＮＳコード：ＮＳＤＺＬ
 40
5.0
 72
     5
 11
138.375
 21
103.95
  0
INSERT
  2
*DIM_0002
  8
寸法
  6
CONTINUOUS
 10
0.0
 20
0.0
  0
INSERT
  2
*DIM_0003
  8
寸法
  6
CONTINUOUS
 10
0.0
 20
0.0
  0
INSERT
  2
*DIM_0004
  8
寸法
  6
CONTINUOUS
 10
0.0
 20
0.0
  0
INSERT
  2
*DIM_0005
  8
寸法
  6
CONTINUOUS
 10
0.0
 20
0.0
  0
INSERT
  2
*DIM_0006
  8
寸法
  6
CONTINUOUS
 10
0.0
 20
0.0
  0
INSERT
  2
*DIM_0007
  8
寸法
  6
CONTINUOUS
 10
0.0
 20
0.0
  0
INSERT
  2
*DIM_0008
  8
寸法
  6
CONTINUOUS
 10
0.0
 20
0.0
  0
INSERT
  2
*DIM_0009
  8
寸法
  6
CONTINUOUS
 10
0.0
 20
0.0
  0
INSERT
  2
*DIM_0010
  8
寸法
  6
CONTINUOUS
 10
0.0
 20
0.0
  0
INSERT
  2
*DIM_0012
  8
寸法
  6
CONTINUOUS
 10
0.0
 20
0.0
  0
INSERT
  2
*DIM_0017
  8
寸法
  6
CONTINUOUS
 10
0.0
 20
0.0
  0
INSERT
  2
*DIM_0018
  8
寸法
  6
CONTINUOUS
 10
0.0
 20
0.0
  0
INSERT
  2
*DIM_0019
  8
寸法
  6
CONTINUOUS
 10
0.0
 20
0.0
  0
INSERT
  2
*DIM_0020
  8
寸法
  6
CONTINUOUS
 10
0.0
 20
0.0
  0
INSERT
  2
*DIM_0021
  8
寸法
  6
CONTINUOUS
 10
0.0
 20
0.0
  0
INSERT
  2
*DIM_0022
  8
寸法
  6
CONTINUOUS
 10
0.0
 20
0.0
  0
INSERT
  2
*DIM_0023
  8
寸法
  6
CONTINUOUS
 10
0.0
 20
0.0
  0
INSERT
  2
*DIM_0024
  8
寸法
  6
CONTINUOUS
 10
0.0
 20
0.0
  0
INSERT
  2
*DIM_0025
  8
寸法
  6
CONTINUOUS
 10
0.0
 20
0.0
  0
INSERT
  2
*DIM_0026
  8
寸法
  6
CONTINUOUS
 10
0.0
 20
0.0
  0
INSERT
  2
*DIM_0027
  8
寸法
  6
CONTINUOUS
 10
0.0
 20
0.0
  0
INSERT
  2
*DIM_0028
  8
寸法
  6
CONTINUOUS
 10
0.0
 20
0.0
  0
INSERT
  2
*DIM_0029
  8
寸法
  6
CONTINUOUS
 10
0.0
 20
0.0
  0
INSERT
  2
*DIM_0039
  8
寸法
  6
CONTINUOUS
 10
0.0
 20
0.0
  0
LINE
  8
別途部材
  6
CONTINUOUS
 62
    96
 10
160.790272
 20
11.73238
 11
161.790272
 21
11.33238
  0
LINE
  8
別途部材
  6
CONTINUOUS
 10
161.790272
 20
11.33238
 11
161.790272
 21
35.065715
  0
LINE
  8
別途部材
  6
CONTINUOUS
 62
    96
 10
160.790272
 20
11.73238
 11
160.790272
 21
35.065715
  0
LINE
  8
別途部材
  6
CONTINUOUS
 62
    96
 10
160.790272
 20
58.39905
 11
161.790272
 21
58.79905
  0
LINE
  8
別途部材
  6
CONTINUOUS
 10
161.790272
 20
58.79905
 11
161.790272
 21
35.065715
  0
LINE
  8
別途部材
  6
CONTINUOUS
 62
    96
 10
160.790272
 20
58.39905
 11
160.790272
 21
35.065715
  0
ARC
  8
別途部材
  6
CONTINUOUS
 10
175.075984
 20
35.065713
 40
25.95238
 50
123.398485
 51
236.601515
  0
LINE
  8
別途部材
  6
CONTINUOUS
 10
73.323675
 20
11.33238
 11
72.923675
 21
11.73238
  0
LINE
  8
別途部材
  6
CONTINUOUS
 10
71.257007
 20
13.399048
 11
63.197753
 21
21.458305
  0
LINE
  8
別途部材
  6
CONTINUOUS
 10
72.923675
 20
11.73238
 11
72.923675
 21
35.065715
  0
LINE
  8
別途部材
  6
CONTINUOUS
 10
73.323675
 20
11.33238
 11
73.323675
 21
35.065715
  0
LINE
  8
別途部材
  6
CONTINUOUS
 10
73.323675
 20
11.33238
 11
-20.40966
 21
11.33238
  0
LINE
  8
別途部材
  6
CONTINUOUS
 10
72.923675
 20
11.73238
 11
-20.40966
 21
11.73238
  0
LINE
  8
別途部材
  6
CONTINUOUS
 10
73.323675
 20
58.79905
 11
72.923675
 21
58.39905
  0
LINE
  8
別途部材
  6
CONTINUOUS
 10
71.257007
 20
56.732382
 11
63.197753
 21
48.673125
  0
LINE
  8
別途部材
  6
CONTINUOUS
 10
72.923675
 20
58.39905
 11
72.923675
 21
35.065715
  0
LINE
  8
別途部材
  6
CONTINUOUS
 10
73.323675
 20
58.79905
 11
73.323675
 21
35.065715
  0
LINE
  8
別途部材
  6
CONTINUOUS
 10
73.323675
 20
58.79905
 11
-20.40966
 21
58.79905
  0
LINE
  8
別途部材
  6
CONTINUOUS
 10
72.923675
 20
58.39905
 11
-20.40966
 21
58.39905
  0
LINE
  8
別途部材
  6
CONTINUOUS
 10
-114.142995
 20
58.79905
 11
-113.742995
 21
58.39905
  0
LINE
  8
別途部材
  6
CONTINUOUS
 10
-112.076328
 20
56.732382
 11
-104.017073
 21
48.673125
  0
LINE
  8
別途部材
  6
CONTINUOUS
 10
-113.742995
 20
58.39905
 11
-113.742995
 21
35.065715
  0
LINE
  8
別途部材
  6
CONTINUOUS
 10
-114.142995
 20
58.79905
 11
-114.142995
 21
35.065715
  0
LINE
  8
別途部材
  6
CONTINUOUS
 10
-114.142995
 20
58.79905
 11
-20.40966
 21
58.79905
  0
LINE
  8
別途部材
  6
CONTINUOUS
 10
-113.742995
 20
58.39905
 11
-20.40966
 21
58.39905
  0
LINE
  8
別途部材
  6
CONTINUOUS
 10
-114.142995
 20
11.33238
 11
-113.742995
 21
11.73238
  0
LINE
  8
別途部材
  6
CONTINUOUS
 10
-112.076328
 20
13.399048
 11
-104.017073
 21
21.458305
  0
LINE
  8
別途部材
  6
CONTINUOUS
 10
-113.742995
 20
11.73238
 11
-113.742995
 21
35.065715
  0
LINE
  8
別途部材
  6
CONTINUOUS
 10
-114.142995
 20
11.33238
 11
-114.142995
 21
35.065715
  0
LINE
  8
別途部材
  6
CONTINUOUS
 10
-114.142995
 20
11.33238
 11
-20.40966
 21
11.33238
  0
LINE
  8
別途部材
  6
CONTINUOUS
 10
-113.742995
 20
11.73238
 11
-20.40966
 21
11.73238
  0
LINE
  8
別途部材
  6
DOT
 62
    96
 10
72.923675
 20
-62.95793
 11
73.323675
 21
-63.95793
  0
ARC
  8
別途部材
  6
DOT
 10
49.59034
 20
-77.243645
 40
25.952382
 50
33.398488
 51
90.0
  0
LINE
  8
別途部材
  6
DOT
 10
49.59034
 20
-51.291262
 11
-20.40966
 21
-51.291262
  0
LINE
  8
別途部材
  6
DOT
 10
73.323675
 20
-63.95793
 11
-20.40966
 21
-63.95793
  0
LINE
  8
別途部材
  6
DOT
 62
    96
 10
72.923675
 20
-62.95793
 11
-20.40966
 21
-62.95793
  0
LINE
  8
別途部材
  6
DOT
 62
    96
 10
-113.742995
 20
-62.95793
 11
-114.142995
 21
-63.95793
  0
ARC
  8
別途部材
  6
DOT
 10
-90.40966
 20
-77.243645
 40
25.952382
 50
90.0
 51
146.601512
  0
LINE
  8
別途部材
  6
DOT
 10
-90.40966
 20
-51.291262
 11
-20.40966
 21
-51.291262
  0
LINE
  8
別途部材
  6
DOT
 10
-114.142995
 20
-63.95793
 11
-20.40966
 21
-63.95793
  0
LINE
  8
別途部材
  6
DOT
 62
    96
 10
-113.742995
 20
-62.95793
 11
-20.40966
 21
-62.95793
  0
INSERT
  2
*GRP_0011
  8
別途部材
  6
CONTINUOUS
 10
0.0
 20
0.0
  0
INSERT
  2
*GRP_0033
  8
別途部材
  6
DOT
 10
0.0
 20
0.0
  0
INSERT
  2
*GRP_0034
  8
別途部材
  6
DOT
 10
0.0
 20
0.0
  0
INSERT
  2
*GRP_0035
  8
別途部材
  6
DOT
 10
0.0
 20
0.0
  0
INSERT
  2
*GRP_0036
  8
別途部材
  6
DOT
 10
0.0
 20
0.0
  0
INSERT
  2
*GRP_0037
  8
別途部材
  6
DOT
 10
0.0
 20
0.0
  0
INSERT
  2
*GRP_0038
  8
別途部材
  6
DOT
 10
0.0
 20
0.0
  0
LINE
  8
曲げ物
  6
CONTINUOUS
 10
166.343563
 20
-92.533713
 11
166.343563
 21
-49.867045
  0
LINE
  8
曲げ物
  6
CONTINUOUS
 10
130.663563
 20
-92.533713
 11
130.663563
 21
-49.867045
  0
LINE
  8
曲げ物
  6
CONTINUOUS
 10
166.343563
 20
-49.867045
 11
130.663563
 21
-49.867045
  0
LINE
  8
曲げ物
  6
CONTINUOUS
 10
166.343563
 20
-92.533713
 11
130.663563
 21
-92.533713
  0
ENDSEC
  0
EOF
