  0
SECTION
  2
HEADER
  9
$EXTMIN
 10
-210.0
 20
-148.5
  9
$EXTMAX
 10
210.0
 20
148.5
  9
$PDMODE
 70
    32
  9
$PDSIZE
 40
1.5
  9
$LTSCALE
 40
10.0
  0
ENDSEC
  0
SECTION
  2
TABLES
  0
TABLE
  2
LTYPE
 70
    15
  0
LTYPE
  2
CONTINUOUS
 70
    64
  3
実線
 72
    65
 73
     0
 40
0.0
  0
LTYPE
  2
DASHED
 70
    64
  3
破線A
 72
    65
 73
     2
 40
0.6
 49
0.4
 49
-0.2
  0
LTYPE
  2
DASHEDX2
 70
    64
  3
破線B
 72
    65
 73
     2
 40
1.3
 49
0.9
 49
-0.4
  0
LTYPE
  2
DASHDOT
 70
    64
  3
１点鎖線A
 72
    65
 73
     4
 40
0.5375
 49
0.375
 49
-0.05
 49
0.0625
 49
-0.05
  0
LTYPE
  2
DASHDOTX2
 70
    64
  3
１点鎖線B
 72
    65
 73
     4
 40
1.075
 49
0.75
 49
-0.1
 49
0.125
 49
-0.1
  0
LTYPE
  2
DIVIDE2
 70
    64
  3
２点鎖線A
 72
    65
 73
     6
 40
0.5125
 49
0.3
 49
-0.0375
 49
0.05
 49
-0.0375
 49
0.05
 49
-0.0375
  0
LTYPE
  2
DIVIDE
 70
    64
  3
２点鎖線B
 72
    65
 73
     6
 40
1.05
 49
0.55
 49
-0.1
 49
0.1
 49
-0.1
 49
0.1
 49
-0.1
  0
LTYPE
  2
DOT
 70
    64
  3
点線A
 72
    65
 73
     2
 40
0.1125
 49
0.0625
 49
-0.05
  0
LTYPE
  2
DOTX2
 70
    64
  3
点線B
 72
    65
 73
     2
 40
0.275
 49
0.15
 49
-0.125
  0
LTYPE
  2
CONTINUOUS
 70
    64
  3
実線
 72
    65
 73
     0
 40
0.0
  0
LTYPE
  2
CONTINUOUS
 70
    64
  3
実線
 72
    65
 73
     0
 40
0.0
  0
LTYPE
  2
CONTINUOUS
 70
    64
  3
実線
 72
    65
 73
     0
 40
0.0
  0
LTYPE
  2
CONTINUOUS
 70
    64
  3
実線
 72
    65
 73
     0
 40
0.0
  0
LTYPE
  2
CONTINUOUS
 70
    64
  3
実線
 72
    65
 73
     0
 40
0.0
  0
LTYPE
  2
CONTINUOUS
 70
    64
  3
実線
 72
    65
 73
     0
 40
0.0
  0
ENDTAB
  0
TABLE
  2
LAYER
 70
    34
  0
LAYER
  2
通り芯
 70
     0
 62
    15
  6
CONTINUOUS
  0
LAYER
  2
補助線
 70
     0
 62
    16
  6
DOT
  0
LAYER
  2
躯体
 70
     0
 62
    31
  6
CONTINUOUS
  0
LAYER
  2
型材
 70
     0
 62
    32
  6
CONTINUOUS
  0
LAYER
  2
型材断面
 70
     0
 62
    47
  6
CONTINUOUS
  0
LAYER
  2
ガラス
 70
     0
 62
    48
  6
CONTINUOUS
  0
LAYER
  2
ゴム等
 70
     0
 62
    63
  6
CONTINUOUS
  0
LAYER
  2
ボルト／ビス
 70
     0
 62
    64
  6
CONTINUOUS
  0
LAYER
  2
文字
 70
     0
 62
    79
  6
CONTINUOUS
  0
LAYER
  2
寸法
 70
     0
 62
    80
  6
CONTINUOUS
  0
LAYER
  2
ﾊｯﾁﾝｸﾞ
 70
     0
 62
    95
  6
CONTINUOUS
  0
LAYER
  2
別途部材
 70
     0
 62
    96
  6
CONTINUOUS
  0
LAYER
  2
曲げ物
 70
     0
 62
   111
  6
CONTINUOUS
  0
LAYER
  2
鉄骨等
 70
     0
 62
   112
  6
CONTINUOUS
  0
LAYER
  2
St
 70
     0
 62
   127
  6
CONTINUOUS
  0
LAYER
  2
その他部品等
 70
     0
 62
   128
  6
CONTINUOUS
  0
LAYER
  2
ｶﾞｽｹｯﾄ
 70
     0
 62
   143
  6
CONTINUOUS
  0
LAYER
  2
ｽｹｯﾁ
 70
     0
 62
    14
  6
CONTINUOUS
  0
LAYER
  2
0
 70
     0
 62
    17
  6
CONTINUOUS
  0
LAYER
  2
1
 70
     0
 62
    30
  6
CONTINUOUS
  0
LAYER
  2
4
 70
     0
 62
    33
  6
CONTINUOUS
  0
LAYER
  2
ﾚｲﾔ3
 70
     0
 62
    46
  6
CONTINUOUS
  0
LAYER
  2
外形線
 70
     0
 62
    49
  6
CONTINUOUS
  0
LAYER
  2
部品
 70
     0
 62
    14
  6
CONTINUOUS
  0
LAYER
  2
サッシ芯
 70
     0
 62
    17
  6
DASHDOTX2
  0
LAYER
  2
寸法線
 70
     0
 62
    62
  6
CONTINUOUS
  0
LAYER
  2
姿図外形線
 70
     0
 62
    65
  6
CONTINUOUS
  0
LAYER
  2
姿補助線
 70
     0
 62
    30
  6
CONTINUOUS
  0
LAYER
  2
透視線
 70
     0
 62
    78
  6
DOT
  0
LAYER
  2
用紙
 70
     0
 62
    81
  6
CONTINUOUS
  0
LAYER
  2
実線図枠
 70
     0
 62
    94
  6
CONTINUOUS
  0
LAYER
  2
補助図枠
 70
     0
 62
    97
  6
CONTINUOUS
  0
LAYER
  2
建具記号
 70
     0
 62
   110
  6
CONTINUOUS
  0
LAYER
  2
補助文字
 70
     0
 62
   113
  6
CONTINUOUS
  0
ENDTAB
  0
TABLE
  2
STYLE
 70
    10
  0
STYLE
  2
STANDARD
 70
     0
 40
1.0
 41
1.0
 42
1.0
 50
0.0
 71
     0
  3
TXT
  4
BIGFONT
  0
STYLE
  2
TATE
 70
     4
 40
1.0
 41
1.0
 42
1.0
 50
0.0
 71
     0
  3
TXT
  4
BIGFONT
  0
STYLE
  2
TextStyle03
 70
     0
 40
1.0
 41
1.0
 42
1.0
 50
0.0
 71
     0
  3
MONOTXT
  4
BIGFONT
  0
STYLE
  2
TextStyle04
 70
     0
 40
1.0
 41
1.0
 42
1.0
 50
0.0
 71
     0
  3
MONOTXT
  4
BIGFONT
  0
STYLE
  2
TextStyle05
 70
     0
 40
1.0
 41
1.0
 42
1.0
 50
0.0
 71
     0
  3
MONOTXT
  4
BIGFONT
  0
STYLE
  2
TextStyle06
 70
     0
 40
1.0
 41
1.0
 42
1.0
 50
0.0
 71
     0
  3
MONOTXT
  4
BIGFONT
  0
STYLE
  2
TextStyle07
 70
     0
 40
1.0
 41
1.0
 42
1.0
 50
0.0
 71
     0
  3
MONOTXT
  4
BIGFONT
  0
STYLE
  2
TextStyle08
 70
     0
 40
1.0
 41
1.0
 42
1.0
 50
0.0
 71
     0
  3
MONOTXT
  4
BIGFONT
  0
STYLE
  2
TextStyle09
 70
     0
 40
1.0
 41
1.0
 42
1.0
 50
0.0
 71
     0
  3
MONOTXT
  4
BIGFONT
  0
STYLE
  2
TextStyle10
 70
     0
 40
1.0
 41
1.0
 42
1.0
 50
0.0
 71
     0
  3
MONOTXT
  4
BIGFONT
  0
ENDTAB
  0
ENDSEC
  0
SECTION
  2
BLOCKS
  0
BLOCK
  2
*GRP_0001
 70
    65
 10
0.0
 20
0.0
  0
LINE
  8
型材断面
  6
CONTINUOUS
 10
195.0
 20
133.5
 11
195.0
 21
-133.5
  0
LINE
  8
型材断面
  6
CONTINUOUS
 10
195.0
 20
-133.5
 11
-185.0
 21
-133.5
  0
LINE
  8
型材断面
  6
CONTINUOUS
 10
-185.0
 20
-133.5
 11
-185.0
 21
133.5
  0
LINE
  8
型材断面
  6
CONTINUOUS
 10
195.0
 20
133.5
 11
-185.0
 21
133.5
  0
LINE
  8
型材断面
  6
CONTINUOUS
 10
145.0
 20
-133.5
 11
145.0
 21
-118.5
  0
LINE
  8
型材断面
  6
CONTINUOUS
 10
195.0
 20
-118.5
 11
145.0
 21
-118.5
  0
ENDBLK
  0
BLOCK
  2
*DIM_0002
 70
    65
 10
0.0
 20
0.0
  0
LINE
  8
寸法
  6
BYBLOCK
 62
     0
 10
149.3695
 20
-49.867045
 11
157.804348
 21
-49.867045
  0
LINE
  8
寸法
  6
BYBLOCK
 62
     0
 10
149.3695
 20
-92.533713
 11
157.804348
 21
-92.533713
  0
LINE
  8
寸法
  6
BYBLOCK
 62
     0
 10
157.804348
 20
-49.867045
 11
157.804348
 21
-92.533713
  0
POINT
  8
寸法
 62
     0
 10
157.804348
 20
-49.867045
  0
POINT
  8
寸法
 62
     0
 10
157.804348
 20
-92.533713
  0
TEXT
  7
TextStyle03
  8
寸法
  6
CONTINUOUS
 62
     0
 10
157.45
 20
-74.48125
  1
1280
 40
3.0
 50
90.0
 72
     5
 11
157.45
 21
-67.91875
  0
ENDBLK
  0
BLOCK
  2
*DIM_0003
 70
    65
 10
0.0
 20
0.0
  0
LINE
  8
寸法
  6
BYBLOCK
 62
     0
 10
53.282945
 20
-22.536362
 11
-113.383723
 21
-22.536362
  0
POINT
  8
寸法
 62
     0
 10
53.282945
 20
-22.536362
  0
POINT
  8
寸法
 62
     0
 10
-113.383723
 20
-22.536362
  0
TEXT
  7
TextStyle03
  8
寸法
  6
CONTINUOUS
 62
     0
 10
-41.76875
 20
-22.175
  1
呼称寸法　5000
 40
3.0
 72
     5
 11
-18.33125
 21
-22.175
  0
ENDBLK
  0
BLOCK
  2
*DIM_0004
 70
    65
 10
0.0
 20
0.0
  0
LINE
  8
寸法
  6
BYBLOCK
 62
     0
 10
116.022833
 20
-48.867045
 11
116.022833
 21
-41.157997
  0
LINE
  8
寸法
  6
BYBLOCK
 62
     0
 10
148.3695
 20
-48.867045
 11
148.3695
 21
-41.157997
  0
LINE
  8
寸法
  6
BYBLOCK
 62
     0
 10
116.022833
 20
-41.157997
 11
148.3695
 21
-41.157997
  0
POINT
  8
寸法
 62
     0
 10
116.022833
 20
-41.157997
  0
POINT
  8
寸法
 62
     0
 10
148.3695
 20
-41.157997
  0
TEXT
  7
TextStyle03
  8
寸法
  6
CONTINUOUS
 62
     0
 10
128.075
 20
-40.8
  1
970.4
 40
3.0
 72
     5
 11
136.325
 21
-40.8
  0
ENDBLK
  0
BLOCK
  2
*DIM_0005
 70
    65
 10
0.0
 20
0.0
  0
LINE
  8
寸法
  6
BYBLOCK
 62
     0
 10
-96.717055
 20
9.76892
 11
-96.717055
 21
4.857895
  0
LINE
  8
寸法
  6
BYBLOCK
 62
     0
 10
-30.050388
 20
9.76892
 11
-30.050388
 21
4.857895
  0
LINE
  8
寸法
  6
BYBLOCK
 62
     0
 10
-96.717055
 20
4.857895
 11
-30.050388
 21
4.857895
  0
POINT
  8
寸法
 62
     0
 10
-96.717055
 20
4.857895
  0
POINT
  8
寸法
 62
     0
 10
-30.050388
 20
4.857895
  0
TEXT
  7
TextStyle03
  8
寸法
  6
CONTINUOUS
 62
     0
 10
-66.68125
 20
5.225
  1
2000
 40
3.0
 72
     5
 11
-60.11875
 21
5.225
  0
ENDBLK
  0
BLOCK
  2
*DIM_0006
 70
    65
 10
0.0
 20
0.0
  0
LINE
  8
寸法
  6
BYBLOCK
 62
     0
 10
36.61628
 20
9.76892
 11
36.61628
 21
4.857895
  0
LINE
  8
寸法
  6
BYBLOCK
 62
     0
 10
-30.050388
 20
4.857895
 11
36.61628
 21
4.857895
  0
POINT
  8
寸法
 62
     0
 10
36.61628
 20
4.857895
  0
TEXT
  7
TextStyle03
  8
寸法
  6
CONTINUOUS
 62
     0
 10
-0.00625
 20
5.225
  1
2000
 40
3.0
 72
     5
 11
6.55625
 21
5.225
  0
ENDBLK
  0
BLOCK
  2
*DIM_0007
 70
    65
 10
0.0
 20
0.0
  0
LINE
  8
寸法
  6
BYBLOCK
 62
     0
 10
54.282945
 20
56.732382
 11
64.007228
 21
56.732382
  0
LINE
  8
寸法
  6
BYBLOCK
 62
     0
 10
56.913075
 20
53.032382
 11
64.007228
 21
53.032382
  0
LINE
  8
寸法
  6
BYBLOCK
 62
     0
 10
64.007228
 20
56.732382
 11
64.007228
 21
53.032382
  0
POINT
  8
寸法
 62
     0
 10
64.007228
 20
56.732382
  0
POINT
  8
寸法
 62
     0
 10
64.007228
 20
53.032382
  0
TEXT
  7
TextStyle03
  8
寸法
  6
CONTINUOUS
 62
     0
 10
63.675
 20
57.7125
  1
111
 40
3.0
 50
90.0
 72
     5
 11
63.675
 21
62.5875
  0
ENDBLK
  0
BLOCK
  2
*DIM_0008
 70
    65
 10
0.0
 20
0.0
  0
LINE
  8
寸法
  6
BYBLOCK
 62
     0
 10
54.282945
 20
13.399048
 11
64.007228
 21
13.399045
  0
LINE
  8
寸法
  6
BYBLOCK
 62
     0
 10
56.913075
 20
17.099048
 11
64.007228
 21
17.099045
  0
LINE
  8
寸法
  6
BYBLOCK
 62
     0
 10
64.007228
 20
13.399045
 11
64.007228
 21
17.099045
  0
POINT
  8
寸法
 62
     0
 10
64.007228
 20
13.399045
  0
POINT
  8
寸法
 62
     0
 10
64.007228
 20
17.099045
  0
TEXT
  7
TextStyle03
  8
寸法
  6
CONTINUOUS
 62
     0
 10
63.65
 20
7.5375
  1
111
 40
3.0
 50
90.0
 72
     5
 11
63.65
 21
12.4125
  0
ENDBLK
  0
BLOCK
  2
*DIM_0009
 70
    65
 10
0.0
 20
0.0
  0
LINE
  8
寸法
  6
BYBLOCK
 62
     0
 10
87.302595
 20
13.399048
 11
87.302595
 21
56.73238
  0
POINT
  8
寸法
 62
     0
 10
87.302595
 20
13.399048
  0
POINT
  8
寸法
 62
     0
 10
87.302595
 20
56.73238
  0
TEXT
  7
TextStyle03
  8
寸法
  6
CONTINUOUS
 62
     0
 10
86.95
 20
23.33125
  1
呼称寸法　1300
 40
3.0
 50
90.0
 72
     5
 11
86.95
 21
46.76875
  0
ENDBLK
  0
BLOCK
  2
*DIM_0010
 70
    65
 10
0.0
 20
0.0
  0
LINE
  8
寸法
  6
BYBLOCK
 62
     0
 10
131.149542
 20
36.065715
 11
131.149542
 21
72.668433
  0
LINE
  8
寸法
  6
BYBLOCK
 62
     0
 10
142.81621
 20
72.668433
 11
131.149542
 21
72.668433
  0
POINT
  8
寸法
 62
     0
 10
131.149542
 20
72.668433
  0
TEXT
  7
TextStyle03
  8
寸法
  6
CONTINUOUS
 62
     0
 10
134.5625
 20
73.025
  1
350
 40
3.0
 72
     5
 11
139.4375
 21
73.025
  0
ENDBLK
  0
BLOCK
  2
*GRP_0011
 70
    65
 10
0.0
 20
0.0
  0
LINE
  8
別途部材
  6
CONTINUOUS
 62
    96
 10
-115.050388
 20
-79.624597
 11
-115.450388
 21
-80.624597
  0
ARC
  8
別途部材
  6
CONTINUOUS
 10
-91.717053
 20
-93.910313
 40
25.952382
 50
90.0
 51
146.601512
  0
LINE
  8
別途部材
  6
CONTINUOUS
 62
    96
 10
-115.050388
 20
-79.624597
 11
-30.050388
 21
-79.624597
  0
LINE
  8
別途部材
  6
CONTINUOUS
 10
-115.450388
 20
-80.624597
 11
-30.050388
 21
-80.624597
  0
LINE
  8
別途部材
  6
CONTINUOUS
 10
-30.550388
 20
-66.95793
 11
-31.550388
 21
-67.95793
  0
LINE
  8
別途部材
  6
CONTINUOUS
 10
-32.550388
 20
-67.95793
 11
-33.550388
 21
-66.95793
  0
LINE
  8
別途部材
  6
CONTINUOUS
 10
-34.550388
 20
-66.95793
 11
-35.550388
 21
-67.95793
  0
LINE
  8
別途部材
  6
CONTINUOUS
 10
-33.550388
 20
-66.95793
 11
-34.550388
 21
-66.95793
  0
LINE
  8
別途部材
  6
CONTINUOUS
 10
-30.550388
 20
-66.95793
 11
-30.050388
 21
-66.95793
  0
LINE
  8
別途部材
  6
CONTINUOUS
 10
-36.550388
 20
-67.95793
 11
-37.550388
 21
-66.95793
  0
LINE
  8
別途部材
  6
CONTINUOUS
 10
-38.550388
 20
-66.95793
 11
-39.550388
 21
-67.95793
  0
LINE
  8
別途部材
  6
CONTINUOUS
 10
-37.550388
 20
-66.95793
 11
-38.550388
 21
-66.95793
  0
LINE
  8
別途部材
  6
CONTINUOUS
 10
-40.550388
 20
-67.95793
 11
-41.550388
 21
-66.95793
  0
LINE
  8
別途部材
  6
CONTINUOUS
 10
-42.550388
 20
-66.95793
 11
-43.550388
 21
-67.95793
  0
LINE
  8
別途部材
  6
CONTINUOUS
 10
-41.550388
 20
-66.95793
 11
-42.550388
 21
-66.95793
  0
LINE
  8
別途部材
  6
CONTINUOUS
 10
-44.550388
 20
-67.95793
 11
-45.550388
 21
-66.95793
  0
LINE
  8
別途部材
  6
CONTINUOUS
 10
-46.550388
 20
-66.95793
 11
-47.550388
 21
-67.95793
  0
LINE
  8
別途部材
  6
CONTINUOUS
 10
-45.550388
 20
-66.95793
 11
-46.550388
 21
-66.95793
  0
LINE
  8
別途部材
  6
CONTINUOUS
 10
-48.550388
 20
-67.95793
 11
-49.550388
 21
-66.95793
  0
LINE
  8
別途部材
  6
CONTINUOUS
 10
-50.550388
 20
-66.95793
 11
-51.550388
 21
-67.95793
  0
LINE
  8
別途部材
  6
CONTINUOUS
 10
-49.550388
 20
-66.95793
 11
-50.550388
 21
-66.95793
  0
LINE
  8
別途部材
  6
CONTINUOUS
 10
-52.550388
 20
-67.95793
 11
-53.550388
 21
-66.95793
  0
LINE
  8
別途部材
  6
CONTINUOUS
 10
-54.550388
 20
-66.95793
 11
-55.550388
 21
-67.95793
  0
LINE
  8
別途部材
  6
CONTINUOUS
 10
-53.550388
 20
-66.95793
 11
-54.550388
 21
-66.95793
  0
LINE
  8
別途部材
  6
CONTINUOUS
 10
-56.550388
 20
-67.95793
 11
-57.550388
 21
-66.95793
  0
LINE
  8
別途部材
  6
CONTINUOUS
 10
-58.550388
 20
-66.95793
 11
-59.550388
 21
-67.95793
  0
LINE
  8
別途部材
  6
CONTINUOUS
 10
-57.550388
 20
-66.95793
 11
-58.550388
 21
-66.95793
  0
LINE
  8
別途部材
  6
CONTINUOUS
 10
-60.550388
 20
-67.95793
 11
-61.550388
 21
-66.95793
  0
LINE
  8
別途部材
  6
CONTINUOUS
 10
-62.550388
 20
-66.95793
 11
-63.550388
 21
-67.95793
  0
LINE
  8
別途部材
  6
CONTINUOUS
 10
-61.550388
 20
-66.95793
 11
-62.550388
 21
-66.95793
  0
LINE
  8
別途部材
  6
CONTINUOUS
 10
-64.550388
 20
-67.95793
 11
-65.550388
 21
-66.95793
  0
LINE
  8
別途部材
  6
CONTINUOUS
 10
-66.550388
 20
-66.95793
 11
-67.550388
 21
-67.95793
  0
LINE
  8
別途部材
  6
CONTINUOUS
 10
-65.550388
 20
-66.95793
 11
-66.550388
 21
-66.95793
  0
LINE
  8
別途部材
  6
CONTINUOUS
 10
-68.550388
 20
-67.95793
 11
-69.550388
 21
-66.95793
  0
LINE
  8
別途部材
  6
CONTINUOUS
 10
-70.550388
 20
-66.95793
 11
-71.550388
 21
-67.95793
  0
LINE
  8
別途部材
  6
CONTINUOUS
 10
-69.550388
 20
-66.95793
 11
-70.550388
 21
-66.95793
  0
LINE
  8
別途部材
  6
CONTINUOUS
 10
-72.550388
 20
-67.95793
 11
-73.550388
 21
-66.95793
  0
LINE
  8
別途部材
  6
CONTINUOUS
 10
-74.550388
 20
-66.95793
 11
-75.550388
 21
-67.95793
  0
LINE
  8
別途部材
  6
CONTINUOUS
 10
-73.550388
 20
-66.95793
 11
-74.550388
 21
-66.95793
  0
LINE
  8
別途部材
  6
CONTINUOUS
 10
-71.550388
 20
-67.95793
 11
-72.550388
 21
-67.95793
  0
LINE
  8
別途部材
  6
CONTINUOUS
 10
-67.550388
 20
-67.95793
 11
-68.550388
 21
-67.95793
  0
LINE
  8
別途部材
  6
CONTINUOUS
 10
-63.550388
 20
-67.95793
 11
-64.550388
 21
-67.95793
  0
LINE
  8
別途部材
  6
CONTINUOUS
 10
-59.550388
 20
-67.95793
 11
-60.550388
 21
-67.95793
  0
LINE
  8
別途部材
  6
CONTINUOUS
 10
-55.550388
 20
-67.95793
 11
-56.550388
 21
-67.95793
  0
LINE
  8
別途部材
  6
CONTINUOUS
 10
-51.550388
 20
-67.95793
 11
-52.550388
 21
-67.95793
  0
LINE
  8
別途部材
  6
CONTINUOUS
 10
-47.550388
 20
-67.95793
 11
-48.550388
 21
-67.95793
  0
LINE
  8
別途部材
  6
CONTINUOUS
 10
-43.550388
 20
-67.95793
 11
-44.550388
 21
-67.95793
  0
LINE
  8
別途部材
  6
CONTINUOUS
 10
-39.550388
 20
-67.95793
 11
-40.550388
 21
-67.95793
  0
LINE
  8
別途部材
  6
CONTINUOUS
 10
-35.550388
 20
-67.95793
 11
-36.550388
 21
-67.95793
  0
LINE
  8
別途部材
  6
CONTINUOUS
 10
-32.550388
 20
-67.95793
 11
-31.550388
 21
-67.95793
  0
LINE
  8
別途部材
  6
CONTINUOUS
 10
-72.550388
 20
-67.95793
 11
-72.550388
 21
-79.624597
  0
LINE
  8
別途部材
  6
CONTINUOUS
 10
-71.550388
 20
-67.95793
 11
-71.550388
 21
-79.624597
  0
LINE
  8
別途部材
  6
CONTINUOUS
 10
-73.550388
 20
-66.95793
 11
-73.550388
 21
-79.624597
  0
LINE
  8
別途部材
  6
CONTINUOUS
 10
-75.550388
 20
-67.95793
 11
-75.550388
 21
-79.624597
  0
LINE
  8
別途部材
  6
CONTINUOUS
 10
-74.550388
 20
-66.95793
 11
-74.550388
 21
-79.624597
  0
LINE
  8
別途部材
  6
CONTINUOUS
 10
-64.550388
 20
-67.95793
 11
-64.550388
 21
-79.624597
  0
LINE
  8
別途部材
  6
CONTINUOUS
 10
-66.550388
 20
-66.95793
 11
-66.550388
 21
-79.624597
  0
LINE
  8
別途部材
  6
CONTINUOUS
 10
-67.550388
 20
-67.95793
 11
-67.550388
 21
-79.624597
  0
LINE
  8
別途部材
  6
CONTINUOUS
 10
-69.550388
 20
-66.95793
 11
-69.550388
 21
-79.624597
  0
LINE
  8
別途部材
  6
CONTINUOUS
 10
-70.550388
 20
-66.95793
 11
-70.550388
 21
-79.624597
  0
LINE
  8
別途部材
  6
CONTINUOUS
 10
-68.550388
 20
-67.95793
 11
-68.550388
 21
-79.624597
  0
LINE
  8
別途部材
  6
CONTINUOUS
 10
-65.550388
 20
-66.95793
 11
-65.550388
 21
-79.624597
  0
LINE
  8
別途部材
  6
CONTINUOUS
 10
-63.550388
 20
-67.95793
 11
-63.550388
 21
-79.624597
  0
LINE
  8
別途部材
  6
CONTINUOUS
 10
-62.550388
 20
-66.95793
 11
-62.550388
 21
-79.624597
  0
LINE
  8
別途部材
  6
CONTINUOUS
 10
-52.550388
 20
-67.95793
 11
-52.550388
 21
-79.624597
  0
LINE
  8
別途部材
  6
CONTINUOUS
 10
-46.550388
 20
-66.95793
 11
-46.550388
 21
-79.624597
  0
LINE
  8
別途部材
  6
CONTINUOUS
 10
-45.550388
 20
-66.95793
 11
-45.550388
 21
-79.624597
  0
LINE
  8
別途部材
  6
CONTINUOUS
 10
-35.550388
 20
-67.95793
 11
-35.550388
 21
-79.624597
  0
LINE
  8
別途部材
  6
CONTINUOUS
 10
-30.550388
 20
-66.95793
 11
-30.550388
 21
-79.624597
  0
LINE
  8
別途部材
  6
CONTINUOUS
 10
-31.550388
 20
-67.95793
 11
-31.550388
 21
-79.624597
  0
LINE
  8
別途部材
  6
CONTINUOUS
 10
-33.550388
 20
-66.95793
 11
-33.550388
 21
-79.624597
  0
LINE
  8
別途部材
  6
CONTINUOUS
 10
-34.550388
 20
-66.95793
 11
-34.550388
 21
-79.624597
  0
LINE
  8
別途部材
  6
CONTINUOUS
 10
-36.550388
 20
-67.95793
 11
-36.550388
 21
-79.624597
  0
LINE
  8
別途部材
  6
CONTINUOUS
 10
-47.550388
 20
-67.95793
 11
-47.550388
 21
-79.624597
  0
LINE
  8
別途部材
  6
CONTINUOUS
 10
-48.550388
 20
-67.95793
 11
-48.550388
 21
-79.624597
  0
LINE
  8
別途部材
  6
CONTINUOUS
 10
-53.550388
 20
-66.95793
 11
-53.550388
 21
-79.624597
  0
LINE
  8
別途部材
  6
CONTINUOUS
 10
-55.550388
 20
-67.95793
 11
-55.550388
 21
-79.624597
  0
LINE
  8
別途部材
  6
CONTINUOUS
 10
-58.550388
 20
-66.95793
 11
-58.550388
 21
-79.624597
  0
LINE
  8
別途部材
  6
CONTINUOUS
 10
-61.550388
 20
-66.95793
 11
-61.550388
 21
-79.624597
  0
LINE
  8
別途部材
  6
CONTINUOUS
 10
-54.550388
 20
-66.95793
 11
-54.550388
 21
-79.624597
  0
LINE
  8
別途部材
  6
CONTINUOUS
 10
-56.550388
 20
-67.95793
 11
-56.550388
 21
-79.624597
  0
LINE
  8
別途部材
  6
CONTINUOUS
 10
-59.550388
 20
-67.95793
 11
-59.550388
 21
-79.624597
  0
LINE
  8
別途部材
  6
CONTINUOUS
 10
-60.550388
 20
-67.95793
 11
-60.550388
 21
-79.624597
  0
LINE
  8
別途部材
  6
CONTINUOUS
 10
-50.550388
 20
-66.95793
 11
-50.550388
 21
-79.624597
  0
LINE
  8
別途部材
  6
CONTINUOUS
 10
-49.550388
 20
-66.95793
 11
-49.550388
 21
-79.624597
  0
LINE
  8
別途部材
  6
CONTINUOUS
 10
-51.550388
 20
-67.95793
 11
-51.550388
 21
-79.624597
  0
LINE
  8
別途部材
  6
CONTINUOUS
 10
-57.550388
 20
-66.95793
 11
-57.550388
 21
-79.624597
  0
LINE
  8
別途部材
  6
CONTINUOUS
 10
-43.550388
 20
-67.95793
 11
-43.550388
 21
-79.624597
  0
LINE
  8
別途部材
  6
CONTINUOUS
 10
-44.550388
 20
-67.95793
 11
-44.550388
 21
-79.624597
  0
LINE
  8
別途部材
  6
CONTINUOUS
 10
-42.550388
 20
-66.95793
 11
-42.550388
 21
-79.624597
  0
LINE
  8
別途部材
  6
CONTINUOUS
 10
-40.550388
 20
-67.95793
 11
-40.550388
 21
-79.624597
  0
LINE
  8
別途部材
  6
CONTINUOUS
 10
-41.550388
 20
-66.95793
 11
-41.550388
 21
-79.624597
  0
LINE
  8
別途部材
  6
CONTINUOUS
 10
-39.550388
 20
-67.95793
 11
-39.550388
 21
-79.624597
  0
LINE
  8
別途部材
  6
CONTINUOUS
 10
-37.550388
 20
-66.95793
 11
-37.550388
 21
-79.624597
  0
LINE
  8
別途部材
  6
CONTINUOUS
 10
-38.550388
 20
-66.95793
 11
-38.550388
 21
-79.624597
  0
LINE
  8
別途部材
  6
CONTINUOUS
 10
-32.550388
 20
-67.95793
 11
-32.550388
 21
-79.624597
  0
LINE
  8
別途部材
  6
CONTINUOUS
 10
-76.550388
 20
-67.95793
 11
-77.550388
 21
-66.95793
  0
LINE
  8
別途部材
  6
CONTINUOUS
 10
-78.550388
 20
-66.95793
 11
-79.550388
 21
-67.95793
  0
LINE
  8
別途部材
  6
CONTINUOUS
 10
-77.550388
 20
-66.95793
 11
-78.550388
 21
-66.95793
  0
LINE
  8
別途部材
  6
CONTINUOUS
 10
-80.550388
 20
-67.95793
 11
-81.550388
 21
-66.95793
  0
LINE
  8
別途部材
  6
CONTINUOUS
 10
-82.550388
 20
-66.95793
 11
-83.550388
 21
-67.95793
  0
LINE
  8
別途部材
  6
CONTINUOUS
 10
-81.550388
 20
-66.95793
 11
-82.550388
 21
-66.95793
  0
LINE
  8
別途部材
  6
CONTINUOUS
 10
-84.550388
 20
-67.95793
 11
-85.550388
 21
-66.95793
  0
LINE
  8
別途部材
  6
CONTINUOUS
 10
-86.550388
 20
-66.95793
 11
-87.550388
 21
-67.95793
  0
LINE
  8
別途部材
  6
CONTINUOUS
 10
-85.550388
 20
-66.95793
 11
-86.550388
 21
-66.95793
  0
LINE
  8
別途部材
  6
CONTINUOUS
 10
-88.550388
 20
-67.95793
 11
-89.550388
 21
-66.95793
  0
LINE
  8
別途部材
  6
CONTINUOUS
 10
-90.550388
 20
-66.95793
 11
-91.550388
 21
-67.95793
  0
LINE
  8
別途部材
  6
CONTINUOUS
 10
-89.550388
 20
-66.95793
 11
-90.550388
 21
-66.95793
  0
LINE
  8
別途部材
  6
CONTINUOUS
 10
-87.550388
 20
-67.95793
 11
-88.550388
 21
-67.95793
  0
LINE
  8
別途部材
  6
CONTINUOUS
 10
-83.550388
 20
-67.95793
 11
-84.550388
 21
-67.95793
  0
LINE
  8
別途部材
  6
CONTINUOUS
 10
-79.550388
 20
-67.95793
 11
-80.550388
 21
-67.95793
  0
LINE
  8
別途部材
  6
CONTINUOUS
 10
-75.550388
 20
-67.95793
 11
-76.550388
 21
-67.95793
  0
LINE
  8
別途部材
  6
CONTINUOUS
 10
-88.550388
 20
-67.95793
 11
-88.550388
 21
-79.624597
  0
LINE
  8
別途部材
  6
CONTINUOUS
 10
-82.550388
 20
-66.95793
 11
-82.550388
 21
-79.624597
  0
LINE
  8
別途部材
  6
CONTINUOUS
 10
-81.550388
 20
-66.95793
 11
-81.550388
 21
-79.624597
  0
LINE
  8
別途部材
  6
CONTINUOUS
 10
-83.550388
 20
-67.95793
 11
-83.550388
 21
-79.624597
  0
LINE
  8
別途部材
  6
CONTINUOUS
 10
-84.550388
 20
-67.95793
 11
-84.550388
 21
-79.624597
  0
LINE
  8
別途部材
  6
CONTINUOUS
 10
-89.550388
 20
-66.95793
 11
-89.550388
 21
-79.624597
  0
LINE
  8
別途部材
  6
CONTINUOUS
 10
-91.550388
 20
-67.95793
 11
-91.550388
 21
-79.624597
  0
LINE
  8
別途部材
  6
CONTINUOUS
 10
-90.550388
 20
-66.95793
 11
-90.550388
 21
-79.624597
  0
LINE
  8
別途部材
  6
CONTINUOUS
 10
-86.550388
 20
-66.95793
 11
-86.550388
 21
-79.624597
  0
LINE
  8
別途部材
  6
CONTINUOUS
 10
-85.550388
 20
-66.95793
 11
-85.550388
 21
-79.624597
  0
LINE
  8
別途部材
  6
CONTINUOUS
 10
-87.550388
 20
-67.95793
 11
-87.550388
 21
-79.624597
  0
LINE
  8
別途部材
  6
CONTINUOUS
 10
-79.550388
 20
-67.95793
 11
-79.550388
 21
-79.624597
  0
LINE
  8
別途部材
  6
CONTINUOUS
 10
-80.550388
 20
-67.95793
 11
-80.550388
 21
-79.624597
  0
LINE
  8
別途部材
  6
CONTINUOUS
 10
-78.550388
 20
-66.95793
 11
-78.550388
 21
-79.624597
  0
LINE
  8
別途部材
  6
CONTINUOUS
 10
-76.550388
 20
-67.95793
 11
-76.550388
 21
-79.624597
  0
LINE
  8
別途部材
  6
CONTINUOUS
 10
-77.550388
 20
-66.95793
 11
-77.550388
 21
-79.624597
  0
LINE
  8
別途部材
  6
CONTINUOUS
 62
    96
 10
54.949612
 20
-79.624597
 11
55.349612
 21
-80.624597
  0
ARC
  8
別途部材
  6
CONTINUOUS
 10
31.616278
 20
-93.910313
 40
25.952382
 50
33.398488
 51
90.0
  0
LINE
  8
別途部材
  6
CONTINUOUS
 62
    96
 10
54.949612
 20
-79.624597
 11
-30.050388
 21
-79.624597
  0
LINE
  8
別途部材
  6
CONTINUOUS
 10
55.349612
 20
-80.624597
 11
-30.050388
 21
-80.624597
  0
LINE
  8
別途部材
  6
CONTINUOUS
 10
-29.550388
 20
-66.95793
 11
-28.550388
 21
-67.95793
  0
LINE
  8
別途部材
  6
CONTINUOUS
 10
-27.550388
 20
-67.95793
 11
-26.550388
 21
-66.95793
  0
LINE
  8
別途部材
  6
CONTINUOUS
 10
-25.550388
 20
-66.95793
 11
-24.550388
 21
-67.95793
  0
LINE
  8
別途部材
  6
CONTINUOUS
 10
-26.550388
 20
-66.95793
 11
-25.550388
 21
-66.95793
  0
LINE
  8
別途部材
  6
CONTINUOUS
 10
-29.550388
 20
-66.95793
 11
-30.050388
 21
-66.95793
  0
LINE
  8
別途部材
  6
CONTINUOUS
 10
-23.550388
 20
-67.95793
 11
-22.550388
 21
-66.95793
  0
LINE
  8
別途部材
  6
CONTINUOUS
 10
-21.550388
 20
-66.95793
 11
-20.550388
 21
-67.95793
  0
LINE
  8
別途部材
  6
CONTINUOUS
 10
-22.550388
 20
-66.95793
 11
-21.550388
 21
-66.95793
  0
LINE
  8
別途部材
  6
CONTINUOUS
 10
-19.550388
 20
-67.95793
 11
-18.550388
 21
-66.95793
  0
LINE
  8
別途部材
  6
CONTINUOUS
 10
-17.550388
 20
-66.95793
 11
-16.550388
 21
-67.95793
  0
LINE
  8
別途部材
  6
CONTINUOUS
 10
-18.550388
 20
-66.95793
 11
-17.550388
 21
-66.95793
  0
LINE
  8
別途部材
  6
CONTINUOUS
 10
-15.550388
 20
-67.95793
 11
-14.550388
 21
-66.95793
  0
LINE
  8
別途部材
  6
CONTINUOUS
 10
-13.550388
 20
-66.95793
 11
-12.550388
 21
-67.95793
  0
LINE
  8
別途部材
  6
CONTINUOUS
 10
-14.550388
 20
-66.95793
 11
-13.550388
 21
-66.95793
  0
LINE
  8
別途部材
  6
CONTINUOUS
 10
-11.550388
 20
-67.95793
 11
-10.550388
 21
-66.95793
  0
LINE
  8
別途部材
  6
CONTINUOUS
 10
-9.550388
 20
-66.95793
 11
-8.550388
 21
-67.95793
  0
LINE
  8
別途部材
  6
CONTINUOUS
 10
-10.550388
 20
-66.95793
 11
-9.550388
 21
-66.95793
  0
LINE
  8
別途部材
  6
CONTINUOUS
 10
-7.550388
 20
-67.95793
 11
-6.550388
 21
-66.95793
  0
LINE
  8
別途部材
  6
CONTINUOUS
 10
-5.550388
 20
-66.95793
 11
-4.550388
 21
-67.95793
  0
LINE
  8
別途部材
  6
CONTINUOUS
 10
-6.550388
 20
-66.95793
 11
-5.550388
 21
-66.95793
  0
LINE
  8
別途部材
  6
CONTINUOUS
 10
-3.550388
 20
-67.95793
 11
-2.550388
 21
-66.95793
  0
LINE
  8
別途部材
  6
CONTINUOUS
 10
-1.550388
 20
-66.95793
 11
-0.550388
 21
-67.95793
  0
LINE
  8
別途部材
  6
CONTINUOUS
 10
-2.550388
 20
-66.95793
 11
-1.550388
 21
-66.95793
  0
LINE
  8
別途部材
  6
CONTINUOUS
 10
0.449612
 20
-67.95793
 11
1.449612
 21
-66.95793
  0
LINE
  8
別途部材
  6
CONTINUOUS
 10
2.449612
 20
-66.95793
 11
3.449612
 21
-67.95793
  0
LINE
  8
別途部材
  6
CONTINUOUS
 10
1.449612
 20
-66.95793
 11
2.449612
 21
-66.95793
  0
LINE
  8
別途部材
  6
CONTINUOUS
 10
4.449612
 20
-67.95793
 11
5.449612
 21
-66.95793
  0
LINE
  8
別途部材
  6
CONTINUOUS
 10
6.449612
 20
-66.95793
 11
7.449612
 21
-67.95793
  0
LINE
  8
別途部材
  6
CONTINUOUS
 10
5.449612
 20
-66.95793
 11
6.449612
 21
-66.95793
  0
LINE
  8
別途部材
  6
CONTINUOUS
 10
8.449612
 20
-67.95793
 11
9.449612
 21
-66.95793
  0
LINE
  8
別途部材
  6
CONTINUOUS
 10
10.449612
 20
-66.95793
 11
11.449612
 21
-67.95793
  0
LINE
  8
別途部材
  6
CONTINUOUS
 10
9.449612
 20
-66.95793
 11
10.449612
 21
-66.95793
  0
LINE
  8
別途部材
  6
CONTINUOUS
 10
12.449612
 20
-67.95793
 11
13.449612
 21
-66.95793
  0
LINE
  8
別途部材
  6
CONTINUOUS
 10
14.449612
 20
-66.95793
 11
15.449612
 21
-67.95793
  0
LINE
  8
別途部材
  6
CONTINUOUS
 10
13.449612
 20
-66.95793
 11
14.449612
 21
-66.95793
  0
LINE
  8
別途部材
  6
CONTINUOUS
 10
11.449612
 20
-67.95793
 11
12.449612
 21
-67.95793
  0
LINE
  8
別途部材
  6
CONTINUOUS
 10
7.449612
 20
-67.95793
 11
8.449612
 21
-67.95793
  0
LINE
  8
別途部材
  6
CONTINUOUS
 10
3.449612
 20
-67.95793
 11
4.449612
 21
-67.95793
  0
LINE
  8
別途部材
  6
CONTINUOUS
 10
-0.550388
 20
-67.95793
 11
0.449612
 21
-67.95793
  0
LINE
  8
別途部材
  6
CONTINUOUS
 10
-4.550388
 20
-67.95793
 11
-3.550388
 21
-67.95793
  0
LINE
  8
別途部材
  6
CONTINUOUS
 10
-8.550388
 20
-67.95793
 11
-7.550388
 21
-67.95793
  0
LINE
  8
別途部材
  6
CONTINUOUS
 10
-12.550388
 20
-67.95793
 11
-11.550388
 21
-67.95793
  0
LINE
  8
別途部材
  6
CONTINUOUS
 10
-16.550388
 20
-67.95793
 11
-15.550388
 21
-67.95793
  0
LINE
  8
別途部材
  6
CONTINUOUS
 10
-20.550388
 20
-67.95793
 11
-19.550388
 21
-67.95793
  0
LINE
  8
別途部材
  6
CONTINUOUS
 10
-24.550388
 20
-67.95793
 11
-23.550388
 21
-67.95793
  0
LINE
  8
別途部材
  6
CONTINUOUS
 10
-27.550388
 20
-67.95793
 11
-28.550388
 21
-67.95793
  0
LINE
  8
別途部材
  6
CONTINUOUS
 10
12.449612
 20
-67.95793
 11
12.449612
 21
-79.624597
  0
LINE
  8
別途部材
  6
CONTINUOUS
 10
11.449612
 20
-67.95793
 11
11.449612
 21
-79.624597
  0
LINE
  8
別途部材
  6
CONTINUOUS
 10
13.449612
 20
-66.95793
 11
13.449612
 21
-79.624597
  0
LINE
  8
別途部材
  6
CONTINUOUS
 10
15.449612
 20
-67.95793
 11
15.449612
 21
-79.624597
  0
LINE
  8
別途部材
  6
CONTINUOUS
 10
14.449612
 20
-66.95793
 11
14.449612
 21
-79.624597
  0
LINE
  8
別途部材
  6
CONTINUOUS
 10
4.449612
 20
-67.95793
 11
4.449612
 21
-79.624597
  0
LINE
  8
別途部材
  6
CONTINUOUS
 10
6.449612
 20
-66.95793
 11
6.449612
 21
-79.624597
  0
LINE
  8
別途部材
  6
CONTINUOUS
 10
7.449612
 20
-67.95793
 11
7.449612
 21
-79.624597
  0
LINE
  8
別途部材
  6
CONTINUOUS
 10
9.449612
 20
-66.95793
 11
9.449612
 21
-79.624597
  0
LINE
  8
別途部材
  6
CONTINUOUS
 10
10.449612
 20
-66.95793
 11
10.449612
 21
-79.624597
  0
LINE
  8
別途部材
  6
CONTINUOUS
 10
8.449612
 20
-67.95793
 11
8.449612
 21
-79.624597
  0
LINE
  8
別途部材
  6
CONTINUOUS
 10
5.449612
 20
-66.95793
 11
5.449612
 21
-79.624597
  0
LINE
  8
別途部材
  6
CONTINUOUS
 10
3.449612
 20
-67.95793
 11
3.449612
 21
-79.624597
  0
LINE
  8
別途部材
  6
CONTINUOUS
 10
2.449612
 20
-66.95793
 11
2.449612
 21
-79.624597
  0
LINE
  8
別途部材
  6
CONTINUOUS
 10
-7.550388
 20
-67.95793
 11
-7.550388
 21
-79.624597
  0
LINE
  8
別途部材
  6
CONTINUOUS
 10
-13.550388
 20
-66.95793
 11
-13.550388
 21
-79.624597
  0
LINE
  8
別途部材
  6
CONTINUOUS
 10
-14.550388
 20
-66.95793
 11
-14.550388
 21
-79.624597
  0
LINE
  8
別途部材
  6
CONTINUOUS
 10
-24.550388
 20
-67.95793
 11
-24.550388
 21
-79.624597
  0
LINE
  8
別途部材
  6
CONTINUOUS
 10
-29.550388
 20
-66.95793
 11
-29.550388
 21
-79.624597
  0
LINE
  8
別途部材
  6
CONTINUOUS
 10
-28.550388
 20
-67.95793
 11
-28.550388
 21
-79.624597
  0
LINE
  8
別途部材
  6
CONTINUOUS
 10
-26.550388
 20
-66.95793
 11
-26.550388
 21
-79.624597
  0
LINE
  8
別途部材
  6
CONTINUOUS
 10
-25.550388
 20
-66.95793
 11
-25.550388
 21
-79.624597
  0
LINE
  8
別途部材
  6
CONTINUOUS
 10
-23.550388
 20
-67.95793
 11
-23.550388
 21
-79.624597
  0
LINE
  8
別途部材
  6
CONTINUOUS
 10
-12.550388
 20
-67.95793
 11
-12.550388
 21
-79.624597
  0
LINE
  8
別途部材
  6
CONTINUOUS
 10
-11.550388
 20
-67.95793
 11
-11.550388
 21
-79.624597
  0
LINE
  8
別途部材
  6
CONTINUOUS
 10
-6.550388
 20
-66.95793
 11
-6.550388
 21
-79.624597
  0
LINE
  8
別途部材
  6
CONTINUOUS
 10
-4.550388
 20
-67.95793
 11
-4.550388
 21
-79.624597
  0
LINE
  8
別途部材
  6
CONTINUOUS
 10
-1.550388
 20
-66.95793
 11
-1.550388
 21
-79.624597
  0
LINE
  8
別途部材
  6
CONTINUOUS
 10
1.449612
 20
-66.95793
 11
1.449612
 21
-79.624597
  0
LINE
  8
別途部材
  6
CONTINUOUS
 10
-5.550388
 20
-66.95793
 11
-5.550388
 21
-79.624597
  0
LINE
  8
別途部材
  6
CONTINUOUS
 10
-3.550388
 20
-67.95793
 11
-3.550388
 21
-79.624597
  0
LINE
  8
別途部材
  6
CONTINUOUS
 10
-0.550388
 20
-67.95793
 11
-0.550388
 21
-79.624597
  0
LINE
  8
別途部材
  6
CONTINUOUS
 10
0.449612
 20
-67.95793
 11
0.449612
 21
-79.624597
  0
LINE
  8
別途部材
  6
CONTINUOUS
 10
-9.550388
 20
-66.95793
 11
-9.550388
 21
-79.624597
  0
LINE
  8
別途部材
  6
CONTINUOUS
 10
-10.550388
 20
-66.95793
 11
-10.550388
 21
-79.624597
  0
LINE
  8
別途部材
  6
CONTINUOUS
 10
-8.550388
 20
-67.95793
 11
-8.550388
 21
-79.624597
  0
LINE
  8
別途部材
  6
CONTINUOUS
 10
-2.550388
 20
-66.95793
 11
-2.550388
 21
-79.624597
  0
LINE
  8
別途部材
  6
CONTINUOUS
 10
-16.550388
 20
-67.95793
 11
-16.550388
 21
-79.624597
  0
LINE
  8
別途部材
  6
CONTINUOUS
 10
-15.550388
 20
-67.95793
 11
-15.550388
 21
-79.624597
  0
LINE
  8
別途部材
  6
CONTINUOUS
 10
-17.550388
 20
-66.95793
 11
-17.550388
 21
-79.624597
  0
LINE
  8
別途部材
  6
CONTINUOUS
 10
-19.550388
 20
-67.95793
 11
-19.550388
 21
-79.624597
  0
LINE
  8
別途部材
  6
CONTINUOUS
 10
-18.550388
 20
-66.95793
 11
-18.550388
 21
-79.624597
  0
LINE
  8
別途部材
  6
CONTINUOUS
 10
-20.550388
 20
-67.95793
 11
-20.550388
 21
-79.624597
  0
LINE
  8
別途部材
  6
CONTINUOUS
 10
-22.550388
 20
-66.95793
 11
-22.550388
 21
-79.624597
  0
LINE
  8
別途部材
  6
CONTINUOUS
 10
-21.550388
 20
-66.95793
 11
-21.550388
 21
-79.624597
  0
LINE
  8
別途部材
  6
CONTINUOUS
 10
-27.550388
 20
-67.95793
 11
-27.550388
 21
-79.624597
  0
LINE
  8
別途部材
  6
CONTINUOUS
 10
16.449612
 20
-67.95793
 11
17.449612
 21
-66.95793
  0
LINE
  8
別途部材
  6
CONTINUOUS
 10
18.449612
 20
-66.95793
 11
19.449612
 21
-67.95793
  0
LINE
  8
別途部材
  6
CONTINUOUS
 10
17.449612
 20
-66.95793
 11
18.449612
 21
-66.95793
  0
LINE
  8
別途部材
  6
CONTINUOUS
 10
20.449612
 20
-67.95793
 11
21.449612
 21
-66.95793
  0
LINE
  8
別途部材
  6
CONTINUOUS
 10
22.449612
 20
-66.95793
 11
23.449612
 21
-67.95793
  0
LINE
  8
別途部材
  6
CONTINUOUS
 10
21.449612
 20
-66.95793
 11
22.449612
 21
-66.95793
  0
LINE
  8
別途部材
  6
CONTINUOUS
 10
24.449612
 20
-67.95793
 11
25.449612
 21
-66.95793
  0
LINE
  8
別途部材
  6
CONTINUOUS
 10
26.449612
 20
-66.95793
 11
27.449612
 21
-67.95793
  0
LINE
  8
別途部材
  6
CONTINUOUS
 10
25.449612
 20
-66.95793
 11
26.449612
 21
-66.95793
  0
LINE
  8
別途部材
  6
CONTINUOUS
 10
28.449612
 20
-67.95793
 11
29.449612
 21
-66.95793
  0
LINE
  8
別途部材
  6
CONTINUOUS
 10
30.449612
 20
-66.95793
 11
31.449612
 21
-67.95793
  0
LINE
  8
別途部材
  6
CONTINUOUS
 10
29.449612
 20
-66.95793
 11
30.449612
 21
-66.95793
  0
LINE
  8
別途部材
  6
CONTINUOUS
 10
27.449612
 20
-67.95793
 11
28.449612
 21
-67.95793
  0
LINE
  8
別途部材
  6
CONTINUOUS
 10
23.449612
 20
-67.95793
 11
24.449612
 21
-67.95793
  0
LINE
  8
別途部材
  6
CONTINUOUS
 10
19.449612
 20
-67.95793
 11
20.449612
 21
-67.95793
  0
LINE
  8
別途部材
  6
CONTINUOUS
 10
15.449612
 20
-67.95793
 11
16.449612
 21
-67.95793
  0
LINE
  8
別途部材
  6
CONTINUOUS
 10
28.449612
 20
-67.95793
 11
28.449612
 21
-79.624597
  0
LINE
  8
別途部材
  6
CONTINUOUS
 10
22.449612
 20
-66.95793
 11
22.449612
 21
-79.624597
  0
LINE
  8
別途部材
  6
CONTINUOUS
 10
21.449612
 20
-66.95793
 11
21.449612
 21
-79.624597
  0
LINE
  8
別途部材
  6
CONTINUOUS
 10
23.449612
 20
-67.95793
 11
23.449612
 21
-79.624597
  0
LINE
  8
別途部材
  6
CONTINUOUS
 10
24.449612
 20
-67.95793
 11
24.449612
 21
-79.624597
  0
LINE
  8
別途部材
  6
CONTINUOUS
 10
29.449612
 20
-66.95793
 11
29.449612
 21
-79.624597
  0
LINE
  8
別途部材
  6
CONTINUOUS
 10
31.449612
 20
-67.95793
 11
31.449612
 21
-79.624597
  0
LINE
  8
別途部材
  6
CONTINUOUS
 10
30.449612
 20
-66.95793
 11
30.449612
 21
-79.624597
  0
LINE
  8
別途部材
  6
CONTINUOUS
 10
26.449612
 20
-66.95793
 11
26.449612
 21
-79.624597
  0
LINE
  8
別途部材
  6
CONTINUOUS
 10
25.449612
 20
-66.95793
 11
25.449612
 21
-79.624597
  0
LINE
  8
別途部材
  6
CONTINUOUS
 10
27.449612
 20
-67.95793
 11
27.449612
 21
-79.624597
  0
LINE
  8
別途部材
  6
CONTINUOUS
 10
19.449612
 20
-67.95793
 11
19.449612
 21
-79.624597
  0
LINE
  8
別途部材
  6
CONTINUOUS
 10
20.449612
 20
-67.95793
 11
20.449612
 21
-79.624597
  0
LINE
  8
別途部材
  6
CONTINUOUS
 10
18.449612
 20
-66.95793
 11
18.449612
 21
-79.624597
  0
LINE
  8
別途部材
  6
CONTINUOUS
 10
16.449612
 20
-67.95793
 11
16.449612
 21
-79.624597
  0
LINE
  8
別途部材
  6
CONTINUOUS
 10
17.449612
 20
-66.95793
 11
17.449612
 21
-79.624597
  0
ENDBLK
  0
BLOCK
  2
*DIM_0012
 70
    65
 10
0.0
 20
0.0
  0
LINE
  8
寸法
  6
BYBLOCK
 62
     0
 10
29.449612
 20
-67.95793
 11
74.903125
 21
-67.95793
  0
LINE
  8
寸法
  6
BYBLOCK
 62
     0
 10
74.903125
 20
-79.624597
 11
74.903125
 21
-67.95793
  0
POINT
  8
寸法
 62
     0
 10
74.903125
 20
-67.95793
  0
TEXT
  7
TextStyle03
  8
寸法
  6
CONTINUOUS
 62
     0
 10
74.525
 20
-76.2375
  1
350
 40
3.0
 50
90.0
 72
     5
 11
74.525
 21
-71.3625
  0
ENDBLK
  0
BLOCK
  2
*GRP_0013
 70
    65
 10
0.0
 20
0.0
  0
LINE
  8
補助線
  6
BYBLOCK
 62
    64
 10
-93.3218
 20
-84.528995
 11
-93.445645
 21
-84.64053
  0
LINE
  8
補助線
  6
BYBLOCK
 62
    64
 10
-93.439492
 20
-84.522837
 11
-93.327955
 21
-84.646685
  0
LINE
  8
補助線
  6
BYBLOCK
 62
    64
 10
-82.606697
 20
-74.87897
 11
-82.730542
 21
-74.990505
  0
LINE
  8
補助線
  6
BYBLOCK
 62
    64
 10
-82.724388
 20
-74.872812
 11
-82.612853
 21
-74.99666
  0
LINE
  8
補助線
  6
BYBLOCK
 62
    64
 10
-72.01544
 20
-65.34048
 11
-71.891597
 21
-65.228945
  0
LINE
  8
補助線
  6
BYBLOCK
 62
    64
 10
-72.009288
 20
-65.222787
 11
-71.89775
 21
-65.346635
  0
LINE
  8
型材断面
  6
CONTINUOUS
 10
-94.18909
 20
-84.188608
 11
-94.226018
 21
-84.894747
  0
LINE
  8
型材断面
  6
CONTINUOUS
 10
-94.226018
 20
-84.894747
 11
-93.779878
 21
-85.39013
  0
LINE
  8
型材断面
  6
CONTINUOUS
 10
-93.779878
 20
-85.39013
 11
-93.073735
 21
-85.42706
  0
LINE
  8
型材断面
  6
CONTINUOUS
 10
-72.263502
 20
-64.442418
 11
-71.557362
 21
-64.479348
  0
LINE
  8
型材断面
  6
CONTINUOUS
 10
-71.557362
 20
-64.479348
 11
-71.11122
 21
-64.974727
  0
LINE
  8
型材断面
  6
CONTINUOUS
 10
-71.11122
 20
-64.974727
 11
-71.14815
 21
-65.680872
  0
LINE
  8
型材断面
  6
CONTINUOUS
 10
-93.073735
 20
-85.42706
 11
-71.14815
 21
-65.680872
  0
LINE
  8
型材断面
  6
CONTINUOUS
 10
-94.18909
 20
-84.188608
 11
-72.263502
 21
-64.442418
  0
CIRCLE
  8
ボルト／ビス
  6
CONTINUOUS
 10
-93.383723
 20
-84.584763
 40
0.250185
  0
CIRCLE
  8
ボルト／ビス
  6
CONTINUOUS
 10
-93.383723
 20
-84.584763
 40
0.301025
  0
LINE
  8
ボルト／ビス
  6
CONTINUOUS
 62
    64
 10
-93.628435
 20
-84.636808
 11
-93.55115
 21
-84.398858
  0
LINE
  8
ボルト／ビス
  6
CONTINUOUS
 62
    64
 10
-93.306437
 20
-84.346813
 11
-93.55115
 21
-84.398858
  0
LINE
  8
ボルト／ビス
  6
CONTINUOUS
 62
    64
 10
-93.461007
 20
-84.822713
 11
-93.216295
 21
-84.770668
  0
LINE
  8
ボルト／ビス
  6
CONTINUOUS
 62
    64
 10
-93.13901
 20
-84.532718
 11
-93.216295
 21
-84.770668
  0
LINE
  8
ボルト／ビス
  6
CONTINUOUS
 62
    64
 10
-93.628435
 20
-84.636808
 11
-93.461007
 21
-84.822713
  0
LINE
  8
ボルト／ビス
  6
CONTINUOUS
 62
    64
 10
-93.306437
 20
-84.346813
 11
-93.13901
 21
-84.532718
  0
CIRCLE
  8
ボルト／ビス
  6
CONTINUOUS
 62
    64
 10
-93.383723
 20
-84.584763
 40
0.216668
  0
CIRCLE
  8
ボルト／ビス
  6
CONTINUOUS
 10
-82.66862
 20
-74.93474
 40
0.250185
  0
CIRCLE
  8
ボルト／ビス
  6
CONTINUOUS
 10
-82.66862
 20
-74.93474
 40
0.301025
  0
LINE
  8
ボルト／ビス
  6
CONTINUOUS
 62
    64
 10
-82.913335
 20
-74.986783
 11
-82.836048
 21
-74.748833
  0
LINE
  8
ボルト／ビス
  6
CONTINUOUS
 62
    64
 10
-82.591335
 20
-74.69679
 11
-82.836048
 21
-74.748833
  0
LINE
  8
ボルト／ビス
  6
CONTINUOUS
 62
    64
 10
-82.745907
 20
-75.172688
 11
-82.501195
 21
-75.120643
  0
LINE
  8
ボルト／ビス
  6
CONTINUOUS
 62
    64
 10
-82.423908
 20
-74.882695
 11
-82.501195
 21
-75.120643
  0
LINE
  8
ボルト／ビス
  6
CONTINUOUS
 62
    64
 10
-82.913335
 20
-74.986783
 11
-82.745907
 21
-75.172688
  0
LINE
  8
ボルト／ビス
  6
CONTINUOUS
 62
    64
 10
-82.591335
 20
-74.69679
 11
-82.423908
 21
-74.882695
  0
CIRCLE
  8
ボルト／ビス
  6
CONTINUOUS
 62
    64
 10
-82.66862
 20
-74.93474
 40
0.216668
  0
CIRCLE
  8
ボルト／ビス
  6
CONTINUOUS
 10
-71.95352
 20
-65.284713
 40
0.250185
  0
CIRCLE
  8
ボルト／ビス
  6
CONTINUOUS
 10
-71.95352
 20
-65.284713
 40
0.301025
  0
LINE
  8
ボルト／ビス
  6
CONTINUOUS
 62
    64
 10
-71.876232
 20
-65.046763
 11
-72.120945
 21
-65.098808
  0
LINE
  8
ボルト／ビス
  6
CONTINUOUS
 62
    64
 10
-72.19823
 20
-65.336758
 11
-72.120945
 21
-65.098808
  0
LINE
  8
ボルト／ビス
  6
CONTINUOUS
 62
    64
 10
-71.708805
 20
-65.232668
 11
-71.786092
 21
-65.470618
  0
LINE
  8
ボルト／ビス
  6
CONTINUOUS
 62
    64
 10
-72.030805
 20
-65.522663
 11
-71.786092
 21
-65.470618
  0
LINE
  8
ボルト／ビス
  6
CONTINUOUS
 62
    64
 10
-71.876232
 20
-65.046763
 11
-71.708805
 21
-65.232668
  0
LINE
  8
ボルト／ビス
  6
CONTINUOUS
 62
    64
 10
-72.19823
 20
-65.336758
 11
-72.030805
 21
-65.522663
  0
CIRCLE
  8
ボルト／ビス
  6
CONTINUOUS
 62
    64
 10
-71.95352
 20
-65.284713
 40
0.216668
  0
ENDBLK
  0
BLOCK
  2
*GRP_0014
 70
    65
 10
0.0
 20
0.0
  0
LINE
  8
補助線
  6
BYBLOCK
 62
    64
 10
-72.01544
 20
-84.528995
 11
-71.891595
 21
-84.64053
  0
LINE
  8
補助線
  6
BYBLOCK
 62
    64
 10
-71.897747
 20
-84.522837
 11
-72.009285
 21
-84.646685
  0
LINE
  8
補助線
  6
BYBLOCK
 62
    64
 10
-82.730542
 20
-74.87897
 11
-82.606697
 21
-74.990505
  0
LINE
  8
補助線
  6
BYBLOCK
 62
    64
 10
-82.612853
 20
-74.872812
 11
-82.724388
 21
-74.99666
  0
LINE
  8
補助線
  6
BYBLOCK
 62
    64
 10
-93.3218
 20
-65.34048
 11
-93.445643
 21
-65.228945
  0
LINE
  8
補助線
  6
BYBLOCK
 62
    64
 10
-93.327952
 20
-65.222787
 11
-93.43949
 21
-65.346635
  0
LINE
  8
型材断面
  6
CONTINUOUS
 10
-71.14815
 20
-84.188608
 11
-71.111222
 21
-84.894747
  0
LINE
  8
型材断面
  6
CONTINUOUS
 10
-71.111222
 20
-84.894747
 11
-71.557362
 21
-85.39013
  0
LINE
  8
型材断面
  6
CONTINUOUS
 10
-71.557362
 20
-85.39013
 11
-72.263505
 21
-85.42706
  0
LINE
  8
型材断面
  6
CONTINUOUS
 10
-93.073737
 20
-64.442418
 11
-93.779878
 21
-64.479348
  0
LINE
  8
型材断面
  6
CONTINUOUS
 10
-93.779878
 20
-64.479348
 11
-94.22602
 21
-64.974727
  0
LINE
  8
型材断面
  6
CONTINUOUS
 10
-94.22602
 20
-64.974727
 11
-94.18909
 21
-65.680872
  0
LINE
  8
型材断面
  6
CONTINUOUS
 10
-72.263505
 20
-85.42706
 11
-94.18909
 21
-65.680872
  0
LINE
  8
型材断面
  6
CONTINUOUS
 10
-71.14815
 20
-84.188608
 11
-93.073737
 21
-64.442418
  0
CIRCLE
  8
ボルト／ビス
  6
CONTINUOUS
 10
-71.953518
 20
-84.584763
 40
0.250185
  0
CIRCLE
  8
ボルト／ビス
  6
CONTINUOUS
 10
-71.953518
 20
-84.584763
 40
0.301025
  0
LINE
  8
ボルト／ビス
  6
CONTINUOUS
 62
    64
 10
-71.708805
 20
-84.636808
 11
-71.78609
 21
-84.398858
  0
LINE
  8
ボルト／ビス
  6
CONTINUOUS
 62
    64
 10
-72.030803
 20
-84.346813
 11
-71.78609
 21
-84.398858
  0
LINE
  8
ボルト／ビス
  6
CONTINUOUS
 62
    64
 10
-71.876232
 20
-84.822713
 11
-72.120945
 21
-84.770668
  0
LINE
  8
ボルト／ビス
  6
CONTINUOUS
 62
    64
 10
-72.19823
 20
-84.532718
 11
-72.120945
 21
-84.770668
  0
LINE
  8
ボルト／ビス
  6
CONTINUOUS
 62
    64
 10
-71.708805
 20
-84.636808
 11
-71.876232
 21
-84.822713
  0
LINE
  8
ボルト／ビス
  6
CONTINUOUS
 62
    64
 10
-72.030803
 20
-84.346813
 11
-72.19823
 21
-84.532718
  0
CIRCLE
  8
ボルト／ビス
  6
CONTINUOUS
 62
    64
 10
-71.953518
 20
-84.584763
 40
0.216668
  0
CIRCLE
  8
ボルト／ビス
  6
CONTINUOUS
 10
-82.66862
 20
-74.93474
 40
0.250185
  0
CIRCLE
  8
ボルト／ビス
  6
CONTINUOUS
 10
-82.66862
 20
-74.93474
 40
0.301025
  0
LINE
  8
ボルト／ビス
  6
CONTINUOUS
 62
    64
 10
-82.423905
 20
-74.986783
 11
-82.501192
 21
-74.748833
  0
LINE
  8
ボルト／ビス
  6
CONTINUOUS
 62
    64
 10
-82.745905
 20
-74.69679
 11
-82.501192
 21
-74.748833
  0
LINE
  8
ボルト／ビス
  6
CONTINUOUS
 62
    64
 10
-82.591333
 20
-75.172688
 11
-82.836045
 21
-75.120643
  0
LINE
  8
ボルト／ビス
  6
CONTINUOUS
 62
    64
 10
-82.913332
 20
-74.882695
 11
-82.836045
 21
-75.120643
  0
LINE
  8
ボルト／ビス
  6
CONTINUOUS
 62
    64
 10
-82.423905
 20
-74.986783
 11
-82.591333
 21
-75.172688
  0
LINE
  8
ボルト／ビス
  6
CONTINUOUS
 62
    64
 10
-82.745905
 20
-74.69679
 11
-82.913332
 21
-74.882695
  0
CIRCLE
  8
ボルト／ビス
  6
CONTINUOUS
 62
    64
 10
-82.66862
 20
-74.93474
 40
0.216668
  0
CIRCLE
  8
ボルト／ビス
  6
CONTINUOUS
 10
-93.38372
 20
-65.284713
 40
0.250185
  0
CIRCLE
  8
ボルト／ビス
  6
CONTINUOUS
 10
-93.38372
 20
-65.284713
 40
0.301025
  0
LINE
  8
ボルト／ビス
  6
CONTINUOUS
 62
    64
 10
-93.461007
 20
-65.046763
 11
-93.216295
 21
-65.098808
  0
LINE
  8
ボルト／ビス
  6
CONTINUOUS
 62
    64
 10
-93.13901
 20
-65.336758
 11
-93.216295
 21
-65.098808
  0
LINE
  8
ボルト／ビス
  6
CONTINUOUS
 62
    64
 10
-93.628435
 20
-65.232668
 11
-93.551148
 21
-65.470618
  0
LINE
  8
ボルト／ビス
  6
CONTINUOUS
 62
    64
 10
-93.306435
 20
-65.522663
 11
-93.551148
 21
-65.470618
  0
LINE
  8
ボルト／ビス
  6
CONTINUOUS
 62
    64
 10
-93.461007
 20
-65.046763
 11
-93.628435
 21
-65.232668
  0
LINE
  8
ボルト／ビス
  6
CONTINUOUS
 62
    64
 10
-93.13901
 20
-65.336758
 11
-93.306435
 21
-65.522663
  0
CIRCLE
  8
ボルト／ビス
  6
CONTINUOUS
 62
    64
 10
-93.38372
 20
-65.284713
 40
0.216668
  0
ENDBLK
  0
BLOCK
  2
*GRP_0015
 70
    65
 10
0.0
 20
0.0
  0
LINE
  8
補助線
  6
BYBLOCK
 62
    64
 10
33.221025
 20
-84.528995
 11
33.34487
 21
-84.64053
  0
LINE
  8
補助線
  6
BYBLOCK
 62
    64
 10
33.338717
 20
-84.522837
 11
33.22718
 21
-84.646685
  0
LINE
  8
補助線
  6
BYBLOCK
 62
    64
 10
22.505923
 20
-74.87897
 11
22.629767
 21
-74.990505
  0
LINE
  8
補助線
  6
BYBLOCK
 62
    64
 10
22.623612
 20
-74.872812
 11
22.512077
 21
-74.99666
  0
LINE
  8
補助線
  6
BYBLOCK
 62
    64
 10
11.914665
 20
-65.34048
 11
11.790822
 21
-65.228945
  0
LINE
  8
補助線
  6
BYBLOCK
 62
    64
 10
11.908512
 20
-65.222787
 11
11.796975
 21
-65.346635
  0
LINE
  8
型材断面
  6
CONTINUOUS
 10
34.088315
 20
-84.188608
 11
34.125243
 21
-84.894747
  0
LINE
  8
型材断面
  6
CONTINUOUS
 10
34.125243
 20
-84.894747
 11
33.679103
 21
-85.39013
  0
LINE
  8
型材断面
  6
CONTINUOUS
 10
33.679103
 20
-85.39013
 11
32.97296
 21
-85.42706
  0
LINE
  8
型材断面
  6
CONTINUOUS
 10
12.162728
 20
-64.442418
 11
11.456588
 21
-64.479348
  0
LINE
  8
型材断面
  6
CONTINUOUS
 10
11.456588
 20
-64.479348
 11
11.010445
 21
-64.974727
  0
LINE
  8
型材断面
  6
CONTINUOUS
 10
11.010445
 20
-64.974727
 11
11.047375
 21
-65.680872
  0
LINE
  8
型材断面
  6
CONTINUOUS
 10
32.97296
 20
-85.42706
 11
11.047375
 21
-65.680872
  0
LINE
  8
型材断面
  6
CONTINUOUS
 10
34.088315
 20
-84.188608
 11
12.162728
 21
-64.442418
  0
CIRCLE
  8
ボルト／ビス
  6
CONTINUOUS
 10
33.282948
 20
-84.584763
 40
0.250185
  0
CIRCLE
  8
ボルト／ビス
  6
CONTINUOUS
 10
33.282948
 20
-84.584763
 40
0.301025
  0
LINE
  8
ボルト／ビス
  6
CONTINUOUS
 62
    64
 10
33.52766
 20
-84.636808
 11
33.450375
 21
-84.398858
  0
LINE
  8
ボルト／ビス
  6
CONTINUOUS
 62
    64
 10
33.205662
 20
-84.346813
 11
33.450375
 21
-84.398858
  0
LINE
  8
ボルト／ビス
  6
CONTINUOUS
 62
    64
 10
33.360232
 20
-84.822713
 11
33.11552
 21
-84.770668
  0
LINE
  8
ボルト／ビス
  6
CONTINUOUS
 62
    64
 10
33.038235
 20
-84.532718
 11
33.11552
 21
-84.770668
  0
LINE
  8
ボルト／ビス
  6
CONTINUOUS
 62
    64
 10
33.52766
 20
-84.636808
 11
33.360232
 21
-84.822713
  0
LINE
  8
ボルト／ビス
  6
CONTINUOUS
 62
    64
 10
33.205662
 20
-84.346813
 11
33.038235
 21
-84.532718
  0
CIRCLE
  8
ボルト／ビス
  6
CONTINUOUS
 62
    64
 10
33.282948
 20
-84.584763
 40
0.216668
  0
CIRCLE
  8
ボルト／ビス
  6
CONTINUOUS
 10
22.567845
 20
-74.93474
 40
0.250185
  0
CIRCLE
  8
ボルト／ビス
  6
CONTINUOUS
 10
22.567845
 20
-74.93474
 40
0.301025
  0
LINE
  8
ボルト／ビス
  6
CONTINUOUS
 62
    64
 10
22.81256
 20
-74.986783
 11
22.735273
 21
-74.748833
  0
LINE
  8
ボルト／ビス
  6
CONTINUOUS
 62
    64
 10
22.49056
 20
-74.69679
 11
22.735273
 21
-74.748833
  0
LINE
  8
ボルト／ビス
  6
CONTINUOUS
 62
    64
 10
22.645132
 20
-75.172688
 11
22.40042
 21
-75.120643
  0
LINE
  8
ボルト／ビス
  6
CONTINUOUS
 62
    64
 10
22.323133
 20
-74.882695
 11
22.40042
 21
-75.120643
  0
LINE
  8
ボルト／ビス
  6
CONTINUOUS
 62
    64
 10
22.81256
 20
-74.986783
 11
22.645132
 21
-75.172688
  0
LINE
  8
ボルト／ビス
  6
CONTINUOUS
 62
    64
 10
22.49056
 20
-74.69679
 11
22.323133
 21
-74.882695
  0
CIRCLE
  8
ボルト／ビス
  6
CONTINUOUS
 62
    64
 10
22.567845
 20
-74.93474
 40
0.216668
  0
CIRCLE
  8
ボルト／ビス
  6
CONTINUOUS
 10
11.852745
 20
-65.284713
 40
0.250185
  0
CIRCLE
  8
ボルト／ビス
  6
CONTINUOUS
 10
11.852745
 20
-65.284713
 40
0.301025
  0
LINE
  8
ボルト／ビス
  6
CONTINUOUS
 62
    64
 10
11.775458
 20
-65.046763
 11
12.02017
 21
-65.098808
  0
LINE
  8
ボルト／ビス
  6
CONTINUOUS
 62
    64
 10
12.097455
 20
-65.336758
 11
12.02017
 21
-65.098808
  0
LINE
  8
ボルト／ビス
  6
CONTINUOUS
 62
    64
 10
11.60803
 20
-65.232668
 11
11.685318
 21
-65.470618
  0
LINE
  8
ボルト／ビス
  6
CONTINUOUS
 62
    64
 10
11.93003
 20
-65.522663
 11
11.685318
 21
-65.470618
  0
LINE
  8
ボルト／ビス
  6
CONTINUOUS
 62
    64
 10
11.775458
 20
-65.046763
 11
11.60803
 21
-65.232668
  0
LINE
  8
ボルト／ビス
  6
CONTINUOUS
 62
    64
 10
12.097455
 20
-65.336758
 11
11.93003
 21
-65.522663
  0
CIRCLE
  8
ボルト／ビス
  6
CONTINUOUS
 62
    64
 10
11.852745
 20
-65.284713
 40
0.216668
  0
ENDBLK
  0
BLOCK
  2
*GRP_0016
 70
    65
 10
0.0
 20
0.0
  0
LINE
  8
補助線
  6
BYBLOCK
 62
    64
 10
11.914665
 20
-84.528995
 11
11.79082
 21
-84.64053
  0
LINE
  8
補助線
  6
BYBLOCK
 62
    64
 10
11.796973
 20
-84.522837
 11
11.90851
 21
-84.646685
  0
LINE
  8
補助線
  6
BYBLOCK
 62
    64
 10
22.629767
 20
-74.87897
 11
22.505923
 21
-74.990505
  0
LINE
  8
補助線
  6
BYBLOCK
 62
    64
 10
22.512077
 20
-74.872812
 11
22.623612
 21
-74.99666
  0
LINE
  8
補助線
  6
BYBLOCK
 62
    64
 10
33.221025
 20
-65.34048
 11
33.344867
 21
-65.228945
  0
LINE
  8
補助線
  6
BYBLOCK
 62
    64
 10
33.227177
 20
-65.222787
 11
33.338715
 21
-65.346635
  0
LINE
  8
型材断面
  6
CONTINUOUS
 10
11.047375
 20
-84.188608
 11
11.010448
 21
-84.894747
  0
LINE
  8
型材断面
  6
CONTINUOUS
 10
11.010448
 20
-84.894747
 11
11.456588
 21
-85.39013
  0
LINE
  8
型材断面
  6
CONTINUOUS
 10
11.456588
 20
-85.39013
 11
12.16273
 21
-85.42706
  0
LINE
  8
型材断面
  6
CONTINUOUS
 10
32.972962
 20
-64.442418
 11
33.679103
 21
-64.479348
  0
LINE
  8
型材断面
  6
CONTINUOUS
 10
33.679103
 20
-64.479348
 11
34.125245
 21
-64.974727
  0
LINE
  8
型材断面
  6
CONTINUOUS
 10
34.125245
 20
-64.974727
 11
34.088315
 21
-65.680872
  0
LINE
  8
型材断面
  6
CONTINUOUS
 10
12.16273
 20
-85.42706
 11
34.088315
 21
-65.680872
  0
LINE
  8
型材断面
  6
CONTINUOUS
 10
11.047375
 20
-84.188608
 11
32.972962
 21
-64.442418
  0
CIRCLE
  8
ボルト／ビス
  6
CONTINUOUS
 10
11.852743
 20
-84.584763
 40
0.250185
  0
CIRCLE
  8
ボルト／ビス
  6
CONTINUOUS
 10
11.852743
 20
-84.584763
 40
0.301025
  0
LINE
  8
ボルト／ビス
  6
CONTINUOUS
 62
    64
 10
11.60803
 20
-84.636808
 11
11.685315
 21
-84.398858
  0
LINE
  8
ボルト／ビス
  6
CONTINUOUS
 62
    64
 10
11.930027
 20
-84.346813
 11
11.685315
 21
-84.398858
  0
LINE
  8
ボルト／ビス
  6
CONTINUOUS
 62
    64
 10
11.775458
 20
-84.822713
 11
12.02017
 21
-84.770668
  0
LINE
  8
ボルト／ビス
  6
CONTINUOUS
 62
    64
 10
12.097455
 20
-84.532718
 11
12.02017
 21
-84.770668
  0
LINE
  8
ボルト／ビス
  6
CONTINUOUS
 62
    64
 10
11.60803
 20
-84.636808
 11
11.775458
 21
-84.822713
  0
LINE
  8
ボルト／ビス
  6
CONTINUOUS
 62
    64
 10
11.930027
 20
-84.346813
 11
12.097455
 21
-84.532718
  0
CIRCLE
  8
ボルト／ビス
  6
CONTINUOUS
 62
    64
 10
11.852743
 20
-84.584763
 40
0.216668
  0
CIRCLE
  8
ボルト／ビス
  6
CONTINUOUS
 10
22.567845
 20
-74.93474
 40
0.250185
  0
CIRCLE
  8
ボルト／ビス
  6
CONTINUOUS
 10
22.567845
 20
-74.93474
 40
0.301025
  0
LINE
  8
ボルト／ビス
  6
CONTINUOUS
 62
    64
 10
22.32313
 20
-74.986783
 11
22.400418
 21
-74.748833
  0
LINE
  8
ボルト／ビス
  6
CONTINUOUS
 62
    64
 10
22.64513
 20
-74.69679
 11
22.400418
 21
-74.748833
  0
LINE
  8
ボルト／ビス
  6
CONTINUOUS
 62
    64
 10
22.490558
 20
-75.172688
 11
22.73527
 21
-75.120643
  0
LINE
  8
ボルト／ビス
  6
CONTINUOUS
 62
    64
 10
22.812558
 20
-74.882695
 11
22.73527
 21
-75.120643
  0
LINE
  8
ボルト／ビス
  6
CONTINUOUS
 62
    64
 10
22.32313
 20
-74.986783
 11
22.490558
 21
-75.172688
  0
LINE
  8
ボルト／ビス
  6
CONTINUOUS
 62
    64
 10
22.64513
 20
-74.69679
 11
22.812558
 21
-74.882695
  0
CIRCLE
  8
ボルト／ビス
  6
CONTINUOUS
 62
    64
 10
22.567845
 20
-74.93474
 40
0.216668
  0
CIRCLE
  8
ボルト／ビス
  6
CONTINUOUS
 10
33.282945
 20
-65.284713
 40
0.250185
  0
CIRCLE
  8
ボルト／ビス
  6
CONTINUOUS
 10
33.282945
 20
-65.284713
 40
0.301025
  0
LINE
  8
ボルト／ビス
  6
CONTINUOUS
 62
    64
 10
33.360232
 20
-65.046763
 11
33.11552
 21
-65.098808
  0
LINE
  8
ボルト／ビス
  6
CONTINUOUS
 62
    64
 10
33.038235
 20
-65.336758
 11
33.11552
 21
-65.098808
  0
LINE
  8
ボルト／ビス
  6
CONTINUOUS
 62
    64
 10
33.52766
 20
-65.232668
 11
33.450373
 21
-65.470618
  0
LINE
  8
ボルト／ビス
  6
CONTINUOUS
 62
    64
 10
33.20566
 20
-65.522663
 11
33.450373
 21
-65.470618
  0
LINE
  8
ボルト／ビス
  6
CONTINUOUS
 62
    64
 10
33.360232
 20
-65.046763
 11
33.52766
 21
-65.232668
  0
LINE
  8
ボルト／ビス
  6
CONTINUOUS
 62
    64
 10
33.038235
 20
-65.336758
 11
33.20566
 21
-65.522663
  0
CIRCLE
  8
ボルト／ビス
  6
CONTINUOUS
 62
    64
 10
33.282945
 20
-65.284713
 40
0.216668
  0
ENDBLK
  0
BLOCK
  2
*DIM_0017
 70
    65
 10
0.0
 20
0.0
  0
LINE
  8
寸法
  6
BYBLOCK
 62
     0
 10
142.81621
 20
61.39905
 11
142.81621
 21
72.668433
  0
LINE
  8
寸法
  6
BYBLOCK
 62
     0
 10
149.849712
 20
61.715715
 11
149.849712
 21
72.668433
  0
LINE
  8
寸法
  6
BYBLOCK
 62
     0
 10
142.81621
 20
72.668433
 11
149.849712
 21
72.668433
  0
POINT
  8
寸法
 62
     0
 10
142.81621
 20
72.668433
  0
POINT
  8
寸法
 62
     0
 10
149.849712
 20
72.668433
  0
TEXT
  7
TextStyle03
  8
寸法
  6
CONTINUOUS
 62
     0
 10
143.8625
 20
73.025
  1
211
 40
3.0
 72
     5
 11
148.7375
 21
73.025
  0
ENDBLK
  0
BLOCK
  2
*DIM_0018
 70
    65
 10
0.0
 20
0.0
  0
LINE
  8
寸法
  6
BYBLOCK
 62
     0
 10
141.192995
 20
58.715715
 11
87.302595
 21
58.715715
  0
LINE
  8
寸法
  6
BYBLOCK
 62
     0
 10
87.302595
 20
56.73238
 11
87.302595
 21
58.715715
  0
POINT
  8
寸法
 62
     0
 10
87.302595
 20
56.73238
  0
POINT
  8
寸法
 62
     0
 10
87.302595
 20
58.715715
  0
TEXT
  7
TextStyle03
  8
寸法
  6
CONTINUOUS
 62
     0
 10
86.9
 20
61.16875
  1
59.5
 40
3.0
 50
90.0
 72
     5
 11
86.9
 21
67.73125
  0
ENDBLK
  0
BLOCK
  2
*DIM_0019
 70
    65
 10
0.0
 20
0.0
  0
LINE
  8
寸法
  6
BYBLOCK
 62
     0
 10
141.192995
 20
11.415715
 11
87.302595
 21
11.415715
  0
LINE
  8
寸法
  6
BYBLOCK
 62
     0
 10
87.302595
 20
13.399048
 11
87.302595
 21
11.415715
  0
POINT
  8
寸法
 62
     0
 10
87.302595
 20
13.399048
  0
POINT
  8
寸法
 62
     0
 10
87.302595
 20
11.415715
  0
TEXT
  7
TextStyle03
  8
寸法
  6
CONTINUOUS
 62
     0
 10
86.9
 20
2.36875
  1
59.5
 40
3.0
 50
90.0
 72
     5
 11
86.9
 21
8.93125
  0
ENDBLK
  0
BLOCK
  2
*DIM_0020
 70
    65
 10
0.0
 20
0.0
  0
LINE
  8
寸法
  6
BYBLOCK
 62
     0
 10
55.26628
 20
-78.001383
 11
55.26628
 21
-22.536362
  0
LINE
  8
寸法
  6
BYBLOCK
 62
     0
 10
53.282945
 20
-22.536362
 11
55.26628
 21
-22.536362
  0
POINT
  8
寸法
 62
     0
 10
53.282945
 20
-22.536362
  0
POINT
  8
寸法
 62
     0
 10
55.26628
 20
-22.536362
  0
TEXT
  7
TextStyle03
  8
寸法
  6
CONTINUOUS
 62
     0
 10
57.71875
 20
-22.15
  1
59.5
 40
3.0
 72
     5
 11
64.28125
 21
-22.15
  0
ENDBLK
  0
BLOCK
  2
*DIM_0021
 70
    65
 10
0.0
 20
0.0
  0
LINE
  8
寸法
  6
BYBLOCK
 62
     0
 10
-115.367055
 20
-78.001383
 11
-115.367055
 21
-22.536362
  0
LINE
  8
寸法
  6
BYBLOCK
 62
     0
 10
-113.383723
 20
-22.536362
 11
-115.367055
 21
-22.536362
  0
POINT
  8
寸法
 62
     0
 10
-113.383723
 20
-22.536362
  0
POINT
  8
寸法
 62
     0
 10
-115.367055
 20
-22.536362
  0
TEXT
  7
TextStyle03
  8
寸法
  6
CONTINUOUS
 62
     0
 10
-124.43125
 20
-22.15
  1
59.5
 40
3.0
 72
     5
 11
-117.86875
 21
-22.15
  0
ENDBLK
  0
BLOCK
  2
*DIM_0022
 70
    65
 10
0.0
 20
0.0
  0
LINE
  8
寸法
  6
BYBLOCK
 62
     0
 10
57.949612
 20
-79.624597
 11
74.903125
 21
-79.624597
  0
LINE
  8
寸法
  6
BYBLOCK
 62
     0
 10
58.26628
 20
-86.6581
 11
74.903125
 21
-86.6581
  0
LINE
  8
寸法
  6
BYBLOCK
 62
     0
 10
74.903125
 20
-79.624597
 11
74.903125
 21
-86.6581
  0
POINT
  8
寸法
 62
     0
 10
74.903125
 20
-79.624597
  0
POINT
  8
寸法
 62
     0
 10
74.903125
 20
-86.6581
  0
TEXT
  7
TextStyle03
  8
寸法
  6
CONTINUOUS
 62
     0
 10
74.525
 20
-85.5875
  1
211
 40
3.0
 50
90.0
 72
     5
 11
74.525
 21
-80.7125
  0
ENDBLK
  0
BLOCK
  2
*DIM_0023
 70
    65
 10
0.0
 20
0.0
  0
LINE
  8
寸法
  6
BYBLOCK
 62
     0
 10
-116.383723
 20
23.399048
 11
-145.328888
 21
23.399048
  0
LINE
  8
寸法
  6
BYBLOCK
 62
     0
 10
-116.383723
 20
46.732382
 11
-145.328888
 21
46.732382
  0
LINE
  8
寸法
  6
BYBLOCK
 62
     0
 10
-145.328888
 20
23.399048
 11
-145.328888
 21
46.732382
  0
POINT
  8
寸法
 62
     0
 10
-145.328888
 20
23.399048
  0
POINT
  8
寸法
 62
     0
 10
-145.328888
 20
46.732382
  0
TEXT
  7
TextStyle03
  8
寸法
  6
CONTINUOUS
 62
     0
 10
-145.65
 20
32.6125
  1
700
 40
3.0
 50
90.0
 72
     5
 11
-145.65
 21
37.4875
  0
ENDBLK
  0
BLOCK
  2
*DIM_0024
 70
    65
 10
0.0
 20
0.0
  0
LINE
  8
寸法
  6
BYBLOCK
 62
     0
 10
-105.050388
 20
59.73238
 11
-105.050388
 21
88.840452
  0
LINE
  8
寸法
  6
BYBLOCK
 62
     0
 10
-80.050388
 20
59.73238
 11
-80.050388
 21
88.840452
  0
LINE
  8
寸法
  6
BYBLOCK
 62
     0
 10
-105.050388
 20
88.840452
 11
-80.050388
 21
88.840452
  0
POINT
  8
寸法
 62
     0
 10
-105.050388
 20
88.840452
  0
POINT
  8
寸法
 62
     0
 10
-80.050388
 20
88.840452
  0
TEXT
  7
TextStyle03
  8
寸法
  6
CONTINUOUS
 62
     0
 10
-95.0125
 20
89.2
  1
750
 40
3.0
 72
     5
 11
-90.1375
 21
89.2
  0
ENDBLK
  0
BLOCK
  2
*DIM_0025
 70
    65
 10
0.0
 20
0.0
  0
LINE
  8
寸法
  6
BYBLOCK
 62
     0
 10
-55.050388
 20
59.73238
 11
-55.050388
 21
88.840452
  0
LINE
  8
寸法
  6
BYBLOCK
 62
     0
 10
-80.050388
 20
88.840452
 11
-55.050388
 21
88.840452
  0
POINT
  8
寸法
 62
     0
 10
-55.050388
 20
88.840452
  0
TEXT
  7
TextStyle03
  8
寸法
  6
CONTINUOUS
 62
     0
 10
-70.0125
 20
89.2
  1
750
 40
3.0
 72
     5
 11
-65.1375
 21
89.2
  0
ENDBLK
  0
BLOCK
  2
*DIM_0026
 70
    65
 10
0.0
 20
0.0
  0
LINE
  8
寸法
  6
BYBLOCK
 62
     0
 10
-30.050388
 20
59.73238
 11
-30.050388
 21
88.840452
  0
LINE
  8
寸法
  6
BYBLOCK
 62
     0
 10
-55.050388
 20
88.840452
 11
-30.050388
 21
88.840452
  0
POINT
  8
寸法
 62
     0
 10
-30.050388
 20
88.840452
  0
TEXT
  7
TextStyle03
  8
寸法
  6
CONTINUOUS
 62
     0
 10
-45.0125
 20
89.2
  1
750
 40
3.0
 72
     5
 11
-40.1375
 21
89.2
  0
ENDBLK
  0
BLOCK
  2
*DIM_0027
 70
    65
 10
0.0
 20
0.0
  0
LINE
  8
寸法
  6
BYBLOCK
 62
     0
 10
-5.050388
 20
59.73238
 11
-5.050388
 21
88.840452
  0
LINE
  8
寸法
  6
BYBLOCK
 62
     0
 10
-30.050388
 20
88.840452
 11
-5.050388
 21
88.840452
  0
POINT
  8
寸法
 62
     0
 10
-5.050388
 20
88.840452
  0
TEXT
  7
TextStyle03
  8
寸法
  6
CONTINUOUS
 62
     0
 10
-20.0125
 20
89.2
  1
750
 40
3.0
 72
     5
 11
-15.1375
 21
89.2
  0
ENDBLK
  0
BLOCK
  2
*DIM_0028
 70
    65
 10
0.0
 20
0.0
  0
LINE
  8
寸法
  6
BYBLOCK
 62
     0
 10
19.949612
 20
59.73238
 11
19.949612
 21
88.840452
  0
LINE
  8
寸法
  6
BYBLOCK
 62
     0
 10
-5.050388
 20
88.840452
 11
19.949612
 21
88.840452
  0
POINT
  8
寸法
 62
     0
 10
19.949612
 20
88.840452
  0
TEXT
  7
TextStyle03
  8
寸法
  6
CONTINUOUS
 62
     0
 10
4.9875
 20
89.2
  1
750
 40
3.0
 72
     5
 11
9.8625
 21
89.2
  0
ENDBLK
  0
BLOCK
  2
*DIM_0029
 70
    65
 10
0.0
 20
0.0
  0
LINE
  8
寸法
  6
BYBLOCK
 62
     0
 10
44.949612
 20
59.73238
 11
44.949612
 21
88.840452
  0
LINE
  8
寸法
  6
BYBLOCK
 62
     0
 10
19.949612
 20
88.840452
 11
44.949612
 21
88.840452
  0
POINT
  8
寸法
 62
     0
 10
44.949612
 20
88.840452
  0
TEXT
  7
TextStyle03
  8
寸法
  6
CONTINUOUS
 62
     0
 10
29.9875
 20
89.2
  1
750
 40
3.0
 72
     5
 11
34.8625
 21
89.2
  0
ENDBLK
  0
BLOCK
  2
*GRP_0031
 70
    65
 10
0.0
 20
0.0
  0
LINE
  8
ボルト／ビス
  6
CONTINUOUS
 10
142.81621
 20
12.73238
 11
142.349545
 21
12.73238
  0
LINE
  8
ボルト／ビス
  6
CONTINUOUS
 10
142.81621
 20
12.365715
 11
142.749545
 21
12.365715
  0
LINE
  8
ボルト／ビス
  6
CONTINUOUS
 10
142.749545
 20
12.365715
 11
142.749545
 21
13.099048
  0
LINE
  8
ボルト／ビス
  6
CONTINUOUS
 10
142.749545
 20
13.099048
 11
142.81621
 21
13.099048
  0
LINE
  8
ボルト／ビス
  6
CONTINUOUS
 10
142.81621
 20
12.365715
 11
142.81621
 21
13.099048
  0
LINE
  8
ボルト／ビス
  6
CONTINUOUS
 10
142.71621
 20
12.43238
 11
142.749545
 21
12.43238
  0
LINE
  8
ボルト／ビス
  6
CONTINUOUS
 10
142.71621
 20
12.43238
 11
142.71621
 21
13.03238
  0
LINE
  8
ボルト／ビス
  6
CONTINUOUS
 10
142.71621
 20
13.03238
 11
142.749545
 21
13.03238
  0
LINE
  8
ボルト／ビス
  6
CONTINUOUS
 62
    64
 10
142.51621
 20
12.572005
 11
142.527885
 21
12.53993
  0
ARC
  8
ボルト／ビス
  6
CONTINUOUS
 62
    64
 10
142.621189
 20
12.588044
 40
0.104978
 50
152.721967
 51
180.0
  0
ARC
  8
ボルト／ビス
  6
CONTINUOUS
 62
    64
 10
142.918613
 20
12.732382
 40
0.402402
 50
166.165002
 51
193.834985
  0
LINE
  8
ボルト／ビス
  6
CONTINUOUS
 62
    64
 10
142.51621
 20
12.892755
 11
142.527885
 21
12.92483
  0
ARC
  8
ボルト／ビス
  6
CONTINUOUS
 62
    64
 10
142.621189
 20
12.876719
 40
0.104978
 50
180.0
 51
207.278033
  0
LINE
  8
ボルト／ビス
  6
CONTINUOUS
 62
    64
 10
142.51621
 20
12.572005
 11
142.51621
 21
12.892755
  0
LINE
  8
ボルト／ビス
  6
CONTINUOUS
 62
    64
 10
142.527885
 20
12.92483
 11
142.649545
 21
12.92483
  0
LINE
  8
ボルト／ビス
  6
CONTINUOUS
 62
    64
 10
142.527885
 20
12.828605
 11
142.649545
 21
12.828605
  0
LINE
  8
ボルト／ビス
  6
CONTINUOUS
 62
    64
 10
142.527885
 20
12.53993
 11
142.649545
 21
12.53993
  0
LINE
  8
ボルト／ビス
  6
CONTINUOUS
 62
    64
 10
142.527885
 20
12.636155
 11
142.649545
 21
12.636155
  0
LINE
  8
ボルト／ビス
  6
CONTINUOUS
 10
142.649545
 20
12.53993
 11
142.649545
 21
12.92483
  0
LINE
  8
ボルト／ビス
  6
CONTINUOUS
 10
142.649545
 20
12.53238
 11
142.71621
 21
12.53238
  0
LINE
  8
ボルト／ビス
  6
CONTINUOUS
 10
142.649545
 20
12.53238
 11
142.649545
 21
12.93238
  0
LINE
  8
ボルト／ビス
  6
CONTINUOUS
 10
142.649545
 20
12.93238
 11
142.71621
 21
12.93238
  0
ENDBLK
  0
BLOCK
  2
*GRP_0032
 70
    65
 10
0.0
 20
0.0
  0
LINE
  8
ボルト／ビス
  6
CONTINUOUS
 10
142.81621
 20
57.39905
 11
142.349545
 21
57.39905
  0
LINE
  8
ボルト／ビス
  6
CONTINUOUS
 10
142.81621
 20
57.765715
 11
142.749545
 21
57.765715
  0
LINE
  8
ボルト／ビス
  6
CONTINUOUS
 10
142.749545
 20
57.765715
 11
142.749545
 21
57.032382
  0
LINE
  8
ボルト／ビス
  6
CONTINUOUS
 10
142.749545
 20
57.032382
 11
142.81621
 21
57.032382
  0
LINE
  8
ボルト／ビス
  6
CONTINUOUS
 10
142.81621
 20
57.765715
 11
142.81621
 21
57.032382
  0
LINE
  8
ボルト／ビス
  6
CONTINUOUS
 10
142.71621
 20
57.69905
 11
142.749545
 21
57.69905
  0
LINE
  8
ボルト／ビス
  6
CONTINUOUS
 10
142.71621
 20
57.69905
 11
142.71621
 21
57.09905
  0
LINE
  8
ボルト／ビス
  6
CONTINUOUS
 10
142.71621
 20
57.09905
 11
142.749545
 21
57.09905
  0
LINE
  8
ボルト／ビス
  6
CONTINUOUS
 62
    64
 10
142.51621
 20
57.559425
 11
142.527885
 21
57.5915
  0
ARC
  8
ボルト／ビス
  6
CONTINUOUS
 62
    64
 10
142.621189
 20
57.543386
 40
0.104978
 50
180.0
 51
207.278033
  0
ARC
  8
ボルト／ビス
  6
CONTINUOUS
 62
    64
 10
142.918613
 20
57.399048
 40
0.402402
 50
166.165015
 51
193.834998
  0
LINE
  8
ボルト／ビス
  6
CONTINUOUS
 62
    64
 10
142.51621
 20
57.238675
 11
142.527885
 21
57.2066
  0
ARC
  8
ボルト／ビス
  6
CONTINUOUS
 62
    64
 10
142.621189
 20
57.254711
 40
0.104978
 50
152.721967
 51
180.0
  0
LINE
  8
ボルト／ビス
  6
CONTINUOUS
 62
    64
 10
142.51621
 20
57.559425
 11
142.51621
 21
57.238675
  0
LINE
  8
ボルト／ビス
  6
CONTINUOUS
 62
    64
 10
142.527885
 20
57.2066
 11
142.649545
 21
57.2066
  0
LINE
  8
ボルト／ビス
  6
CONTINUOUS
 62
    64
 10
142.527885
 20
57.302825
 11
142.649545
 21
57.302825
  0
LINE
  8
ボルト／ビス
  6
CONTINUOUS
 62
    64
 10
142.527885
 20
57.5915
 11
142.649545
 21
57.5915
  0
LINE
  8
ボルト／ビス
  6
CONTINUOUS
 62
    64
 10
142.527885
 20
57.495275
 11
142.649545
 21
57.495275
  0
LINE
  8
ボルト／ビス
  6
CONTINUOUS
 10
142.649545
 20
57.5915
 11
142.649545
 21
57.2066
  0
LINE
  8
ボルト／ビス
  6
CONTINUOUS
 10
142.649545
 20
57.59905
 11
142.71621
 21
57.59905
  0
LINE
  8
ボルト／ビス
  6
CONTINUOUS
 10
142.649545
 20
57.59905
 11
142.649545
 21
57.19905
  0
LINE
  8
ボルト／ビス
  6
CONTINUOUS
 10
142.649545
 20
57.19905
 11
142.71621
 21
57.19905
  0
ENDBLK
  0
BLOCK
  2
*GRP_0033
 70
    65
 10
0.0
 20
0.0
  0
LINE
  8
ボルト／ビス
  6
CONTINUOUS
 10
53.949612
 20
-79.624597
 11
53.949612
 21
-79.157932
  0
LINE
  8
ボルト／ビス
  6
CONTINUOUS
 10
54.316278
 20
-79.624597
 11
54.316278
 21
-79.557932
  0
LINE
  8
ボルト／ビス
  6
CONTINUOUS
 10
54.316278
 20
-79.557932
 11
53.582945
 21
-79.557932
  0
LINE
  8
ボルト／ビス
  6
CONTINUOUS
 10
53.582945
 20
-79.557932
 11
53.582945
 21
-79.624597
  0
LINE
  8
ボルト／ビス
  6
CONTINUOUS
 10
54.316278
 20
-79.624597
 11
53.582945
 21
-79.624597
  0
LINE
  8
ボルト／ビス
  6
CONTINUOUS
 10
54.249612
 20
-79.524597
 11
54.249612
 21
-79.557932
  0
LINE
  8
ボルト／ビス
  6
CONTINUOUS
 10
54.249612
 20
-79.524597
 11
53.649612
 21
-79.524597
  0
LINE
  8
ボルト／ビス
  6
CONTINUOUS
 10
53.649612
 20
-79.524597
 11
53.649612
 21
-79.557932
  0
LINE
  8
ボルト／ビス
  6
CONTINUOUS
 62
    64
 10
54.109987
 20
-79.324597
 11
54.142063
 21
-79.336272
  0
ARC
  8
ボルト／ビス
  6
CONTINUOUS
 62
    64
 10
54.093949
 20
-79.429577
 40
0.104978
 50
90.0
 51
117.278033
  0
ARC
  8
ボルト／ビス
  6
CONTINUOUS
 62
    64
 10
53.949611
 20
-79.727001
 40
0.402402
 50
76.165015
 51
103.834998
  0
LINE
  8
ボルト／ビス
  6
CONTINUOUS
 62
    64
 10
53.789237
 20
-79.324597
 11
53.757163
 21
-79.336272
  0
ARC
  8
ボルト／ビス
  6
CONTINUOUS
 62
    64
 10
53.805274
 20
-79.429577
 40
0.104978
 50
62.721967
 51
90.0
  0
LINE
  8
ボルト／ビス
  6
CONTINUOUS
 62
    64
 10
54.109987
 20
-79.324597
 11
53.789237
 21
-79.324597
  0
LINE
  8
ボルト／ビス
  6
CONTINUOUS
 62
    64
 10
53.757163
 20
-79.336272
 11
53.757163
 21
-79.457932
  0
LINE
  8
ボルト／ビス
  6
CONTINUOUS
 62
    64
 10
53.853387
 20
-79.336272
 11
53.853387
 21
-79.457932
  0
LINE
  8
ボルト／ビス
  6
CONTINUOUS
 62
    64
 10
54.142063
 20
-79.336272
 11
54.142063
 21
-79.457932
  0
LINE
  8
ボルト／ビス
  6
CONTINUOUS
 62
    64
 10
54.045838
 20
-79.336272
 11
54.045838
 21
-79.457932
  0
LINE
  8
ボルト／ビス
  6
CONTINUOUS
 10
54.142063
 20
-79.457932
 11
53.757163
 21
-79.457932
  0
LINE
  8
ボルト／ビス
  6
CONTINUOUS
 10
54.149612
 20
-79.457932
 11
54.149612
 21
-79.524597
  0
LINE
  8
ボルト／ビス
  6
CONTINUOUS
 10
54.149612
 20
-79.457932
 11
53.749612
 21
-79.457932
  0
LINE
  8
ボルト／ビス
  6
CONTINUOUS
 10
53.749612
 20
-79.457932
 11
53.749612
 21
-79.524597
  0
ENDBLK
  0
BLOCK
  2
*GRP_0034
 70
    65
 10
0.0
 20
0.0
  0
LINE
  8
ボルト／ビス
  6
DOT
 10
53.949612
 20
-62.95793
 11
53.949612
 21
-62.491265
  0
LINE
  8
ボルト／ビス
  6
DOT
 10
54.316278
 20
-62.95793
 11
54.316278
 21
-62.891265
  0
LINE
  8
ボルト／ビス
  6
DOT
 10
54.316278
 20
-62.891265
 11
53.582945
 21
-62.891265
  0
LINE
  8
ボルト／ビス
  6
DOT
 10
53.582945
 20
-62.891265
 11
53.582945
 21
-62.95793
  0
LINE
  8
ボルト／ビス
  6
DOT
 10
54.316278
 20
-62.95793
 11
53.582945
 21
-62.95793
  0
LINE
  8
ボルト／ビス
  6
DOT
 10
54.249612
 20
-62.85793
 11
54.249612
 21
-62.891265
  0
LINE
  8
ボルト／ビス
  6
DOT
 10
54.249612
 20
-62.85793
 11
53.649612
 21
-62.85793
  0
LINE
  8
ボルト／ビス
  6
DOT
 10
53.649612
 20
-62.85793
 11
53.649612
 21
-62.891265
  0
LINE
  8
ボルト／ビス
  6
DOT
 62
    64
 10
54.109987
 20
-62.65793
 11
54.142063
 21
-62.669605
  0
ARC
  8
ボルト／ビス
  6
DOT
 62
    64
 10
54.093949
 20
-62.76291
 40
0.104978
 50
90.0
 51
117.278033
  0
ARC
  8
ボルト／ビス
  6
DOT
 62
    64
 10
53.949611
 20
-63.060334
 40
0.402402
 50
76.165015
 51
103.834998
  0
LINE
  8
ボルト／ビス
  6
DOT
 62
    64
 10
53.789237
 20
-62.65793
 11
53.757163
 21
-62.669605
  0
ARC
  8
ボルト／ビス
  6
DOT
 62
    64
 10
53.805274
 20
-62.76291
 40
0.104978
 50
62.721967
 51
90.0
  0
LINE
  8
ボルト／ビス
  6
DOT
 62
    64
 10
54.109987
 20
-62.65793
 11
53.789237
 21
-62.65793
  0
LINE
  8
ボルト／ビス
  6
DOT
 62
    64
 10
53.757163
 20
-62.669605
 11
53.757163
 21
-62.791265
  0
LINE
  8
ボルト／ビス
  6
DOT
 62
    64
 10
53.853387
 20
-62.669605
 11
53.853387
 21
-62.791265
  0
LINE
  8
ボルト／ビス
  6
DOT
 62
    64
 10
54.142063
 20
-62.669605
 11
54.142063
 21
-62.791265
  0
LINE
  8
ボルト／ビス
  6
DOT
 62
    64
 10
54.045838
 20
-62.669605
 11
54.045838
 21
-62.791265
  0
LINE
  8
ボルト／ビス
  6
DOT
 10
54.142063
 20
-62.791265
 11
53.757163
 21
-62.791265
  0
LINE
  8
ボルト／ビス
  6
DOT
 10
54.149612
 20
-62.791265
 11
54.149612
 21
-62.85793
  0
LINE
  8
ボルト／ビス
  6
DOT
 10
54.149612
 20
-62.791265
 11
53.749612
 21
-62.791265
  0
LINE
  8
ボルト／ビス
  6
DOT
 10
53.749612
 20
-62.791265
 11
53.749612
 21
-62.85793
  0
ENDBLK
  0
BLOCK
  2
*GRP_0035
 70
    65
 10
0.0
 20
0.0
  0
LINE
  8
ボルト／ビス
  6
CONTINUOUS
 10
-114.050388
 20
-79.624597
 11
-114.050388
 21
-79.157932
  0
LINE
  8
ボルト／ビス
  6
CONTINUOUS
 10
-114.417053
 20
-79.624597
 11
-114.417053
 21
-79.557932
  0
LINE
  8
ボルト／ビス
  6
CONTINUOUS
 10
-114.417053
 20
-79.557932
 11
-113.68372
 21
-79.557932
  0
LINE
  8
ボルト／ビス
  6
CONTINUOUS
 10
-113.68372
 20
-79.557932
 11
-113.68372
 21
-79.624597
  0
LINE
  8
ボルト／ビス
  6
CONTINUOUS
 10
-114.417053
 20
-79.624597
 11
-113.68372
 21
-79.624597
  0
LINE
  8
ボルト／ビス
  6
CONTINUOUS
 10
-114.350388
 20
-79.524597
 11
-114.350388
 21
-79.557932
  0
LINE
  8
ボルト／ビス
  6
CONTINUOUS
 10
-114.350388
 20
-79.524597
 11
-113.750388
 21
-79.524597
  0
LINE
  8
ボルト／ビス
  6
CONTINUOUS
 10
-113.750388
 20
-79.524597
 11
-113.750388
 21
-79.557932
  0
LINE
  8
ボルト／ビス
  6
CONTINUOUS
 62
    64
 10
-114.210762
 20
-79.324597
 11
-114.242838
 21
-79.336272
  0
ARC
  8
ボルト／ビス
  6
CONTINUOUS
 62
    64
 10
-114.194724
 20
-79.429577
 40
0.104978
 50
62.721967
 51
90.0
  0
ARC
  8
ボルト／ビス
  6
CONTINUOUS
 62
    64
 10
-114.050386
 20
-79.727001
 40
0.402402
 50
76.165002
 51
103.834985
  0
LINE
  8
ボルト／ビス
  6
CONTINUOUS
 62
    64
 10
-113.890013
 20
-79.324597
 11
-113.857938
 21
-79.336272
  0
ARC
  8
ボルト／ビス
  6
CONTINUOUS
 62
    64
 10
-113.906049
 20
-79.429577
 40
0.104978
 50
90.0
 51
117.278033
  0
LINE
  8
ボルト／ビス
  6
CONTINUOUS
 62
    64
 10
-114.210762
 20
-79.324597
 11
-113.890013
 21
-79.324597
  0
LINE
  8
ボルト／ビス
  6
CONTINUOUS
 62
    64
 10
-113.857938
 20
-79.336272
 11
-113.857938
 21
-79.457932
  0
LINE
  8
ボルト／ビス
  6
CONTINUOUS
 62
    64
 10
-113.954162
 20
-79.336272
 11
-113.954162
 21
-79.457932
  0
LINE
  8
ボルト／ビス
  6
CONTINUOUS
 62
    64
 10
-114.242838
 20
-79.336272
 11
-114.242838
 21
-79.457932
  0
LINE
  8
ボルト／ビス
  6
CONTINUOUS
 62
    64
 10
-114.146612
 20
-79.336272
 11
-114.146612
 21
-79.457932
  0
LINE
  8
ボルト／ビス
  6
CONTINUOUS
 10
-114.242838
 20
-79.457932
 11
-113.857938
 21
-79.457932
  0
LINE
  8
ボルト／ビス
  6
CONTINUOUS
 10
-114.250388
 20
-79.457932
 11
-114.250388
 21
-79.524597
  0
LINE
  8
ボルト／ビス
  6
CONTINUOUS
 10
-114.250388
 20
-79.457932
 11
-113.850388
 21
-79.457932
  0
LINE
  8
ボルト／ビス
  6
CONTINUOUS
 10
-113.850388
 20
-79.457932
 11
-113.850388
 21
-79.524597
  0
ENDBLK
  0
BLOCK
  2
*GRP_0036
 70
    65
 10
0.0
 20
0.0
  0
LINE
  8
ボルト／ビス
  6
DOT
 10
-114.050388
 20
-62.95793
 11
-114.050388
 21
-62.491265
  0
LINE
  8
ボルト／ビス
  6
DOT
 10
-114.417053
 20
-62.95793
 11
-114.417053
 21
-62.891265
  0
LINE
  8
ボルト／ビス
  6
DOT
 10
-114.417053
 20
-62.891265
 11
-113.68372
 21
-62.891265
  0
LINE
  8
ボルト／ビス
  6
DOT
 10
-113.68372
 20
-62.891265
 11
-113.68372
 21
-62.95793
  0
LINE
  8
ボルト／ビス
  6
DOT
 10
-114.417053
 20
-62.95793
 11
-113.68372
 21
-62.95793
  0
LINE
  8
ボルト／ビス
  6
DOT
 10
-114.350388
 20
-62.85793
 11
-114.350388
 21
-62.891265
  0
LINE
  8
ボルト／ビス
  6
DOT
 10
-114.350388
 20
-62.85793
 11
-113.750388
 21
-62.85793
  0
LINE
  8
ボルト／ビス
  6
DOT
 10
-113.750388
 20
-62.85793
 11
-113.750388
 21
-62.891265
  0
LINE
  8
ボルト／ビス
  6
DOT
 62
    64
 10
-114.210762
 20
-62.65793
 11
-114.242838
 21
-62.669605
  0
ARC
  8
ボルト／ビス
  6
DOT
 62
    64
 10
-114.194724
 20
-62.76291
 40
0.104978
 50
62.721967
 51
90.0
  0
ARC
  8
ボルト／ビス
  6
DOT
 62
    64
 10
-114.050386
 20
-63.060334
 40
0.402402
 50
76.165002
 51
103.834985
  0
LINE
  8
ボルト／ビス
  6
DOT
 62
    64
 10
-113.890013
 20
-62.65793
 11
-113.857938
 21
-62.669605
  0
ARC
  8
ボルト／ビス
  6
DOT
 62
    64
 10
-113.906049
 20
-62.76291
 40
0.104978
 50
90.0
 51
117.278033
  0
LINE
  8
ボルト／ビス
  6
DOT
 62
    64
 10
-114.210762
 20
-62.65793
 11
-113.890013
 21
-62.65793
  0
LINE
  8
ボルト／ビス
  6
DOT
 62
    64
 10
-113.857938
 20
-62.669605
 11
-113.857938
 21
-62.791265
  0
LINE
  8
ボルト／ビス
  6
DOT
 62
    64
 10
-113.954162
 20
-62.669605
 11
-113.954162
 21
-62.791265
  0
LINE
  8
ボルト／ビス
  6
DOT
 62
    64
 10
-114.242838
 20
-62.669605
 11
-114.242838
 21
-62.791265
  0
LINE
  8
ボルト／ビス
  6
DOT
 62
    64
 10
-114.146612
 20
-62.669605
 11
-114.146612
 21
-62.791265
  0
LINE
  8
ボルト／ビス
  6
DOT
 10
-114.242838
 20
-62.791265
 11
-113.857938
 21
-62.791265
  0
LINE
  8
ボルト／ビス
  6
DOT
 10
-114.250388
 20
-62.791265
 11
-114.250388
 21
-62.85793
  0
LINE
  8
ボルト／ビス
  6
DOT
 10
-114.250388
 20
-62.791265
 11
-113.850388
 21
-62.791265
  0
LINE
  8
ボルト／ビス
  6
DOT
 10
-113.850388
 20
-62.791265
 11
-113.850388
 21
-62.85793
  0
ENDBLK
  0
BLOCK
  2
*DIM_0037
 70
    65
 10
0.0
 20
0.0
  0
LINE
  8
寸法
  6
BYBLOCK
 62
     0
 10
34.616278
 20
-51.291262
 11
74.903125
 21
-51.291262
  0
LINE
  8
寸法
  6
BYBLOCK
 62
     0
 10
74.903125
 20
-67.95793
 11
74.903125
 21
-51.291262
  0
POINT
  8
寸法
 62
     0
 10
74.903125
 20
-51.291262
  0
TEXT
  7
TextStyle03
  8
寸法
  6
CONTINUOUS
 62
     0
 10
74.35
 20
-49.0625
  1
上昇高さ500
 40
3.0
 50
90.0
 72
     5
 11
74.35
 21
-30.6875
  0
ENDBLK
  0
ENDSEC
  0
SECTION
  2
ENTITIES
  0
POLYLINE
  8
通り芯
  6
CONTINUOUS
 66
     1
 70
     1
  0
VERTEX
  8
通り芯
 10
-210.0
 20
-148.5
  0
VERTEX
  8
通り芯
 10
210.0
 20
-148.5
  0
VERTEX
  8
通り芯
 10
210.0
 20
148.5
  0
VERTEX
  8
通り芯
 10
-210.0
 20
148.5
  0
SEQEND
  0
INSERT
  2
*GRP_0001
  8
型材断面
  6
CONTINUOUS
 10
0.0
 20
0.0
  0
LINE
  8
型材断面
  6
DASHDOT
 10
53.282945
 20
-87.251428
 11
53.282945
 21
56.73238
  0
LINE
  8
型材断面
  6
DASHDOT
 10
-30.050388
 20
-87.251428
 11
-30.050388
 21
56.73238
  0
LINE
  8
型材断面
  6
DASHDOT
 10
-113.383723
 20
-87.251428
 11
-113.383723
 21
56.73238
  0
LINE
  8
型材断面
  6
DASHDOT
 10
150.959707
 20
56.73238
 11
-113.383723
 21
56.73238
  0
LINE
  8
型材断面
  6
DASHDOT
 10
150.959707
 20
35.065715
 11
-113.383723
 21
35.065715
  0
LINE
  8
型材断面
  6
DASHDOT
 10
150.959707
 20
13.399048
 11
-113.383723
 21
13.399048
  0
POLYLINE
  8
型材断面
  6
CONTINUOUS
 66
     1
 70
     1
  0
VERTEX
  8
型材断面
 10
-20.921443
 20
66.508305
  0
VERTEX
  8
型材断面
 10
-39.693372
 20
66.508305
  0
VERTEX
  8
型材断面
 10
-39.693372
 20
71.245147
  0
VERTEX
  8
型材断面
 10
-20.921443
 20
71.245147
  0
SEQEND
  0
POLYLINE
  8
型材断面
  6
CONTINUOUS
 66
     1
 70
     1
  0
VERTEX
  8
型材断面
 10
-20.921443
 20
3.623125
  0
VERTEX
  8
型材断面
 10
-39.693372
 20
3.623125
  0
VERTEX
  8
型材断面
 10
-39.693372
 20
-1.113717
  0
VERTEX
  8
型材断面
 10
-20.921443
 20
-1.113717
  0
SEQEND
  0
LINE
  8
型材断面
  6
CONTINUOUS
 10
-116.013853
 20
35.065715
 11
-118.60436
 21
36.561345
  0
LINE
  8
型材断面
  6
CONTINUOUS
 10
-116.013853
 20
35.065715
 11
-118.60436
 21
33.570085
  0
LINE
  8
型材断面
  6
CONTINUOUS
 10
-118.60436
 20
33.570085
 11
-118.60436
 21
36.561345
  0
LINE
  8
型材断面
  6
CONTINUOUS
 10
-96.717055
 20
59.36251
 11
-98.212685
 21
61.953017
  0
LINE
  8
型材断面
  6
CONTINUOUS
 10
-96.717055
 20
59.36251
 11
-95.221425
 21
61.953017
  0
LINE
  8
型材断面
  6
CONTINUOUS
 10
-95.221425
 20
61.953017
 11
-98.212685
 21
61.953017
  0
LINE
  8
型材断面
  6
CONTINUOUS
 10
-154.23593
 20
94.709852
 11
-153.639875
 21
92.119345
  0
LINE
  8
型材断面
  6
CONTINUOUS
 10
-154.23593
 20
94.709852
 11
-154.831988
 21
92.119345
  0
LINE
  8
型材断面
  6
CONTINUOUS
 10
-154.831988
 20
92.119345
 11
-153.639875
 21
92.119345
  0
LINE
  8
型材断面
  6
CONTINUOUS
 10
-160.258518
 20
88.840452
 11
-114.01674
 21
88.840452
  0
LINE
  8
型材断面
  6
CONTINUOUS
 10
-154.23593
 20
101.239727
 11
-155.73156
 21
98.64922
  0
LINE
  8
型材断面
  6
CONTINUOUS
 10
-154.23593
 20
101.239727
 11
-152.7403
 21
98.64922
  0
LINE
  8
型材断面
  6
CONTINUOUS
 10
-152.7403
 20
98.64922
 11
-155.73156
 21
98.64922
  0
LINE
  8
型材断面
  6
CONTINUOUS
 10
-160.258518
 20
97.710625
 11
-114.01674
 21
97.710625
  0
LINE
  8
型材断面
  6
CONTINUOUS
 10
-160.258518
 20
83.05242
 11
-114.01674
 21
83.05242
  0
LINE
  8
型材断面
  6
CONTINUOUS
 10
-96.717055
 20
10.76892
 11
-98.212685
 21
8.178413
  0
LINE
  8
型材断面
  6
CONTINUOUS
 10
-96.717055
 20
10.76892
 11
-95.221425
 21
8.178413
  0
LINE
  8
型材断面
  6
CONTINUOUS
 10
-95.221425
 20
8.178413
 11
-98.212685
 21
8.178413
  0
LINE
  8
型材断面
  6
CONTINUOUS
 10
55.913077
 20
35.065715
 11
58.503585
 21
36.561345
  0
LINE
  8
型材断面
  6
CONTINUOUS
 10
55.913077
 20
35.065715
 11
58.503585
 21
33.570085
  0
LINE
  8
型材断面
  6
CONTINUOUS
 10
58.503585
 20
33.570085
 11
58.503585
 21
36.561345
  0
LINE
  8
型材断面
  6
CONTINUOUS
 10
36.61628
 20
59.36251
 11
38.11191
 21
61.953017
  0
LINE
  8
型材断面
  6
CONTINUOUS
 10
36.61628
 20
59.36251
 11
35.12065
 21
61.953017
  0
LINE
  8
型材断面
  6
CONTINUOUS
 10
35.12065
 20
61.953017
 11
38.11191
 21
61.953017
  0
LINE
  8
型材断面
  6
CONTINUOUS
 10
36.61628
 20
10.76892
 11
38.11191
 21
8.178413
  0
LINE
  8
型材断面
  6
CONTINUOUS
 10
36.61628
 20
10.76892
 11
35.12065
 21
8.178413
  0
LINE
  8
型材断面
  6
CONTINUOUS
 10
35.12065
 20
8.178413
 11
38.11191
 21
8.178413
  0
LINE
  8
型材断面
  6
CONTINUOUS
 10
-30.050388
 20
59.36251
 11
-31.546018
 21
61.953017
  0
LINE
  8
型材断面
  6
CONTINUOUS
 10
-30.050388
 20
59.36251
 11
-28.554757
 21
61.953017
  0
LINE
  8
型材断面
  6
CONTINUOUS
 10
-28.554757
 20
61.953017
 11
-31.546018
 21
61.953017
  0
LINE
  8
型材断面
  6
CONTINUOUS
 10
-30.050388
 20
10.76892
 11
-31.546018
 21
8.178413
  0
LINE
  8
型材断面
  6
CONTINUOUS
 10
-30.050388
 20
10.76892
 11
-28.554757
 21
8.178413
  0
LINE
  8
型材断面
  6
CONTINUOUS
 10
-28.554757
 20
8.178413
 11
-31.546018
 21
8.178413
  0
LINE
  8
型材断面
  6
CONTINUOUS
 10
55.913075
 20
53.032382
 11
58.503585
 21
52.43633
  0
LINE
  8
型材断面
  6
CONTINUOUS
 10
55.913075
 20
53.032382
 11
58.503583
 21
53.628442
  0
LINE
  8
型材断面
  6
CONTINUOUS
 10
58.503583
 20
53.628442
 11
58.503585
 21
52.43633
  0
LINE
  8
型材断面
  6
CONTINUOUS
 10
55.913075
 20
17.099048
 11
58.503585
 21
17.6951
  0
LINE
  8
型材断面
  6
CONTINUOUS
 10
55.913075
 20
17.099048
 11
58.503583
 21
16.502988
  0
LINE
  8
型材断面
  6
CONTINUOUS
 10
58.503583
 20
16.502988
 11
58.503585
 21
17.6951
  0
LINE
  8
型材断面
  6
CONTINUOUS
 10
-116.01385
 20
53.032382
 11
-118.60436
 21
52.43633
  0
LINE
  8
型材断面
  6
CONTINUOUS
 10
-116.01385
 20
53.032382
 11
-118.604357
 21
53.628442
  0
LINE
  8
型材断面
  6
CONTINUOUS
 10
-118.604357
 20
53.628442
 11
-118.60436
 21
52.43633
  0
LINE
  8
型材断面
  6
CONTINUOUS
 10
-116.01385
 20
17.099048
 11
-118.60436
 21
17.6951
  0
LINE
  8
型材断面
  6
CONTINUOUS
 10
-116.01385
 20
17.099048
 11
-118.604357
 21
16.502988
  0
LINE
  8
型材断面
  6
CONTINUOUS
 10
-118.604357
 20
16.502988
 11
-118.60436
 21
17.6951
  0
INSERT
  2
*GRP_0013
  8
型材断面
  6
CONTINUOUS
 10
0.0
 20
0.0
  0
INSERT
  2
*GRP_0014
  8
型材断面
  6
CONTINUOUS
 10
0.0
 20
0.0
  0
INSERT
  2
*GRP_0015
  8
型材断面
  6
CONTINUOUS
 10
0.0
 20
0.0
  0
INSERT
  2
*GRP_0016
  8
型材断面
  6
CONTINUOUS
 10
0.0
 20
0.0
  0
LINE
  8
型材断面
  6
CONTINUOUS
 62
    47
 10
150.349712
 20
11.915715
 11
149.849712
 21
11.915715
  0
LINE
  8
型材断面
  6
CONTINUOUS
 62
    47
 10
149.849712
 20
11.415715
 11
146.533045
 21
11.415715
  0
LINE
  8
型材断面
  6
CONTINUOUS
 62
    47
 10
144.192995
 20
11.415715
 11
146.366328
 21
11.415715
  0
LINE
  8
型材断面
  6
CONTINUOUS
 62
    47
 10
144.192995
 20
12.299048
 11
143.81621
 21
12.299048
  0
LINE
  8
型材断面
  6
CONTINUOUS
 62
    47
 10
144.192995
 20
11.415715
 11
144.192995
 21
35.065715
  0
LINE
  8
型材断面
  6
CONTINUOUS
 62
    47
 10
146.533045
 20
11.415715
 11
146.532998
 21
35.065715
  0
LINE
  8
型材断面
  6
CONTINUOUS
 62
    47
 10
146.366328
 20
11.415715
 11
146.366328
 21
35.065715
  0
LINE
  8
型材断面
  6
CONTINUOUS
 62
    47
 10
150.349712
 20
11.915715
 11
150.349712
 21
35.065715
  0
LINE
  8
型材断面
  6
CONTINUOUS
 62
    47
 10
149.849712
 20
11.415715
 11
149.849712
 21
35.065715
  0
LINE
  8
型材断面
  6
CONTINUOUS
 62
    47
 10
150.349712
 20
58.215715
 11
149.849712
 21
58.215715
  0
LINE
  8
型材断面
  6
CONTINUOUS
 62
    47
 10
149.849712
 20
58.715715
 11
146.533045
 21
58.715715
  0
LINE
  8
型材断面
  6
CONTINUOUS
 62
    47
 10
144.192995
 20
58.715715
 11
146.366328
 21
58.715715
  0
LINE
  8
型材断面
  6
CONTINUOUS
 62
    47
 10
144.192995
 20
57.832382
 11
143.81621
 21
57.832382
  0
LINE
  8
型材断面
  6
CONTINUOUS
 62
    47
 10
144.192995
 20
58.715715
 11
144.192995
 21
35.065715
  0
LINE
  8
型材断面
  6
CONTINUOUS
 62
    47
 10
146.533045
 20
58.715715
 11
146.532998
 21
35.065715
  0
LINE
  8
型材断面
  6
CONTINUOUS
 62
    47
 10
146.366328
 20
58.715715
 11
146.366328
 21
35.065715
  0
LINE
  8
型材断面
  6
CONTINUOUS
 62
    47
 10
150.349712
 20
58.215715
 11
150.349712
 21
35.065715
  0
LINE
  8
型材断面
  6
CONTINUOUS
 62
    47
 10
149.849712
 20
58.715715
 11
149.849712
 21
35.065715
  0
LINE
  8
型材断面
  6
CONTINUOUS
 62
    47
 10
54.76628
 20
-87.1581
 11
54.76628
 21
-86.6581
  0
LINE
  8
型材断面
  6
CONTINUOUS
 62
    47
 10
55.26628
 20
-86.6581
 11
55.26628
 21
-83.341432
  0
LINE
  8
型材断面
  6
CONTINUOUS
 62
    47
 10
55.26628
 20
-81.001383
 11
55.26628
 21
-83.174715
  0
LINE
  8
型材断面
  6
CONTINUOUS
 62
    47
 10
54.382948
 20
-81.001383
 11
54.382948
 21
-80.624597
  0
LINE
  8
型材断面
  6
CONTINUOUS
 62
    47
 10
54.76628
 20
-87.1581
 11
-30.050388
 21
-87.1581
  0
LINE
  8
型材断面
  6
CONTINUOUS
 62
    47
 10
55.26628
 20
-86.6581
 11
-30.050388
 21
-86.6581
  0
LINE
  8
型材断面
  6
CONTINUOUS
 62
    47
 10
55.26628
 20
-83.341432
 11
-30.050388
 21
-83.341273
  0
LINE
  8
型材断面
  6
CONTINUOUS
 62
    47
 10
55.26628
 20
-83.174715
 11
-30.050388
 21
-83.174715
  0
LINE
  8
型材断面
  6
CONTINUOUS
 62
    47
 10
55.26628
 20
-81.001383
 11
-30.050388
 21
-81.001383
  0
LINE
  8
型材断面
  6
CONTINUOUS
 62
    47
 10
-114.867055
 20
-87.1581
 11
-114.867055
 21
-86.6581
  0
LINE
  8
型材断面
  6
CONTINUOUS
 62
    47
 10
-115.367055
 20
-86.6581
 11
-115.367055
 21
-83.341432
  0
LINE
  8
型材断面
  6
CONTINUOUS
 62
    47
 10
-115.367055
 20
-81.001383
 11
-115.367055
 21
-83.174715
  0
LINE
  8
型材断面
  6
CONTINUOUS
 62
    47
 10
-114.483723
 20
-81.001383
 11
-114.483723
 21
-80.624597
  0
LINE
  8
型材断面
  6
CONTINUOUS
 62
    47
 10
-114.867055
 20
-87.1581
 11
-30.050388
 21
-87.1581
  0
LINE
  8
型材断面
  6
CONTINUOUS
 62
    47
 10
-115.367055
 20
-86.6581
 11
-30.050388
 21
-86.6581
  0
LINE
  8
型材断面
  6
CONTINUOUS
 62
    47
 10
-115.367055
 20
-83.341432
 11
-30.050388
 21
-83.341273
  0
LINE
  8
型材断面
  6
CONTINUOUS
 62
    47
 10
-115.367055
 20
-83.174715
 11
-30.050388
 21
-83.174715
  0
LINE
  8
型材断面
  6
CONTINUOUS
 62
    47
 10
-115.367055
 20
-81.001383
 11
-30.050388
 21
-81.001383
  0
LINE
  8
型材断面
  6
CONTINUOUS
 10
-160.258518
 20
77.264387
 11
-114.01674
 21
77.264387
  0
LINE
  8
型材断面
  6
DASHDOT
 10
-80.170388
 20
13.399048
 11
-80.170388
 21
56.73238
  0
LINE
  8
型材断面
  6
DOT
 10
-81.420388
 20
56.73238
 11
-81.420388
 21
13.399048
  0
LINE
  8
型材断面
  6
DOT
 10
-78.920388
 20
56.73238
 11
-78.920388
 21
13.399048
  0
LINE
  8
型材断面
  6
DASHDOT
 10
-46.757053
 20
13.399048
 11
-46.757053
 21
56.73238
  0
LINE
  8
型材断面
  6
DOT
 10
-48.007053
 20
56.73238
 11
-48.007053
 21
13.399048
  0
LINE
  8
型材断面
  6
DOT
 10
-45.507053
 20
56.73238
 11
-45.507053
 21
13.399048
  0
LINE
  8
型材断面
  6
DASHDOT
 10
20.069613
 20
13.399048
 11
20.069613
 21
56.73238
  0
LINE
  8
型材断面
  6
DOT
 10
21.319613
 20
56.73238
 11
21.319613
 21
13.399048
  0
LINE
  8
型材断面
  6
DOT
 10
18.819613
 20
56.73238
 11
18.819613
 21
13.399048
  0
LINE
  8
型材断面
  6
DASHDOT
 10
-13.343722
 20
13.399048
 11
-13.343722
 21
56.73238
  0
LINE
  8
型材断面
  6
DOT
 10
-12.093722
 20
56.73238
 11
-12.093722
 21
13.399048
  0
LINE
  8
型材断面
  6
DOT
 10
-14.593722
 20
56.73238
 11
-14.593722
 21
13.399048
  0
TEXT
  7
TextStyle03
  8
文字
  6
CONTINUOUS
 10
129.825
 20
-86.1
  1
網入り6.8t
 40
3.0
 72
     5
 11
146.5125
 21
-86.1
  0
TEXT
  7
TextStyle03
  8
文字
  6
CONTINUOUS
 10
136.5
 20
-90.775
  1
×５枚
 40
3.0
 72
     5
 11
146.25
 21
-90.775
  0
TEXT
  7
TextStyle03
  8
文字
  6
CONTINUOUS
 10
-38.6
 20
67.2
  1
可動装置側
 40
3.0
 72
     5
 11
-22.1
 21
67.2
  0
TEXT
  7
TextStyle03
  8
文字
  6
CONTINUOUS
 10
-38.6
 20
-0.075
  1
可動装置側
 40
3.0
 72
     5
 11
-22.1
 21
-0.075
  0
TEXT
  7
TextStyle03
  8
文字
  6
CONTINUOUS
 10
-151.425
 20
93.325
  1
はケーシング位置を示す
 40
3.0
 72
     5
 11
-114.675
 21
93.325
  0
TEXT
  7
TextStyle03
  8
文字
  6
CONTINUOUS
 10
-151.425
 20
89.95
  1
４ヶ所中1ヶ所に設定
 40
3.0
 72
     5
 11
-119.7375
 21
89.95
  0
TEXT
  7
TextStyle03
  8
文字
  6
CONTINUOUS
 10
-151.425
 20
98.85
  1
は排水穴位置を示す
 40
3.0
 72
     5
 11
-121.425
 21
98.85
  0
TEXT
  7
TextStyle03
  8
文字
  6
CONTINUOUS
 10
-150.85
 20
23.975
  1
アンカーピッチ
 40
3.0
 50
90.0
 72
     5
 11
-150.85
 21
47.225
  0
TEXT
  7
TextStyle03
  8
文字
  6
CONTINUOUS
 10
-102.65
 20
94.175
  1
アンカーピッチ
 40
3.0
 72
     5
 11
-79.4
 21
94.175
  0
TEXT
  7
TextStyle03
  8
文字
  6
CONTINUOUS
 10
-155.15
 20
83.975
  1
アンカー数量　１８ヶ所
 40
3.0
 72
     5
 11
-118.4
 21
83.975
  0
TEXT
  7
TextStyle03
  8
文字
  6
CONTINUOUS
 10
-160.15
 20
73.25
  1
※重量に依るのでご相談ください
 40
3.0
 72
     5
 11
-109.9
 21
73.25
  0
TEXT
  7
TextStyle03
  8
文字
  6
CONTINUOUS
 10
-160.15
 20
78.2
  1
アームユニット数　※４～６ヶ所
 40
3.0
 72
     5
 11
-109.9
 21
78.2
  0
TEXT
  7
TextStyle03
  8
文字
  6
CONTINUOUS
 10
78.1
 20
125.25
  1
シリーズ：ＴＤ２Ｌ
 40
5.0
 72
     5
 11
128.1
 21
125.25
  0
TEXT
  7
TextStyle03
  8
文字
  6
CONTINUOUS
 10
78.1
 20
119.625
  1
　　　　　（上下可動）1300×5000タイプ
 40
5.0
 72
     5
 11
184.35
 21
119.625
  0
TEXT
  7
TextStyle03
  8
文字
  6
CONTINUOUS
 10
78.1
 20
114.0
  1
図面名　：外観姿図
 40
5.0
 72
     5
 11
128.1
 21
114.0
  0
TEXT
  7
TextStyle03
  8
文字
  6
CONTINUOUS
 10
78.1
 20
108.375
  1
　　　　　　
 40
5.0
 72
     5
 11
111.225
 21
108.375
  0
TEXT
  7
TextStyle03
  8
文字
  6
CONTINUOUS
 10
77.125
 20
103.95
  1
ＮＳコード：ＮＳＤＺＬ
 40
5.0
 72
     5
 11
138.375
 21
103.95
  0
INSERT
  2
*DIM_0002
  8
寸法
  6
CONTINUOUS
 10
0.0
 20
0.0
  0
INSERT
  2
*DIM_0003
  8
寸法
  6
CONTINUOUS
 10
0.0
 20
0.0
  0
INSERT
  2
*DIM_0004
  8
寸法
  6
CONTINUOUS
 10
0.0
 20
0.0
  0
INSERT
  2
*DIM_0005
  8
寸法
  6
CONTINUOUS
 10
0.0
 20
0.0
  0
INSERT
  2
*DIM_0006
  8
寸法
  6
CONTINUOUS
 10
0.0
 20
0.0
  0
INSERT
  2
*DIM_0007
  8
寸法
  6
CONTINUOUS
 10
0.0
 20
0.0
  0
INSERT
  2
*DIM_0008
  8
寸法
  6
CONTINUOUS
 10
0.0
 20
0.0
  0
INSERT
  2
*DIM_0009
  8
寸法
  6
CONTINUOUS
 10
0.0
 20
0.0
  0
INSERT
  2
*DIM_0010
  8
寸法
  6
CONTINUOUS
 10
0.0
 20
0.0
  0
INSERT
  2
*DIM_0012
  8
寸法
  6
CONTINUOUS
 10
0.0
 20
0.0
  0
INSERT
  2
*DIM_0017
  8
寸法
  6
CONTINUOUS
 10
0.0
 20
0.0
  0
INSERT
  2
*DIM_0018
  8
寸法
  6
CONTINUOUS
 10
0.0
 20
0.0
  0
INSERT
  2
*DIM_0019
  8
寸法
  6
CONTINUOUS
 10
0.0
 20
0.0
  0
INSERT
  2
*DIM_0020
  8
寸法
  6
CONTINUOUS
 10
0.0
 20
0.0
  0
INSERT
  2
*DIM_0021
  8
寸法
  6
CONTINUOUS
 10
0.0
 20
0.0
  0
INSERT
  2
*DIM_0022
  8
寸法
  6
CONTINUOUS
 10
0.0
 20
0.0
  0
INSERT
  2
*DIM_0023
  8
寸法
  6
CONTINUOUS
 10
0.0
 20
0.0
  0
INSERT
  2
*DIM_0024
  8
寸法
  6
CONTINUOUS
 10
0.0
 20
0.0
  0
INSERT
  2
*DIM_0025
  8
寸法
  6
CONTINUOUS
 10
0.0
 20
0.0
  0
INSERT
  2
*DIM_0026
  8
寸法
  6
CONTINUOUS
 10
0.0
 20
0.0
  0
INSERT
  2
*DIM_0027
  8
寸法
  6
CONTINUOUS
 10
0.0
 20
0.0
  0
INSERT
  2
*DIM_0028
  8
寸法
  6
CONTINUOUS
 10
0.0
 20
0.0
  0
INSERT
  2
*DIM_0029
  8
寸法
  6
CONTINUOUS
 10
0.0
 20
0.0
  0
INSERT
  2
*DIM_0037
  8
寸法
  6
CONTINUOUS
 10
0.0
 20
0.0
  0
LINE
  8
別途部材
  6
CONTINUOUS
 62
    96
 10
142.81621
 20
11.73238
 11
143.81621
 21
11.33238
  0
LINE
  8
別途部材
  6
CONTINUOUS
 10
143.81621
 20
11.33238
 11
143.81621
 21
35.065715
  0
LINE
  8
別途部材
  6
CONTINUOUS
 62
    96
 10
142.81621
 20
11.73238
 11
142.81621
 21
35.065715
  0
LINE
  8
別途部材
  6
CONTINUOUS
 62
    96
 10
142.81621
 20
58.39905
 11
143.81621
 21
58.79905
  0
LINE
  8
別途部材
  6
CONTINUOUS
 10
143.81621
 20
58.79905
 11
143.81621
 21
35.065715
  0
LINE
  8
別途部材
  6
CONTINUOUS
 62
    96
 10
142.81621
 20
58.39905
 11
142.81621
 21
35.065715
  0
ARC
  8
別途部材
  6
CONTINUOUS
 10
157.101922
 20
35.065713
 40
25.95238
 50
123.398485
 51
236.601515
  0
LINE
  8
別途部材
  6
CONTINUOUS
 10
55.349612
 20
58.79905
 11
54.949612
 21
58.39905
  0
LINE
  8
別途部材
  6
CONTINUOUS
 10
53.282945
 20
56.732382
 11
45.22369
 21
48.673125
  0
LINE
  8
別途部材
  6
CONTINUOUS
 10
54.949612
 20
58.39905
 11
54.949612
 21
35.065715
  0
LINE
  8
別途部材
  6
CONTINUOUS
 10
55.349612
 20
58.79905
 11
55.349612
 21
35.065715
  0
LINE
  8
別途部材
  6
CONTINUOUS
 10
55.349612
 20
58.79905
 11
-30.050388
 21
58.79905
  0
LINE
  8
別途部材
  6
CONTINUOUS
 10
54.949612
 20
58.39905
 11
-30.050388
 21
58.39905
  0
LINE
  8
別途部材
  6
CONTINUOUS
 10
55.349612
 20
11.33238
 11
54.949612
 21
11.73238
  0
LINE
  8
別途部材
  6
CONTINUOUS
 10
53.282945
 20
13.399048
 11
45.22369
 21
21.458305
  0
LINE
  8
別途部材
  6
CONTINUOUS
 10
54.949612
 20
11.73238
 11
54.949612
 21
35.065715
  0
LINE
  8
別途部材
  6
CONTINUOUS
 10
55.349612
 20
11.33238
 11
55.349612
 21
35.065715
  0
LINE
  8
別途部材
  6
CONTINUOUS
 10
55.349612
 20
11.33238
 11
-30.050388
 21
11.33238
  0
LINE
  8
別途部材
  6
CONTINUOUS
 10
54.949612
 20
11.73238
 11
-30.050388
 21
11.73238
  0
LINE
  8
別途部材
  6
CONTINUOUS
 10
-115.450388
 20
11.33238
 11
-115.050388
 21
11.73238
  0
LINE
  8
別途部材
  6
CONTINUOUS
 10
-113.38372
 20
13.399048
 11
-105.324465
 21
21.458305
  0
LINE
  8
別途部材
  6
CONTINUOUS
 10
-115.050388
 20
11.73238
 11
-115.050388
 21
35.065715
  0
LINE
  8
別途部材
  6
CONTINUOUS
 10
-115.450388
 20
11.33238
 11
-115.450388
 21
35.065715
  0
LINE
  8
別途部材
  6
CONTINUOUS
 10
-115.450388
 20
11.33238
 11
-30.050388
 21
11.33238
  0
LINE
  8
別途部材
  6
CONTINUOUS
 10
-115.050388
 20
11.73238
 11
-30.050388
 21
11.73238
  0
LINE
  8
別途部材
  6
CONTINUOUS
 10
-115.450388
 20
58.79905
 11
-115.050388
 21
58.39905
  0
LINE
  8
別途部材
  6
CONTINUOUS
 10
-113.38372
 20
56.732382
 11
-105.324465
 21
48.673125
  0
LINE
  8
別途部材
  6
CONTINUOUS
 10
-115.050388
 20
58.39905
 11
-115.050388
 21
35.065715
  0
LINE
  8
別途部材
  6
CONTINUOUS
 10
-115.450388
 20
58.79905
 11
-115.450388
 21
35.065715
  0
LINE
  8
別途部材
  6
CONTINUOUS
 10
-115.450388
 20
58.79905
 11
-30.050388
 21
58.79905
  0
LINE
  8
別途部材
  6
CONTINUOUS
 10
-115.050388
 20
58.39905
 11
-30.050388
 21
58.39905
  0
LINE
  8
別途部材
  6
DOT
 62
    96
 10
54.949612
 20
-62.95793
 11
55.349612
 21
-63.95793
  0
ARC
  8
別途部材
  6
DOT
 10
31.616277
 20
-77.243645
 40
25.952382
 50
33.398488
 51
90.0
  0
LINE
  8
別途部材
  6
DOT
 10
31.616278
 20
-51.291262
 11
-30.050388
 21
-51.291262
  0
LINE
  8
別途部材
  6
DOT
 62
    96
 10
54.949612
 20
-62.95793
 11
-30.050388
 21
-62.95793
  0
LINE
  8
別途部材
  6
DOT
 10
55.349612
 20
-63.95793
 11
-30.050388
 21
-63.95793
  0
LINE
  8
別途部材
  6
DOT
 62
    96
 10
-115.050388
 20
-62.95793
 11
-115.450388
 21
-63.95793
  0
ARC
  8
別途部材
  6
DOT
 10
-91.717053
 20
-77.243645
 40
25.952382
 50
90.0
 51
146.601512
  0
LINE
  8
別途部材
  6
DOT
 10
-91.717053
 20
-51.291262
 11
-30.050388
 21
-51.291262
  0
LINE
  8
別途部材
  6
DOT
 62
    96
 10
-115.050388
 20
-62.95793
 11
-30.050388
 21
-62.95793
  0
LINE
  8
別途部材
  6
DOT
 10
-115.450388
 20
-63.95793
 11
-30.050388
 21
-63.95793
  0
INSERT
  2
*GRP_0011
  8
別途部材
  6
CONTINUOUS
 10
0.0
 20
0.0
  0
INSERT
  2
*GRP_0031
  8
別途部材
  6
DOT
 10
0.0
 20
0.0
  0
INSERT
  2
*GRP_0032
  8
別途部材
  6
DOT
 10
0.0
 20
0.0
  0
INSERT
  2
*GRP_0033
  8
別途部材
  6
DOT
 10
0.0
 20
0.0
  0
INSERT
  2
*GRP_0034
  8
別途部材
  6
DOT
 10
0.0
 20
0.0
  0
INSERT
  2
*GRP_0035
  8
別途部材
  6
DOT
 10
0.0
 20
0.0
  0
INSERT
  2
*GRP_0036
  8
別途部材
  6
DOT
 10
0.0
 20
0.0
  0
LINE
  8
曲げ物
  6
CONTINUOUS
 10
148.3695
 20
-92.533713
 11
148.3695
 21
-49.867045
  0
LINE
  8
曲げ物
  6
CONTINUOUS
 10
116.022833
 20
-92.533713
 11
116.022833
 21
-49.867045
  0
LINE
  8
曲げ物
  6
CONTINUOUS
 10
148.3695
 20
-49.867045
 11
116.022833
 21
-49.867045
  0
LINE
  8
曲げ物
  6
CONTINUOUS
 10
148.3695
 20
-92.533713
 11
116.022833
 21
-92.533713
  0
ENDSEC
  0
EOF
