  0
SECTION
  2
HEADER
  9
$EXTMIN
 10
-210.0
 20
-148.5
  9
$EXTMAX
 10
210.0
 20
148.5
  9
$PDMODE
 70
    32
  9
$PDSIZE
 40
1.5
  9
$LTSCALE
 40
10.0
  0
ENDSEC
  0
SECTION
  2
TABLES
  0
TABLE
  2
LTYPE
 70
    15
  0
LTYPE
  2
CONTINUOUS
 70
    64
  3
実線
 72
    65
 73
     0
 40
0.0
  0
LTYPE
  2
DASHED
 70
    64
  3
破線A
 72
    65
 73
     2
 40
0.6
 49
0.4
 49
-0.2
  0
LTYPE
  2
DASHEDX2
 70
    64
  3
破線B
 72
    65
 73
     2
 40
1.3
 49
0.9
 49
-0.4
  0
LTYPE
  2
DASHDOT
 70
    64
  3
１点鎖線A
 72
    65
 73
     4
 40
0.5375
 49
0.375
 49
-0.05
 49
0.0625
 49
-0.05
  0
LTYPE
  2
DASHDOTX2
 70
    64
  3
１点鎖線B
 72
    65
 73
     4
 40
1.075
 49
0.75
 49
-0.1
 49
0.125
 49
-0.1
  0
LTYPE
  2
DIVIDE2
 70
    64
  3
２点鎖線A
 72
    65
 73
     6
 40
0.5125
 49
0.3
 49
-0.0375
 49
0.05
 49
-0.0375
 49
0.05
 49
-0.0375
  0
LTYPE
  2
DIVIDE
 70
    64
  3
２点鎖線B
 72
    65
 73
     6
 40
1.05
 49
0.55
 49
-0.1
 49
0.1
 49
-0.1
 49
0.1
 49
-0.1
  0
LTYPE
  2
DOT
 70
    64
  3
点線A
 72
    65
 73
     2
 40
0.1125
 49
0.0625
 49
-0.05
  0
LTYPE
  2
DOTX2
 70
    64
  3
点線B
 72
    65
 73
     2
 40
0.275
 49
0.15
 49
-0.125
  0
LTYPE
  2
CONTINUOUS
 70
    64
  3
実線
 72
    65
 73
     0
 40
0.0
  0
LTYPE
  2
CONTINUOUS
 70
    64
  3
実線
 72
    65
 73
     0
 40
0.0
  0
LTYPE
  2
CONTINUOUS
 70
    64
  3
実線
 72
    65
 73
     0
 40
0.0
  0
LTYPE
  2
CONTINUOUS
 70
    64
  3
実線
 72
    65
 73
     0
 40
0.0
  0
LTYPE
  2
CONTINUOUS
 70
    64
  3
実線
 72
    65
 73
     0
 40
0.0
  0
LTYPE
  2
CONTINUOUS
 70
    64
  3
実線
 72
    65
 73
     0
 40
0.0
  0
ENDTAB
  0
TABLE
  2
LAYER
 70
    34
  0
LAYER
  2
通り芯
 70
     0
 62
    15
  6
CONTINUOUS
  0
LAYER
  2
補助線
 70
     0
 62
    16
  6
DOT
  0
LAYER
  2
躯体
 70
     0
 62
    31
  6
CONTINUOUS
  0
LAYER
  2
型材
 70
     0
 62
    32
  6
CONTINUOUS
  0
LAYER
  2
型材断面
 70
     0
 62
    47
  6
CONTINUOUS
  0
LAYER
  2
ガラス
 70
     0
 62
    48
  6
CONTINUOUS
  0
LAYER
  2
ゴム等
 70
     0
 62
    63
  6
CONTINUOUS
  0
LAYER
  2
ボルト／ビス
 70
     0
 62
    64
  6
CONTINUOUS
  0
LAYER
  2
文字
 70
     0
 62
    79
  6
CONTINUOUS
  0
LAYER
  2
寸法
 70
     0
 62
    80
  6
CONTINUOUS
  0
LAYER
  2
ﾊｯﾁﾝｸﾞ
 70
     0
 62
    95
  6
CONTINUOUS
  0
LAYER
  2
別途部材
 70
     0
 62
    96
  6
CONTINUOUS
  0
LAYER
  2
曲げ物
 70
     0
 62
   111
  6
CONTINUOUS
  0
LAYER
  2
鉄骨等
 70
     0
 62
   112
  6
CONTINUOUS
  0
LAYER
  2
St
 70
     0
 62
   127
  6
CONTINUOUS
  0
LAYER
  2
その他部品等
 70
     0
 62
   128
  6
CONTINUOUS
  0
LAYER
  2
ｶﾞｽｹｯﾄ
 70
     0
 62
   143
  6
CONTINUOUS
  0
LAYER
  2
ｽｹｯﾁ
 70
     0
 62
    14
  6
CONTINUOUS
  0
LAYER
  2
0
 70
     0
 62
    17
  6
CONTINUOUS
  0
LAYER
  2
1
 70
     0
 62
    30
  6
CONTINUOUS
  0
LAYER
  2
4
 70
     0
 62
    33
  6
CONTINUOUS
  0
LAYER
  2
ﾚｲﾔ3
 70
     0
 62
    46
  6
CONTINUOUS
  0
LAYER
  2
外形線
 70
     0
 62
    49
  6
CONTINUOUS
  0
LAYER
  2
部品
 70
     0
 62
    14
  6
CONTINUOUS
  0
LAYER
  2
サッシ芯
 70
     0
 62
    17
  6
DASHDOTX2
  0
LAYER
  2
寸法線
 70
     0
 62
    62
  6
CONTINUOUS
  0
LAYER
  2
姿図外形線
 70
     0
 62
    65
  6
CONTINUOUS
  0
LAYER
  2
姿補助線
 70
     0
 62
    30
  6
CONTINUOUS
  0
LAYER
  2
透視線
 70
     0
 62
    78
  6
DOT
  0
LAYER
  2
用紙
 70
     0
 62
    81
  6
CONTINUOUS
  0
LAYER
  2
実線図枠
 70
     0
 62
    94
  6
CONTINUOUS
  0
LAYER
  2
補助図枠
 70
     0
 62
    97
  6
CONTINUOUS
  0
LAYER
  2
建具記号
 70
     0
 62
   110
  6
CONTINUOUS
  0
LAYER
  2
補助文字
 70
     0
 62
   113
  6
CONTINUOUS
  0
ENDTAB
  0
TABLE
  2
STYLE
 70
    10
  0
STYLE
  2
STANDARD
 70
     0
 40
1.0
 41
1.0
 42
1.0
 50
0.0
 71
     0
  3
TXT
  4
BIGFONT
  0
STYLE
  2
TATE
 70
     4
 40
1.0
 41
1.0
 42
1.0
 50
0.0
 71
     0
  3
TXT
  4
BIGFONT
  0
STYLE
  2
TextStyle03
 70
     0
 40
1.0
 41
1.0
 42
1.0
 50
0.0
 71
     0
  3
MONOTXT
  4
BIGFONT
  0
STYLE
  2
TextStyle04
 70
     0
 40
1.0
 41
1.0
 42
1.0
 50
0.0
 71
     0
  3
MONOTXT
  4
BIGFONT
  0
STYLE
  2
TextStyle05
 70
     0
 40
1.0
 41
1.0
 42
1.0
 50
0.0
 71
     0
  3
MONOTXT
  4
BIGFONT
  0
STYLE
  2
TextStyle06
 70
     0
 40
1.0
 41
1.0
 42
1.0
 50
0.0
 71
     0
  3
MONOTXT
  4
BIGFONT
  0
STYLE
  2
TextStyle07
 70
     0
 40
1.0
 41
1.0
 42
1.0
 50
0.0
 71
     0
  3
MONOTXT
  4
BIGFONT
  0
STYLE
  2
TextStyle08
 70
     0
 40
1.0
 41
1.0
 42
1.0
 50
0.0
 71
     0
  3
MONOTXT
  4
BIGFONT
  0
STYLE
  2
TextStyle09
 70
     0
 40
1.0
 41
1.0
 42
1.0
 50
0.0
 71
     0
  3
MONOTXT
  4
BIGFONT
  0
STYLE
  2
TextStyle10
 70
     0
 40
1.0
 41
1.0
 42
1.0
 50
0.0
 71
     0
  3
MONOTXT
  4
BIGFONT
  0
ENDTAB
  0
ENDSEC
  0
SECTION
  2
BLOCKS
  0
BLOCK
  2
*GRP_0001
 70
    65
 10
0.0
 20
0.0
  0
LINE
  8
型材断面
  6
CONTINUOUS
 10
195.0
 20
133.5
 11
195.0
 21
-133.5
  0
LINE
  8
型材断面
  6
CONTINUOUS
 10
195.0
 20
-133.5
 11
-185.0
 21
-133.5
  0
LINE
  8
型材断面
  6
CONTINUOUS
 10
-185.0
 20
-133.5
 11
-185.0
 21
133.5
  0
LINE
  8
型材断面
  6
CONTINUOUS
 10
195.0
 20
133.5
 11
-185.0
 21
133.5
  0
LINE
  8
型材断面
  6
CONTINUOUS
 10
145.0
 20
-133.5
 11
145.0
 21
-118.5
  0
LINE
  8
型材断面
  6
CONTINUOUS
 10
195.0
 20
-118.5
 11
145.0
 21
-118.5
  0
ENDBLK
  0
BLOCK
  2
*DIM_0002
 70
    65
 10
0.0
 20
0.0
  0
LINE
  8
寸法
  6
BYBLOCK
 62
     0
 10
0.668223
 20
-67.95793
 11
37.30454
 21
-67.95793
  0
LINE
  8
寸法
  6
BYBLOCK
 62
     0
 10
37.30454
 20
-79.624597
 11
37.30454
 21
-67.95793
  0
POINT
  8
寸法
 62
     0
 10
37.30454
 20
-79.624597
  0
POINT
  8
寸法
 62
     0
 10
37.30454
 20
-67.95793
  0
TEXT
  7
TextStyle03
  8
寸法
  6
CONTINUOUS
 62
     0
 10
36.975
 20
-76.2375
  1
350
 40
3.0
 50
90.0
 72
     5
 11
36.975
 21
-71.3625
  0
ENDBLK
  0
BLOCK
  2
*DIM_0003
 70
    65
 10
0.0
 20
0.0
  0
LINE
  8
寸法
  6
BYBLOCK
 62
     0
 10
55.35454
 20
13.399048
 11
55.35454
 21
56.73238
  0
POINT
  8
寸法
 62
     0
 10
55.35454
 20
13.399048
  0
POINT
  8
寸法
 62
     0
 10
55.35454
 20
56.73238
  0
TEXT
  7
TextStyle03
  8
寸法
  6
CONTINUOUS
 62
     0
 10
55.025
 20
23.33125
  1
呼称寸法　1300
 40
3.0
 50
90.0
 72
     5
 11
55.025
 21
46.76875
  0
ENDBLK
  0
BLOCK
  2
*DIM_0004
 70
    65
 10
0.0
 20
0.0
  0
LINE
  8
寸法
  6
BYBLOCK
 62
     0
 10
99.201488
 20
36.065715
 11
99.201488
 21
72.668433
  0
LINE
  8
寸法
  6
BYBLOCK
 62
     0
 10
110.868155
 20
72.668433
 11
99.201488
 21
72.668433
  0
POINT
  8
寸法
 62
     0
 10
99.201488
 20
72.668433
  0
TEXT
  7
TextStyle03
  8
寸法
  6
CONTINUOUS
 62
     0
 10
102.6375
 20
73.025
  1
350
 40
3.0
 72
     5
 11
107.5125
 21
73.025
  0
ENDBLK
  0
BLOCK
  2
*DIM_0005
 70
    65
 10
0.0
 20
0.0
  0
LINE
  8
寸法
  6
BYBLOCK
 62
     0
 10
117.421445
 20
-49.867045
 11
125.856293
 21
-49.867045
  0
LINE
  8
寸法
  6
BYBLOCK
 62
     0
 10
117.421445
 20
-92.533713
 11
125.856293
 21
-92.533713
  0
LINE
  8
寸法
  6
BYBLOCK
 62
     0
 10
125.856293
 20
-49.867045
 11
125.856293
 21
-92.533713
  0
POINT
  8
寸法
 62
     0
 10
125.856293
 20
-49.867045
  0
POINT
  8
寸法
 62
     0
 10
125.856293
 20
-92.533713
  0
TEXT
  7
TextStyle03
  8
寸法
  6
CONTINUOUS
 62
     0
 10
125.525
 20
-74.48125
  1
1280
 40
3.0
 50
90.0
 72
     5
 11
125.525
 21
-67.91875
  0
ENDBLK
  0
BLOCK
  2
*DIM_0006
 70
    65
 10
0.0
 20
0.0
  0
LINE
  8
寸法
  6
BYBLOCK
 62
     0
 10
21.33489
 20
-22.536362
 11
-78.66511
 21
-22.536362
  0
POINT
  8
寸法
 62
     0
 10
21.33489
 20
-22.536362
  0
POINT
  8
寸法
 62
     0
 10
-78.66511
 20
-22.536362
  0
TEXT
  7
TextStyle03
  8
寸法
  6
CONTINUOUS
 62
     0
 10
-40.39375
 20
-22.175
  1
呼称寸法　3000
 40
3.0
 72
     5
 11
-16.95625
 21
-22.175
  0
ENDBLK
  0
BLOCK
  2
*DIM_0007
 70
    65
 10
0.0
 20
0.0
  0
LINE
  8
寸法
  6
BYBLOCK
 62
     0
 10
84.021445
 20
-48.867045
 11
84.021445
 21
-41.757925
  0
LINE
  8
寸法
  6
BYBLOCK
 62
     0
 10
116.421445
 20
-48.867045
 11
116.421445
 21
-41.757925
  0
LINE
  8
寸法
  6
BYBLOCK
 62
     0
 10
84.021445
 20
-41.757925
 11
116.421445
 21
-41.757925
  0
POINT
  8
寸法
 62
     0
 10
84.021445
 20
-41.757925
  0
POINT
  8
寸法
 62
     0
 10
116.421445
 20
-41.757925
  0
TEXT
  7
TextStyle03
  8
寸法
  6
CONTINUOUS
 62
     0
 10
97.7625
 20
-41.4
  1
972
 40
3.0
 72
     5
 11
102.6375
 21
-41.4
  0
ENDBLK
  0
BLOCK
  2
*DIM_0008
 70
    65
 10
0.0
 20
0.0
  0
LINE
  8
寸法
  6
BYBLOCK
 62
     0
 10
-61.998442
 20
9.76892
 11
-61.998442
 21
5.198027
  0
LINE
  8
寸法
  6
BYBLOCK
 62
     0
 10
4.668223
 20
9.76892
 11
4.668223
 21
5.198027
  0
LINE
  8
寸法
  6
BYBLOCK
 62
     0
 10
-61.998442
 20
5.198027
 11
4.668223
 21
5.198027
  0
POINT
  8
寸法
 62
     0
 10
-61.998442
 20
5.198027
  0
POINT
  8
寸法
 62
     0
 10
4.668223
 20
5.198027
  0
TEXT
  7
TextStyle03
  8
寸法
  6
CONTINUOUS
 62
     0
 10
-31.95625
 20
5.55
  1
2000
 40
3.0
 72
     5
 11
-25.39375
 21
5.55
  0
ENDBLK
  0
BLOCK
  2
*DIM_0009
 70
    65
 10
0.0
 20
0.0
  0
LINE
  8
寸法
  6
BYBLOCK
 62
     0
 10
22.33489
 20
56.732382
 11
32.059173
 21
56.732382
  0
LINE
  8
寸法
  6
BYBLOCK
 62
     0
 10
24.96502
 20
53.032382
 11
32.059173
 21
53.032382
  0
LINE
  8
寸法
  6
BYBLOCK
 62
     0
 10
32.059173
 20
56.732382
 11
32.059173
 21
53.032382
  0
POINT
  8
寸法
 62
     0
 10
32.059173
 20
56.732382
  0
POINT
  8
寸法
 62
     0
 10
32.059173
 20
53.032382
  0
TEXT
  7
TextStyle03
  8
寸法
  6
CONTINUOUS
 62
     0
 10
31.75
 20
57.7125
  1
111
 40
3.0
 50
90.0
 72
     5
 11
31.75
 21
62.5875
  0
ENDBLK
  0
BLOCK
  2
*DIM_0010
 70
    65
 10
0.0
 20
0.0
  0
LINE
  8
寸法
  6
BYBLOCK
 62
     0
 10
22.33489
 20
13.399048
 11
32.059173
 21
13.399045
  0
LINE
  8
寸法
  6
BYBLOCK
 62
     0
 10
24.96502
 20
17.099048
 11
32.059173
 21
17.099045
  0
LINE
  8
寸法
  6
BYBLOCK
 62
     0
 10
32.059173
 20
13.399045
 11
32.059173
 21
17.099045
  0
POINT
  8
寸法
 62
     0
 10
32.059173
 20
13.399045
  0
POINT
  8
寸法
 62
     0
 10
32.059173
 20
17.099045
  0
TEXT
  7
TextStyle03
  8
寸法
  6
CONTINUOUS
 62
     0
 10
31.725
 20
7.5375
  1
111
 40
3.0
 50
90.0
 72
     5
 11
31.725
 21
12.4125
  0
ENDBLK
  0
BLOCK
  2
*GRP_0011
 70
    65
 10
0.0
 20
0.0
  0
LINE
  8
別途部材
  6
CONTINUOUS
 62
    96
 10
-80.331775
 20
-79.624597
 11
-80.731775
 21
-80.624597
  0
LINE
  8
別途部材
  6
CONTINUOUS
 10
-80.731775
 20
-80.624597
 11
-28.66511
 21
-80.624597
  0
LINE
  8
別途部材
  6
CONTINUOUS
 62
    96
 10
-80.331775
 20
-79.624597
 11
-28.66511
 21
-79.624597
  0
LINE
  8
別途部材
  6
CONTINUOUS
 10
-29.16511
 20
-66.95793
 11
-30.16511
 21
-67.95793
  0
LINE
  8
別途部材
  6
CONTINUOUS
 10
-31.16511
 20
-67.95793
 11
-32.16511
 21
-66.95793
  0
LINE
  8
別途部材
  6
CONTINUOUS
 10
-33.16511
 20
-66.95793
 11
-34.16511
 21
-67.95793
  0
LINE
  8
別途部材
  6
CONTINUOUS
 10
-32.16511
 20
-66.95793
 11
-33.16511
 21
-66.95793
  0
LINE
  8
別途部材
  6
CONTINUOUS
 10
-29.16511
 20
-66.95793
 11
-28.66511
 21
-66.95793
  0
LINE
  8
別途部材
  6
CONTINUOUS
 10
-35.16511
 20
-67.95793
 11
-36.16511
 21
-66.95793
  0
LINE
  8
別途部材
  6
CONTINUOUS
 10
-37.16511
 20
-66.95793
 11
-38.16511
 21
-67.95793
  0
LINE
  8
別途部材
  6
CONTINUOUS
 10
-36.16511
 20
-66.95793
 11
-37.16511
 21
-66.95793
  0
LINE
  8
別途部材
  6
CONTINUOUS
 10
-39.16511
 20
-67.95793
 11
-40.16511
 21
-66.95793
  0
LINE
  8
別途部材
  6
CONTINUOUS
 10
-41.16511
 20
-66.95793
 11
-42.16511
 21
-67.95793
  0
LINE
  8
別途部材
  6
CONTINUOUS
 10
-40.16511
 20
-66.95793
 11
-41.16511
 21
-66.95793
  0
LINE
  8
別途部材
  6
CONTINUOUS
 10
-43.16511
 20
-67.95793
 11
-44.16511
 21
-66.95793
  0
LINE
  8
別途部材
  6
CONTINUOUS
 10
-45.16511
 20
-66.95793
 11
-46.16511
 21
-67.95793
  0
LINE
  8
別途部材
  6
CONTINUOUS
 10
-44.16511
 20
-66.95793
 11
-45.16511
 21
-66.95793
  0
LINE
  8
別途部材
  6
CONTINUOUS
 10
-47.16511
 20
-67.95793
 11
-48.16511
 21
-66.95793
  0
LINE
  8
別途部材
  6
CONTINUOUS
 10
-49.16511
 20
-66.95793
 11
-50.16511
 21
-67.95793
  0
LINE
  8
別途部材
  6
CONTINUOUS
 10
-48.16511
 20
-66.95793
 11
-49.16511
 21
-66.95793
  0
LINE
  8
別途部材
  6
CONTINUOUS
 10
-51.16511
 20
-67.95793
 11
-52.16511
 21
-66.95793
  0
LINE
  8
別途部材
  6
CONTINUOUS
 10
-53.16511
 20
-66.95793
 11
-54.16511
 21
-67.95793
  0
LINE
  8
別途部材
  6
CONTINUOUS
 10
-52.16511
 20
-66.95793
 11
-53.16511
 21
-66.95793
  0
LINE
  8
別途部材
  6
CONTINUOUS
 10
-55.16511
 20
-67.95793
 11
-56.16511
 21
-66.95793
  0
LINE
  8
別途部材
  6
CONTINUOUS
 10
-57.16511
 20
-66.95793
 11
-58.16511
 21
-67.95793
  0
LINE
  8
別途部材
  6
CONTINUOUS
 10
-56.16511
 20
-66.95793
 11
-57.16511
 21
-66.95793
  0
LINE
  8
別途部材
  6
CONTINUOUS
 10
-54.16511
 20
-67.95793
 11
-55.16511
 21
-67.95793
  0
LINE
  8
別途部材
  6
CONTINUOUS
 10
-50.16511
 20
-67.95793
 11
-51.16511
 21
-67.95793
  0
LINE
  8
別途部材
  6
CONTINUOUS
 10
-46.16511
 20
-67.95793
 11
-47.16511
 21
-67.95793
  0
LINE
  8
別途部材
  6
CONTINUOUS
 10
-42.16511
 20
-67.95793
 11
-43.16511
 21
-67.95793
  0
LINE
  8
別途部材
  6
CONTINUOUS
 10
-38.16511
 20
-67.95793
 11
-39.16511
 21
-67.95793
  0
LINE
  8
別途部材
  6
CONTINUOUS
 10
-34.16511
 20
-67.95793
 11
-35.16511
 21
-67.95793
  0
LINE
  8
別途部材
  6
CONTINUOUS
 10
-31.16511
 20
-67.95793
 11
-30.16511
 21
-67.95793
  0
LINE
  8
別途部材
  6
CONTINUOUS
 10
-51.16511
 20
-67.95793
 11
-51.16511
 21
-79.624597
  0
LINE
  8
別途部材
  6
CONTINUOUS
 10
-45.16511
 20
-66.95793
 11
-45.16511
 21
-79.624597
  0
LINE
  8
別途部材
  6
CONTINUOUS
 10
-44.16511
 20
-66.95793
 11
-44.16511
 21
-79.624597
  0
LINE
  8
別途部材
  6
CONTINUOUS
 10
-34.16511
 20
-67.95793
 11
-34.16511
 21
-79.624597
  0
LINE
  8
別途部材
  6
CONTINUOUS
 10
-29.16511
 20
-66.95793
 11
-29.16511
 21
-79.624597
  0
LINE
  8
別途部材
  6
CONTINUOUS
 10
-30.16511
 20
-67.95793
 11
-30.16511
 21
-79.624597
  0
LINE
  8
別途部材
  6
CONTINUOUS
 10
-32.16511
 20
-66.95793
 11
-32.16511
 21
-79.624597
  0
LINE
  8
別途部材
  6
CONTINUOUS
 10
-33.16511
 20
-66.95793
 11
-33.16511
 21
-79.624597
  0
LINE
  8
別途部材
  6
CONTINUOUS
 10
-35.16511
 20
-67.95793
 11
-35.16511
 21
-79.624597
  0
LINE
  8
別途部材
  6
CONTINUOUS
 10
-46.16511
 20
-67.95793
 11
-46.16511
 21
-79.624597
  0
LINE
  8
別途部材
  6
CONTINUOUS
 10
-47.16511
 20
-67.95793
 11
-47.16511
 21
-79.624597
  0
LINE
  8
別途部材
  6
CONTINUOUS
 10
-52.16511
 20
-66.95793
 11
-52.16511
 21
-79.624597
  0
LINE
  8
別途部材
  6
CONTINUOUS
 10
-54.16511
 20
-67.95793
 11
-54.16511
 21
-79.624597
  0
LINE
  8
別途部材
  6
CONTINUOUS
 10
-57.16511
 20
-66.95793
 11
-57.16511
 21
-79.624597
  0
LINE
  8
別途部材
  6
CONTINUOUS
 10
-53.16511
 20
-66.95793
 11
-53.16511
 21
-79.624597
  0
LINE
  8
別途部材
  6
CONTINUOUS
 10
-55.16511
 20
-67.95793
 11
-55.16511
 21
-79.624597
  0
LINE
  8
別途部材
  6
CONTINUOUS
 10
-58.16511
 20
-67.95793
 11
-58.16511
 21
-79.624597
  0
LINE
  8
別途部材
  6
CONTINUOUS
 10
-49.16511
 20
-66.95793
 11
-49.16511
 21
-79.624597
  0
LINE
  8
別途部材
  6
CONTINUOUS
 10
-48.16511
 20
-66.95793
 11
-48.16511
 21
-79.624597
  0
LINE
  8
別途部材
  6
CONTINUOUS
 10
-50.16511
 20
-67.95793
 11
-50.16511
 21
-79.624597
  0
LINE
  8
別途部材
  6
CONTINUOUS
 10
-56.16511
 20
-66.95793
 11
-56.16511
 21
-79.624597
  0
LINE
  8
別途部材
  6
CONTINUOUS
 10
-42.16511
 20
-67.95793
 11
-42.16511
 21
-79.624597
  0
LINE
  8
別途部材
  6
CONTINUOUS
 10
-43.16511
 20
-67.95793
 11
-43.16511
 21
-79.624597
  0
LINE
  8
別途部材
  6
CONTINUOUS
 10
-41.16511
 20
-66.95793
 11
-41.16511
 21
-79.624597
  0
LINE
  8
別途部材
  6
CONTINUOUS
 10
-39.16511
 20
-67.95793
 11
-39.16511
 21
-79.624597
  0
LINE
  8
別途部材
  6
CONTINUOUS
 10
-40.16511
 20
-66.95793
 11
-40.16511
 21
-79.624597
  0
LINE
  8
別途部材
  6
CONTINUOUS
 10
-38.16511
 20
-67.95793
 11
-38.16511
 21
-79.624597
  0
LINE
  8
別途部材
  6
CONTINUOUS
 10
-36.16511
 20
-66.95793
 11
-36.16511
 21
-79.624597
  0
LINE
  8
別途部材
  6
CONTINUOUS
 10
-37.16511
 20
-66.95793
 11
-37.16511
 21
-79.624597
  0
LINE
  8
別途部材
  6
CONTINUOUS
 10
-31.16511
 20
-67.95793
 11
-31.16511
 21
-79.624597
  0
ARC
  8
別途部材
  6
CONTINUOUS
 10
-56.998441
 20
-93.910311
 40
25.952382
 50
92.576553
 51
146.601512
  0
LINE
  8
別途部材
  6
CONTINUOUS
 62
    96
 10
23.001557
 20
-79.624597
 11
23.401557
 21
-80.624597
  0
LINE
  8
別途部材
  6
CONTINUOUS
 10
23.401557
 20
-80.624597
 11
-28.66511
 21
-80.624597
  0
LINE
  8
別途部材
  6
CONTINUOUS
 62
    96
 10
23.001557
 20
-79.624597
 11
-28.66511
 21
-79.624597
  0
LINE
  8
別途部材
  6
CONTINUOUS
 10
-28.16511
 20
-66.95793
 11
-27.16511
 21
-67.95793
  0
LINE
  8
別途部材
  6
CONTINUOUS
 10
-26.16511
 20
-67.95793
 11
-25.16511
 21
-66.95793
  0
LINE
  8
別途部材
  6
CONTINUOUS
 10
-24.16511
 20
-66.95793
 11
-23.16511
 21
-67.95793
  0
LINE
  8
別途部材
  6
CONTINUOUS
 10
-25.16511
 20
-66.95793
 11
-24.16511
 21
-66.95793
  0
LINE
  8
別途部材
  6
CONTINUOUS
 10
-28.16511
 20
-66.95793
 11
-28.66511
 21
-66.95793
  0
LINE
  8
別途部材
  6
CONTINUOUS
 10
-22.16511
 20
-67.95793
 11
-21.16511
 21
-66.95793
  0
LINE
  8
別途部材
  6
CONTINUOUS
 10
-20.16511
 20
-66.95793
 11
-19.16511
 21
-67.95793
  0
LINE
  8
別途部材
  6
CONTINUOUS
 10
-21.16511
 20
-66.95793
 11
-20.16511
 21
-66.95793
  0
LINE
  8
別途部材
  6
CONTINUOUS
 10
-18.16511
 20
-67.95793
 11
-17.16511
 21
-66.95793
  0
LINE
  8
別途部材
  6
CONTINUOUS
 10
-16.16511
 20
-66.95793
 11
-15.16511
 21
-67.95793
  0
LINE
  8
別途部材
  6
CONTINUOUS
 10
-17.16511
 20
-66.95793
 11
-16.16511
 21
-66.95793
  0
LINE
  8
別途部材
  6
CONTINUOUS
 10
-14.16511
 20
-67.95793
 11
-13.16511
 21
-66.95793
  0
LINE
  8
別途部材
  6
CONTINUOUS
 10
-12.16511
 20
-66.95793
 11
-11.16511
 21
-67.95793
  0
LINE
  8
別途部材
  6
CONTINUOUS
 10
-13.16511
 20
-66.95793
 11
-12.16511
 21
-66.95793
  0
LINE
  8
別途部材
  6
CONTINUOUS
 10
-10.16511
 20
-67.95793
 11
-9.16511
 21
-66.95793
  0
LINE
  8
別途部材
  6
CONTINUOUS
 10
-8.16511
 20
-66.95793
 11
-7.16511
 21
-67.95793
  0
LINE
  8
別途部材
  6
CONTINUOUS
 10
-9.16511
 20
-66.95793
 11
-8.16511
 21
-66.95793
  0
LINE
  8
別途部材
  6
CONTINUOUS
 10
-6.16511
 20
-67.95793
 11
-5.16511
 21
-66.95793
  0
LINE
  8
別途部材
  6
CONTINUOUS
 10
-4.16511
 20
-66.95793
 11
-3.16511
 21
-67.95793
  0
LINE
  8
別途部材
  6
CONTINUOUS
 10
-5.16511
 20
-66.95793
 11
-4.16511
 21
-66.95793
  0
LINE
  8
別途部材
  6
CONTINUOUS
 10
-2.16511
 20
-67.95793
 11
-1.16511
 21
-66.95793
  0
LINE
  8
別途部材
  6
CONTINUOUS
 10
-0.16511
 20
-66.95793
 11
0.83489
 21
-67.95793
  0
LINE
  8
別途部材
  6
CONTINUOUS
 10
-1.16511
 20
-66.95793
 11
-0.16511
 21
-66.95793
  0
LINE
  8
別途部材
  6
CONTINUOUS
 10
-3.16511
 20
-67.95793
 11
-2.16511
 21
-67.95793
  0
LINE
  8
別途部材
  6
CONTINUOUS
 10
-7.16511
 20
-67.95793
 11
-6.16511
 21
-67.95793
  0
LINE
  8
別途部材
  6
CONTINUOUS
 10
-11.16511
 20
-67.95793
 11
-10.16511
 21
-67.95793
  0
LINE
  8
別途部材
  6
CONTINUOUS
 10
-15.16511
 20
-67.95793
 11
-14.16511
 21
-67.95793
  0
LINE
  8
別途部材
  6
CONTINUOUS
 10
-19.16511
 20
-67.95793
 11
-18.16511
 21
-67.95793
  0
LINE
  8
別途部材
  6
CONTINUOUS
 10
-23.16511
 20
-67.95793
 11
-22.16511
 21
-67.95793
  0
LINE
  8
別途部材
  6
CONTINUOUS
 10
-26.16511
 20
-67.95793
 11
-27.16511
 21
-67.95793
  0
LINE
  8
別途部材
  6
CONTINUOUS
 10
-6.16511
 20
-67.95793
 11
-6.16511
 21
-79.624597
  0
LINE
  8
別途部材
  6
CONTINUOUS
 10
-12.16511
 20
-66.95793
 11
-12.16511
 21
-79.624597
  0
LINE
  8
別途部材
  6
CONTINUOUS
 10
-13.16511
 20
-66.95793
 11
-13.16511
 21
-79.624597
  0
LINE
  8
別途部材
  6
CONTINUOUS
 10
-23.16511
 20
-67.95793
 11
-23.16511
 21
-79.624597
  0
LINE
  8
別途部材
  6
CONTINUOUS
 10
-28.16511
 20
-66.95793
 11
-28.16511
 21
-79.624597
  0
LINE
  8
別途部材
  6
CONTINUOUS
 10
-27.16511
 20
-67.95793
 11
-27.16511
 21
-79.624597
  0
LINE
  8
別途部材
  6
CONTINUOUS
 10
-25.16511
 20
-66.95793
 11
-25.16511
 21
-79.624597
  0
LINE
  8
別途部材
  6
CONTINUOUS
 10
-24.16511
 20
-66.95793
 11
-24.16511
 21
-79.624597
  0
LINE
  8
別途部材
  6
CONTINUOUS
 10
-22.16511
 20
-67.95793
 11
-22.16511
 21
-79.624597
  0
LINE
  8
別途部材
  6
CONTINUOUS
 10
-11.16511
 20
-67.95793
 11
-11.16511
 21
-79.624597
  0
LINE
  8
別途部材
  6
CONTINUOUS
 10
-10.16511
 20
-67.95793
 11
-10.16511
 21
-79.624597
  0
LINE
  8
別途部材
  6
CONTINUOUS
 10
-5.16511
 20
-66.95793
 11
-5.16511
 21
-79.624597
  0
LINE
  8
別途部材
  6
CONTINUOUS
 10
-3.16511
 20
-67.95793
 11
-3.16511
 21
-79.624597
  0
LINE
  8
別途部材
  6
CONTINUOUS
 10
-0.16511
 20
-66.95793
 11
-0.16511
 21
-79.624597
  0
LINE
  8
別途部材
  6
CONTINUOUS
 10
-4.16511
 20
-66.95793
 11
-4.16511
 21
-79.624597
  0
LINE
  8
別途部材
  6
CONTINUOUS
 10
-2.16511
 20
-67.95793
 11
-2.16511
 21
-79.624597
  0
LINE
  8
別途部材
  6
CONTINUOUS
 10
0.83489
 20
-67.95793
 11
0.83489
 21
-79.624597
  0
LINE
  8
別途部材
  6
CONTINUOUS
 10
-8.16511
 20
-66.95793
 11
-8.16511
 21
-79.624597
  0
LINE
  8
別途部材
  6
CONTINUOUS
 10
-9.16511
 20
-66.95793
 11
-9.16511
 21
-79.624597
  0
LINE
  8
別途部材
  6
CONTINUOUS
 10
-7.16511
 20
-67.95793
 11
-7.16511
 21
-79.624597
  0
LINE
  8
別途部材
  6
CONTINUOUS
 10
-1.16511
 20
-66.95793
 11
-1.16511
 21
-79.624597
  0
LINE
  8
別途部材
  6
CONTINUOUS
 10
-15.16511
 20
-67.95793
 11
-15.16511
 21
-79.624597
  0
LINE
  8
別途部材
  6
CONTINUOUS
 10
-14.16511
 20
-67.95793
 11
-14.16511
 21
-79.624597
  0
LINE
  8
別途部材
  6
CONTINUOUS
 10
-16.16511
 20
-66.95793
 11
-16.16511
 21
-79.624597
  0
LINE
  8
別途部材
  6
CONTINUOUS
 10
-18.16511
 20
-67.95793
 11
-18.16511
 21
-79.624597
  0
LINE
  8
別途部材
  6
CONTINUOUS
 10
-17.16511
 20
-66.95793
 11
-17.16511
 21
-79.624597
  0
LINE
  8
別途部材
  6
CONTINUOUS
 10
-19.16511
 20
-67.95793
 11
-19.16511
 21
-79.624597
  0
LINE
  8
別途部材
  6
CONTINUOUS
 10
-21.16511
 20
-66.95793
 11
-21.16511
 21
-79.624597
  0
LINE
  8
別途部材
  6
CONTINUOUS
 10
-20.16511
 20
-66.95793
 11
-20.16511
 21
-79.624597
  0
LINE
  8
別途部材
  6
CONTINUOUS
 10
-26.16511
 20
-67.95793
 11
-26.16511
 21
-79.624597
  0
ARC
  8
別途部材
  6
CONTINUOUS
 10
-0.331777
 20
-93.910311
 40
25.952382
 50
33.398488
 51
87.423447
  0
ENDBLK
  0
BLOCK
  2
*GRP_0012
 70
    65
 10
0.0
 20
0.0
  0
LINE
  8
補助線
  6
BYBLOCK
 62
    64
 10
-75.265835
 20
-84.53381
 11
-75.39772
 21
-84.635715
  0
LINE
  8
補助線
  6
BYBLOCK
 62
    64
 10
-75.38273
 20
-84.51882
 11
-75.280825
 21
-84.650705
  0
LINE
  8
補助線
  6
BYBLOCK
 62
    64
 10
-63.85521
 20
-75.71712
 11
-63.987095
 21
-75.819023
  0
LINE
  8
補助線
  6
BYBLOCK
 62
    64
 10
-63.972105
 20
-75.702128
 11
-63.870202
 21
-75.834012
  0
LINE
  8
補助線
  6
BYBLOCK
 62
    64
 10
-52.576468
 20
-67.002333
 11
-52.444588
 21
-66.900428
  0
LINE
  8
補助線
  6
BYBLOCK
 62
    64
 10
-52.56148
 20
-66.885435
 11
-52.459577
 21
-67.017322
  0
LINE
  8
型材断面
  6
CONTINUOUS
 10
-76.105062
 20
-84.129148
 11
-76.195005
 21
-84.830512
  0
LINE
  8
型材断面
  6
CONTINUOUS
 10
-76.195005
 20
-84.830512
 11
-75.78739
 21
-85.35805
  0
LINE
  8
型材断面
  6
CONTINUOUS
 10
-75.78739
 20
-85.35805
 11
-75.086028
 21
-85.44799
  0
LINE
  8
型材断面
  6
CONTINUOUS
 10
-52.756278
 20
-66.088152
 11
-52.054915
 21
-66.178095
  0
LINE
  8
型材断面
  6
CONTINUOUS
 10
-52.054915
 20
-66.178095
 11
-51.6473
 21
-66.705632
  0
LINE
  8
型材断面
  6
CONTINUOUS
 10
-51.6473
 20
-66.705632
 11
-51.737242
 21
-67.406998
  0
LINE
  8
型材断面
  6
CONTINUOUS
 10
-75.086028
 20
-85.44799
 11
-51.737242
 21
-67.406998
  0
LINE
  8
型材断面
  6
CONTINUOUS
 10
-76.105062
 20
-84.129148
 11
-52.756278
 21
-66.088152
  0
CIRCLE
  8
ボルト／ビス
  6
CONTINUOUS
 10
-75.331778
 20
-84.584763
 40
0.250185
  0
CIRCLE
  8
ボルト／ビス
  6
CONTINUOUS
 10
-75.331778
 20
-84.584763
 40
0.301025
  0
LINE
  8
ボルト／ビス
  6
CONTINUOUS
 62
    64
 10
-75.579712
 20
-84.618253
 11
-75.484747
 21
-84.38679
  0
LINE
  8
ボルト／ビス
  6
CONTINUOUS
 62
    64
 10
-75.236812
 20
-84.3533
 11
-75.484747
 21
-84.38679
  0
LINE
  8
ボルト／ビス
  6
CONTINUOUS
 62
    64
 10
-75.426743
 20
-84.816225
 11
-75.178808
 21
-84.782735
  0
LINE
  8
ボルト／ビス
  6
CONTINUOUS
 62
    64
 10
-75.083842
 20
-84.551272
 11
-75.178808
 21
-84.782735
  0
LINE
  8
ボルト／ビス
  6
CONTINUOUS
 62
    64
 10
-75.579712
 20
-84.618253
 11
-75.426743
 21
-84.816225
  0
LINE
  8
ボルト／ビス
  6
CONTINUOUS
 62
    64
 10
-75.236812
 20
-84.3533
 11
-75.083842
 21
-84.551272
  0
CIRCLE
  8
ボルト／ビス
  6
CONTINUOUS
 62
    64
 10
-75.331778
 20
-84.584763
 40
0.216668
  0
CIRCLE
  8
ボルト／ビス
  6
CONTINUOUS
 10
-63.921152
 20
-75.768073
 40
0.250185
  0
CIRCLE
  8
ボルト／ビス
  6
CONTINUOUS
 10
-63.921152
 20
-75.768073
 40
0.301025
  0
LINE
  8
ボルト／ビス
  6
CONTINUOUS
 62
    64
 10
-64.169088
 20
-75.80156
 11
-64.074122
 21
-75.5701
  0
LINE
  8
ボルト／ビス
  6
CONTINUOUS
 62
    64
 10
-63.826188
 20
-75.53661
 11
-64.074122
 21
-75.5701
  0
LINE
  8
ボルト／ビス
  6
CONTINUOUS
 62
    64
 10
-64.01612
 20
-75.999532
 11
-63.768185
 21
-75.966043
  0
LINE
  8
ボルト／ビス
  6
CONTINUOUS
 62
    64
 10
-63.673218
 20
-75.734583
 11
-63.768185
 21
-75.966043
  0
LINE
  8
ボルト／ビス
  6
CONTINUOUS
 62
    64
 10
-64.169088
 20
-75.80156
 11
-64.01612
 21
-75.999532
  0
LINE
  8
ボルト／ビス
  6
CONTINUOUS
 62
    64
 10
-63.826188
 20
-75.53661
 11
-63.673218
 21
-75.734583
  0
CIRCLE
  8
ボルト／ビス
  6
CONTINUOUS
 62
    64
 10
-63.921152
 20
-75.768073
 40
0.216668
  0
CIRCLE
  8
ボルト／ビス
  6
CONTINUOUS
 10
-52.51053
 20
-66.95138
 40
0.250185
  0
CIRCLE
  8
ボルト／ビス
  6
CONTINUOUS
 10
-52.51053
 20
-66.95138
 40
0.301025
  0
LINE
  8
ボルト／ビス
  6
CONTINUOUS
 62
    64
 10
-52.415563
 20
-66.719917
 11
-52.663495
 21
-66.753407
  0
LINE
  8
ボルト／ビス
  6
CONTINUOUS
 62
    64
 10
-52.75846
 20
-66.98487
 11
-52.663495
 21
-66.753407
  0
LINE
  8
ボルト／ビス
  6
CONTINUOUS
 62
    64
 10
-52.262595
 20
-66.91789
 11
-52.35756
 21
-67.149352
  0
LINE
  8
ボルト／ビス
  6
CONTINUOUS
 62
    64
 10
-52.605495
 20
-67.182842
 11
-52.35756
 21
-67.149352
  0
LINE
  8
ボルト／ビス
  6
CONTINUOUS
 62
    64
 10
-52.415563
 20
-66.719917
 11
-52.262595
 21
-66.91789
  0
LINE
  8
ボルト／ビス
  6
CONTINUOUS
 62
    64
 10
-52.75846
 20
-66.98487
 11
-52.605495
 21
-67.182842
  0
CIRCLE
  8
ボルト／ビス
  6
CONTINUOUS
 62
    64
 10
-52.51053
 20
-66.95138
 40
0.216668
  0
ENDBLK
  0
BLOCK
  2
*GRP_0013
 70
    65
 10
0.0
 20
0.0
  0
LINE
  8
補助線
  6
BYBLOCK
 62
    64
 10
-52.57647
 20
-84.53381
 11
-52.444585
 21
-84.635715
  0
LINE
  8
補助線
  6
BYBLOCK
 62
    64
 10
-52.459575
 20
-84.51882
 11
-52.56148
 21
-84.650705
  0
LINE
  8
補助線
  6
BYBLOCK
 62
    64
 10
-63.987095
 20
-75.71712
 11
-63.85521
 21
-75.819023
  0
LINE
  8
補助線
  6
BYBLOCK
 62
    64
 10
-63.8702
 20
-75.702128
 11
-63.972102
 21
-75.834012
  0
LINE
  8
補助線
  6
BYBLOCK
 62
    64
 10
-75.265838
 20
-67.002333
 11
-75.397717
 21
-66.900428
  0
LINE
  8
補助線
  6
BYBLOCK
 62
    64
 10
-75.280825
 20
-66.885435
 11
-75.382727
 21
-67.017322
  0
LINE
  8
型材断面
  6
CONTINUOUS
 10
-51.737242
 20
-84.129148
 11
-51.6473
 21
-84.830512
  0
LINE
  8
型材断面
  6
CONTINUOUS
 10
-51.6473
 20
-84.830512
 11
-52.054915
 21
-85.35805
  0
LINE
  8
型材断面
  6
CONTINUOUS
 10
-52.054915
 20
-85.35805
 11
-52.756278
 21
-85.44799
  0
LINE
  8
型材断面
  6
CONTINUOUS
 10
-75.086028
 20
-66.088152
 11
-75.78739
 21
-66.178095
  0
LINE
  8
型材断面
  6
CONTINUOUS
 10
-75.78739
 20
-66.178095
 11
-76.195005
 21
-66.705632
  0
LINE
  8
型材断面
  6
CONTINUOUS
 10
-76.195005
 20
-66.705632
 11
-76.105062
 21
-67.406998
  0
LINE
  8
型材断面
  6
CONTINUOUS
 10
-52.756278
 20
-85.44799
 11
-76.105062
 21
-67.406998
  0
LINE
  8
型材断面
  6
CONTINUOUS
 10
-51.737242
 20
-84.129148
 11
-75.086028
 21
-66.088152
  0
CIRCLE
  8
ボルト／ビス
  6
CONTINUOUS
 10
-52.510527
 20
-84.584763
 40
0.250185
  0
CIRCLE
  8
ボルト／ビス
  6
CONTINUOUS
 10
-52.510527
 20
-84.584763
 40
0.301025
  0
LINE
  8
ボルト／ビス
  6
CONTINUOUS
 62
    64
 10
-52.262593
 20
-84.618253
 11
-52.357557
 21
-84.38679
  0
LINE
  8
ボルト／ビス
  6
CONTINUOUS
 62
    64
 10
-52.605493
 20
-84.3533
 11
-52.357557
 21
-84.38679
  0
LINE
  8
ボルト／ビス
  6
CONTINUOUS
 62
    64
 10
-52.415563
 20
-84.816225
 11
-52.663497
 21
-84.782735
  0
LINE
  8
ボルト／ビス
  6
CONTINUOUS
 62
    64
 10
-52.758463
 20
-84.551272
 11
-52.663497
 21
-84.782735
  0
LINE
  8
ボルト／ビス
  6
CONTINUOUS
 62
    64
 10
-52.262593
 20
-84.618253
 11
-52.415563
 21
-84.816225
  0
LINE
  8
ボルト／ビス
  6
CONTINUOUS
 62
    64
 10
-52.605493
 20
-84.3533
 11
-52.758463
 21
-84.551272
  0
CIRCLE
  8
ボルト／ビス
  6
CONTINUOUS
 62
    64
 10
-52.510527
 20
-84.584763
 40
0.216668
  0
CIRCLE
  8
ボルト／ビス
  6
CONTINUOUS
 10
-63.921152
 20
-75.768073
 40
0.250185
  0
CIRCLE
  8
ボルト／ビス
  6
CONTINUOUS
 10
-63.921152
 20
-75.768073
 40
0.301025
  0
LINE
  8
ボルト／ビス
  6
CONTINUOUS
 62
    64
 10
-63.673218
 20
-75.80156
 11
-63.768182
 21
-75.5701
  0
LINE
  8
ボルト／ビス
  6
CONTINUOUS
 62
    64
 10
-64.016118
 20
-75.53661
 11
-63.768182
 21
-75.5701
  0
LINE
  8
ボルト／ビス
  6
CONTINUOUS
 62
    64
 10
-63.826185
 20
-75.999532
 11
-64.07412
 21
-75.966043
  0
LINE
  8
ボルト／ビス
  6
CONTINUOUS
 62
    64
 10
-64.169088
 20
-75.734583
 11
-64.07412
 21
-75.966043
  0
LINE
  8
ボルト／ビス
  6
CONTINUOUS
 62
    64
 10
-63.673218
 20
-75.80156
 11
-63.826185
 21
-75.999532
  0
LINE
  8
ボルト／ビス
  6
CONTINUOUS
 62
    64
 10
-64.016118
 20
-75.53661
 11
-64.169088
 21
-75.734583
  0
CIRCLE
  8
ボルト／ビス
  6
CONTINUOUS
 62
    64
 10
-63.921152
 20
-75.768073
 40
0.216668
  0
CIRCLE
  8
ボルト／ビス
  6
CONTINUOUS
 10
-75.331775
 20
-66.95138
 40
0.250185
  0
CIRCLE
  8
ボルト／ビス
  6
CONTINUOUS
 10
-75.331775
 20
-66.95138
 40
0.301025
  0
LINE
  8
ボルト／ビス
  6
CONTINUOUS
 62
    64
 10
-75.426743
 20
-66.719917
 11
-75.17881
 21
-66.753407
  0
LINE
  8
ボルト／ビス
  6
CONTINUOUS
 62
    64
 10
-75.083845
 20
-66.98487
 11
-75.17881
 21
-66.753407
  0
LINE
  8
ボルト／ビス
  6
CONTINUOUS
 62
    64
 10
-75.57971
 20
-66.91789
 11
-75.484745
 21
-67.149352
  0
LINE
  8
ボルト／ビス
  6
CONTINUOUS
 62
    64
 10
-75.23681
 20
-67.182842
 11
-75.484745
 21
-67.149352
  0
LINE
  8
ボルト／ビス
  6
CONTINUOUS
 62
    64
 10
-75.426743
 20
-66.719917
 11
-75.57971
 21
-66.91789
  0
LINE
  8
ボルト／ビス
  6
CONTINUOUS
 62
    64
 10
-75.083845
 20
-66.98487
 11
-75.23681
 21
-67.182842
  0
CIRCLE
  8
ボルト／ビス
  6
CONTINUOUS
 62
    64
 10
-75.331775
 20
-66.95138
 40
0.216668
  0
ENDBLK
  0
BLOCK
  2
*GRP_0014
 70
    65
 10
0.0
 20
0.0
  0
LINE
  8
補助線
  6
BYBLOCK
 62
    64
 10
17.935615
 20
-84.53381
 11
18.0675
 21
-84.635715
  0
LINE
  8
補助線
  6
BYBLOCK
 62
    64
 10
18.05251
 20
-84.51882
 11
17.950605
 21
-84.650705
  0
LINE
  8
補助線
  6
BYBLOCK
 62
    64
 10
6.52499
 20
-75.71712
 11
6.656875
 21
-75.819023
  0
LINE
  8
補助線
  6
BYBLOCK
 62
    64
 10
6.641885
 20
-75.702128
 11
6.539983
 21
-75.834012
  0
LINE
  8
補助線
  6
BYBLOCK
 62
    64
 10
-4.753752
 20
-67.002333
 11
-4.885632
 21
-66.900428
  0
LINE
  8
補助線
  6
BYBLOCK
 62
    64
 10
-4.76874
 20
-66.885435
 11
-4.870643
 21
-67.017322
  0
LINE
  8
型材断面
  6
CONTINUOUS
 10
18.774842
 20
-84.129148
 11
18.864785
 21
-84.830512
  0
LINE
  8
型材断面
  6
CONTINUOUS
 10
18.864785
 20
-84.830512
 11
18.45717
 21
-85.35805
  0
LINE
  8
型材断面
  6
CONTINUOUS
 10
18.45717
 20
-85.35805
 11
17.755808
 21
-85.44799
  0
LINE
  8
型材断面
  6
CONTINUOUS
 10
-4.573942
 20
-66.088152
 11
-5.275305
 21
-66.178095
  0
LINE
  8
型材断面
  6
CONTINUOUS
 10
-5.275305
 20
-66.178095
 11
-5.68292
 21
-66.705632
  0
LINE
  8
型材断面
  6
CONTINUOUS
 10
-5.68292
 20
-66.705632
 11
-5.592977
 21
-67.406998
  0
LINE
  8
型材断面
  6
CONTINUOUS
 10
17.755808
 20
-85.44799
 11
-5.592977
 21
-67.406998
  0
LINE
  8
型材断面
  6
CONTINUOUS
 10
18.774842
 20
-84.129148
 11
-4.573942
 21
-66.088152
  0
CIRCLE
  8
ボルト／ビス
  6
CONTINUOUS
 10
18.001557
 20
-84.584763
 40
0.250185
  0
CIRCLE
  8
ボルト／ビス
  6
CONTINUOUS
 10
18.001557
 20
-84.584763
 40
0.301025
  0
LINE
  8
ボルト／ビス
  6
CONTINUOUS
 62
    64
 10
18.249493
 20
-84.618253
 11
18.154528
 21
-84.38679
  0
LINE
  8
ボルト／ビス
  6
CONTINUOUS
 62
    64
 10
17.906593
 20
-84.3533
 11
18.154528
 21
-84.38679
  0
LINE
  8
ボルト／ビス
  6
CONTINUOUS
 62
    64
 10
18.096522
 20
-84.816225
 11
17.848588
 21
-84.782735
  0
LINE
  8
ボルト／ビス
  6
CONTINUOUS
 62
    64
 10
17.753622
 20
-84.551272
 11
17.848588
 21
-84.782735
  0
LINE
  8
ボルト／ビス
  6
CONTINUOUS
 62
    64
 10
18.249493
 20
-84.618253
 11
18.096522
 21
-84.816225
  0
LINE
  8
ボルト／ビス
  6
CONTINUOUS
 62
    64
 10
17.906593
 20
-84.3533
 11
17.753622
 21
-84.551272
  0
CIRCLE
  8
ボルト／ビス
  6
CONTINUOUS
 62
    64
 10
18.001557
 20
-84.584763
 40
0.216668
  0
CIRCLE
  8
ボルト／ビス
  6
CONTINUOUS
 10
6.590933
 20
-75.768073
 40
0.250185
  0
CIRCLE
  8
ボルト／ビス
  6
CONTINUOUS
 10
6.590933
 20
-75.768073
 40
0.301025
  0
LINE
  8
ボルト／ビス
  6
CONTINUOUS
 62
    64
 10
6.838868
 20
-75.80156
 11
6.743902
 21
-75.5701
  0
LINE
  8
ボルト／ビス
  6
CONTINUOUS
 62
    64
 10
6.495968
 20
-75.53661
 11
6.743902
 21
-75.5701
  0
LINE
  8
ボルト／ビス
  6
CONTINUOUS
 62
    64
 10
6.6859
 20
-75.999532
 11
6.437965
 21
-75.966043
  0
LINE
  8
ボルト／ビス
  6
CONTINUOUS
 62
    64
 10
6.342997
 20
-75.734583
 11
6.437965
 21
-75.966043
  0
LINE
  8
ボルト／ビス
  6
CONTINUOUS
 62
    64
 10
6.838868
 20
-75.80156
 11
6.6859
 21
-75.999532
  0
LINE
  8
ボルト／ビス
  6
CONTINUOUS
 62
    64
 10
6.495968
 20
-75.53661
 11
6.342997
 21
-75.734583
  0
CIRCLE
  8
ボルト／ビス
  6
CONTINUOUS
 62
    64
 10
6.590933
 20
-75.768073
 40
0.216668
  0
CIRCLE
  8
ボルト／ビス
  6
CONTINUOUS
 10
-4.81969
 20
-66.95138
 40
0.250185
  0
CIRCLE
  8
ボルト／ビス
  6
CONTINUOUS
 10
-4.81969
 20
-66.95138
 40
0.301025
  0
LINE
  8
ボルト／ビス
  6
CONTINUOUS
 62
    64
 10
-4.914657
 20
-66.719917
 11
-4.666725
 21
-66.753407
  0
LINE
  8
ボルト／ビス
  6
CONTINUOUS
 62
    64
 10
-4.57176
 20
-66.98487
 11
-4.666725
 21
-66.753407
  0
LINE
  8
ボルト／ビス
  6
CONTINUOUS
 62
    64
 10
-5.067625
 20
-66.91789
 11
-4.97266
 21
-67.149352
  0
LINE
  8
ボルト／ビス
  6
CONTINUOUS
 62
    64
 10
-4.724725
 20
-67.182842
 11
-4.97266
 21
-67.149352
  0
LINE
  8
ボルト／ビス
  6
CONTINUOUS
 62
    64
 10
-4.914657
 20
-66.719917
 11
-5.067625
 21
-66.91789
  0
LINE
  8
ボルト／ビス
  6
CONTINUOUS
 62
    64
 10
-4.57176
 20
-66.98487
 11
-4.724725
 21
-67.182842
  0
CIRCLE
  8
ボルト／ビス
  6
CONTINUOUS
 62
    64
 10
-4.81969
 20
-66.95138
 40
0.216668
  0
ENDBLK
  0
BLOCK
  2
*GRP_0015
 70
    65
 10
0.0
 20
0.0
  0
LINE
  8
補助線
  6
BYBLOCK
 62
    64
 10
-4.75375
 20
-84.53381
 11
-4.885635
 21
-84.635715
  0
LINE
  8
補助線
  6
BYBLOCK
 62
    64
 10
-4.870645
 20
-84.51882
 11
-4.76874
 21
-84.650705
  0
LINE
  8
補助線
  6
BYBLOCK
 62
    64
 10
6.656875
 20
-75.71712
 11
6.52499
 21
-75.819023
  0
LINE
  8
補助線
  6
BYBLOCK
 62
    64
 10
6.53998
 20
-75.702128
 11
6.641883
 21
-75.834012
  0
LINE
  8
補助線
  6
BYBLOCK
 62
    64
 10
17.935618
 20
-67.002333
 11
18.067497
 21
-66.900428
  0
LINE
  8
補助線
  6
BYBLOCK
 62
    64
 10
17.950605
 20
-66.885435
 11
18.052507
 21
-67.017322
  0
LINE
  8
型材断面
  6
CONTINUOUS
 10
-5.592977
 20
-84.129148
 11
-5.68292
 21
-84.830512
  0
LINE
  8
型材断面
  6
CONTINUOUS
 10
-5.68292
 20
-84.830512
 11
-5.275305
 21
-85.35805
  0
LINE
  8
型材断面
  6
CONTINUOUS
 10
-5.275305
 20
-85.35805
 11
-4.573942
 21
-85.44799
  0
LINE
  8
型材断面
  6
CONTINUOUS
 10
17.755808
 20
-66.088152
 11
18.45717
 21
-66.178095
  0
LINE
  8
型材断面
  6
CONTINUOUS
 10
18.45717
 20
-66.178095
 11
18.864785
 21
-66.705632
  0
LINE
  8
型材断面
  6
CONTINUOUS
 10
18.864785
 20
-66.705632
 11
18.774842
 21
-67.406998
  0
LINE
  8
型材断面
  6
CONTINUOUS
 10
-4.573942
 20
-85.44799
 11
18.774842
 21
-67.406998
  0
LINE
  8
型材断面
  6
CONTINUOUS
 10
-5.592977
 20
-84.129148
 11
17.755808
 21
-66.088152
  0
CIRCLE
  8
ボルト／ビス
  6
CONTINUOUS
 10
-4.819693
 20
-84.584763
 40
0.250185
  0
CIRCLE
  8
ボルト／ビス
  6
CONTINUOUS
 10
-4.819693
 20
-84.584763
 40
0.301025
  0
LINE
  8
ボルト／ビス
  6
CONTINUOUS
 62
    64
 10
-5.067627
 20
-84.618253
 11
-4.972663
 21
-84.38679
  0
LINE
  8
ボルト／ビス
  6
CONTINUOUS
 62
    64
 10
-4.724727
 20
-84.3533
 11
-4.972663
 21
-84.38679
  0
LINE
  8
ボルト／ビス
  6
CONTINUOUS
 62
    64
 10
-4.914657
 20
-84.816225
 11
-4.666723
 21
-84.782735
  0
LINE
  8
ボルト／ビス
  6
CONTINUOUS
 62
    64
 10
-4.571757
 20
-84.551272
 11
-4.666723
 21
-84.782735
  0
LINE
  8
ボルト／ビス
  6
CONTINUOUS
 62
    64
 10
-5.067627
 20
-84.618253
 11
-4.914657
 21
-84.816225
  0
LINE
  8
ボルト／ビス
  6
CONTINUOUS
 62
    64
 10
-4.724727
 20
-84.3533
 11
-4.571757
 21
-84.551272
  0
CIRCLE
  8
ボルト／ビス
  6
CONTINUOUS
 62
    64
 10
-4.819693
 20
-84.584763
 40
0.216668
  0
CIRCLE
  8
ボルト／ビス
  6
CONTINUOUS
 10
6.590933
 20
-75.768073
 40
0.250185
  0
CIRCLE
  8
ボルト／ビス
  6
CONTINUOUS
 10
6.590933
 20
-75.768073
 40
0.301025
  0
LINE
  8
ボルト／ビス
  6
CONTINUOUS
 62
    64
 10
6.342997
 20
-75.80156
 11
6.437962
 21
-75.5701
  0
LINE
  8
ボルト／ビス
  6
CONTINUOUS
 62
    64
 10
6.685897
 20
-75.53661
 11
6.437962
 21
-75.5701
  0
LINE
  8
ボルト／ビス
  6
CONTINUOUS
 62
    64
 10
6.495965
 20
-75.999532
 11
6.7439
 21
-75.966043
  0
LINE
  8
ボルト／ビス
  6
CONTINUOUS
 62
    64
 10
6.838868
 20
-75.734583
 11
6.7439
 21
-75.966043
  0
LINE
  8
ボルト／ビス
  6
CONTINUOUS
 62
    64
 10
6.342997
 20
-75.80156
 11
6.495965
 21
-75.999532
  0
LINE
  8
ボルト／ビス
  6
CONTINUOUS
 62
    64
 10
6.685897
 20
-75.53661
 11
6.838868
 21
-75.734583
  0
CIRCLE
  8
ボルト／ビス
  6
CONTINUOUS
 62
    64
 10
6.590933
 20
-75.768073
 40
0.216668
  0
CIRCLE
  8
ボルト／ビス
  6
CONTINUOUS
 10
18.001555
 20
-66.95138
 40
0.250185
  0
CIRCLE
  8
ボルト／ビス
  6
CONTINUOUS
 10
18.001555
 20
-66.95138
 40
0.301025
  0
LINE
  8
ボルト／ビス
  6
CONTINUOUS
 62
    64
 10
18.096522
 20
-66.719917
 11
17.84859
 21
-66.753407
  0
LINE
  8
ボルト／ビス
  6
CONTINUOUS
 62
    64
 10
17.753625
 20
-66.98487
 11
17.84859
 21
-66.753407
  0
LINE
  8
ボルト／ビス
  6
CONTINUOUS
 62
    64
 10
18.24949
 20
-66.91789
 11
18.154525
 21
-67.149352
  0
LINE
  8
ボルト／ビス
  6
CONTINUOUS
 62
    64
 10
17.90659
 20
-67.182842
 11
18.154525
 21
-67.149352
  0
LINE
  8
ボルト／ビス
  6
CONTINUOUS
 62
    64
 10
18.096522
 20
-66.719917
 11
18.24949
 21
-66.91789
  0
LINE
  8
ボルト／ビス
  6
CONTINUOUS
 62
    64
 10
17.753625
 20
-66.98487
 11
17.90659
 21
-67.182842
  0
CIRCLE
  8
ボルト／ビス
  6
CONTINUOUS
 62
    64
 10
18.001555
 20
-66.95138
 40
0.216668
  0
ENDBLK
  0
BLOCK
  2
*DIM_0016
 70
    65
 10
0.0
 20
0.0
  0
LINE
  8
寸法
  6
BYBLOCK
 62
     0
 10
110.868155
 20
61.39905
 11
110.868155
 21
72.668433
  0
LINE
  8
寸法
  6
BYBLOCK
 62
     0
 10
117.901657
 20
61.715715
 11
117.901657
 21
72.668433
  0
LINE
  8
寸法
  6
BYBLOCK
 62
     0
 10
110.868155
 20
72.668433
 11
117.901657
 21
72.668433
  0
POINT
  8
寸法
 62
     0
 10
110.868155
 20
72.668433
  0
POINT
  8
寸法
 62
     0
 10
117.901657
 20
72.668433
  0
TEXT
  7
TextStyle03
  8
寸法
  6
CONTINUOUS
 62
     0
 10
111.9375
 20
73.025
  1
211
 40
3.0
 72
     5
 11
116.8125
 21
73.025
  0
ENDBLK
  0
BLOCK
  2
*DIM_0017
 70
    65
 10
0.0
 20
0.0
  0
LINE
  8
寸法
  6
BYBLOCK
 62
     0
 10
109.24494
 20
58.715715
 11
55.35454
 21
58.715715
  0
LINE
  8
寸法
  6
BYBLOCK
 62
     0
 10
55.35454
 20
56.73238
 11
55.35454
 21
58.715715
  0
POINT
  8
寸法
 62
     0
 10
55.35454
 20
56.73238
  0
POINT
  8
寸法
 62
     0
 10
55.35454
 20
58.715715
  0
TEXT
  7
TextStyle03
  8
寸法
  6
CONTINUOUS
 62
     0
 10
54.975
 20
61.16875
  1
59.5
 40
3.0
 50
90.0
 72
     5
 11
54.975
 21
67.73125
  0
ENDBLK
  0
BLOCK
  2
*DIM_0018
 70
    65
 10
0.0
 20
0.0
  0
LINE
  8
寸法
  6
BYBLOCK
 62
     0
 10
109.24494
 20
11.415715
 11
55.35454
 21
11.415715
  0
LINE
  8
寸法
  6
BYBLOCK
 62
     0
 10
55.35454
 20
13.399048
 11
55.35454
 21
11.415715
  0
POINT
  8
寸法
 62
     0
 10
55.35454
 20
13.399048
  0
POINT
  8
寸法
 62
     0
 10
55.35454
 20
11.415715
  0
TEXT
  7
TextStyle03
  8
寸法
  6
CONTINUOUS
 62
     0
 10
54.975
 20
2.36875
  1
59.5
 40
3.0
 50
90.0
 72
     5
 11
54.975
 21
8.93125
  0
ENDBLK
  0
BLOCK
  2
*DIM_0019
 70
    65
 10
0.0
 20
0.0
  0
LINE
  8
寸法
  6
BYBLOCK
 62
     0
 10
26.001557
 20
-79.624597
 11
37.30454
 21
-79.624597
  0
LINE
  8
寸法
  6
BYBLOCK
 62
     0
 10
26.318225
 20
-86.6581
 11
37.30454
 21
-86.6581
  0
LINE
  8
寸法
  6
BYBLOCK
 62
     0
 10
37.30454
 20
-79.624597
 11
37.30454
 21
-86.6581
  0
POINT
  8
寸法
 62
     0
 10
37.30454
 20
-79.624597
  0
POINT
  8
寸法
 62
     0
 10
37.30454
 20
-86.6581
  0
TEXT
  7
TextStyle03
  8
寸法
  6
CONTINUOUS
 62
     0
 10
36.95
 20
-85.5875
  1
211
 40
3.0
 50
90.0
 72
     5
 11
36.95
 21
-80.7125
  0
ENDBLK
  0
BLOCK
  2
*DIM_0020
 70
    65
 10
0.0
 20
0.0
  0
LINE
  8
寸法
  6
BYBLOCK
 62
     0
 10
23.318225
 20
-78.001383
 11
23.318225
 21
-22.536362
  0
LINE
  8
寸法
  6
BYBLOCK
 62
     0
 10
21.33489
 20
-22.536362
 11
23.318225
 21
-22.536362
  0
POINT
  8
寸法
 62
     0
 10
21.33489
 20
-22.536362
  0
POINT
  8
寸法
 62
     0
 10
23.318225
 20
-22.536362
  0
TEXT
  7
TextStyle03
  8
寸法
  6
CONTINUOUS
 62
     0
 10
25.81875
 20
-22.15
  1
59.5
 40
3.0
 72
     5
 11
32.38125
 21
-22.15
  0
ENDBLK
  0
BLOCK
  2
*DIM_0021
 70
    65
 10
0.0
 20
0.0
  0
LINE
  8
寸法
  6
BYBLOCK
 62
     0
 10
-80.648442
 20
-78.001383
 11
-80.648442
 21
-22.536362
  0
LINE
  8
寸法
  6
BYBLOCK
 62
     0
 10
-78.66511
 20
-22.536362
 11
-80.648442
 21
-22.536362
  0
POINT
  8
寸法
 62
     0
 10
-78.66511
 20
-22.536362
  0
POINT
  8
寸法
 62
     0
 10
-80.648442
 20
-22.536362
  0
TEXT
  7
TextStyle03
  8
寸法
  6
CONTINUOUS
 62
     0
 10
-89.68125
 20
-22.175
  1
59.5
 40
3.0
 72
     5
 11
-83.11875
 21
-22.175
  0
ENDBLK
  0
BLOCK
  2
*DIM_0022
 70
    65
 10
0.0
 20
0.0
  0
LINE
  8
寸法
  6
BYBLOCK
 62
     0
 10
-81.66511
 20
23.399048
 11
-110.610275
 21
23.399048
  0
LINE
  8
寸法
  6
BYBLOCK
 62
     0
 10
-81.66511
 20
46.732382
 11
-110.610275
 21
46.732382
  0
LINE
  8
寸法
  6
BYBLOCK
 62
     0
 10
-110.610275
 20
23.399048
 11
-110.610275
 21
46.732382
  0
POINT
  8
寸法
 62
     0
 10
-110.610275
 20
23.399048
  0
POINT
  8
寸法
 62
     0
 10
-110.610275
 20
46.732382
  0
TEXT
  7
TextStyle03
  8
寸法
  6
CONTINUOUS
 62
     0
 10
-110.975
 20
32.6125
  1
700
 40
3.0
 50
90.0
 72
     5
 11
-110.975
 21
37.4875
  0
ENDBLK
  0
BLOCK
  2
*DIM_0023
 70
    65
 10
0.0
 20
0.0
  0
LINE
  8
寸法
  6
BYBLOCK
 62
     0
 10
-68.66511
 20
59.73238
 11
-68.66511
 21
88.840452
  0
LINE
  8
寸法
  6
BYBLOCK
 62
     0
 10
-41.998442
 20
59.73238
 11
-41.998442
 21
88.840452
  0
LINE
  8
寸法
  6
BYBLOCK
 62
     0
 10
-68.66511
 20
88.840452
 11
-41.998442
 21
88.840452
  0
POINT
  8
寸法
 62
     0
 10
-68.66511
 20
88.840452
  0
POINT
  8
寸法
 62
     0
 10
-41.998442
 20
88.840452
  0
TEXT
  7
TextStyle03
  8
寸法
  6
CONTINUOUS
 62
     0
 10
-57.7875
 20
89.2
  1
800
 40
3.0
 72
     5
 11
-52.9125
 21
89.2
  0
ENDBLK
  0
BLOCK
  2
*DIM_0024
 70
    65
 10
0.0
 20
0.0
  0
LINE
  8
寸法
  6
BYBLOCK
 62
     0
 10
-15.331778
 20
59.73238
 11
-15.331778
 21
88.840452
  0
LINE
  8
寸法
  6
BYBLOCK
 62
     0
 10
-41.998442
 20
88.840452
 11
-15.331778
 21
88.840452
  0
POINT
  8
寸法
 62
     0
 10
-15.331778
 20
88.840452
  0
TEXT
  7
TextStyle03
  8
寸法
  6
CONTINUOUS
 62
     0
 10
-31.1125
 20
89.2
  1
800
 40
3.0
 72
     5
 11
-26.2375
 21
89.2
  0
ENDBLK
  0
BLOCK
  2
*DIM_0025
 70
    65
 10
0.0
 20
0.0
  0
LINE
  8
寸法
  6
BYBLOCK
 62
     0
 10
11.33489
 20
59.73238
 11
11.33489
 21
88.840452
  0
LINE
  8
寸法
  6
BYBLOCK
 62
     0
 10
-15.331778
 20
88.840452
 11
11.33489
 21
88.840452
  0
POINT
  8
寸法
 62
     0
 10
11.33489
 20
88.840452
  0
TEXT
  7
TextStyle03
  8
寸法
  6
CONTINUOUS
 62
     0
 10
-4.4375
 20
89.2
  1
800
 40
3.0
 72
     5
 11
0.4375
 21
89.2
  0
ENDBLK
  0
BLOCK
  2
*GRP_0027
 70
    65
 10
0.0
 20
0.0
  0
LINE
  8
ボルト／ビス
  6
CONTINUOUS
 10
110.868155
 20
12.73238
 11
110.40149
 21
12.73238
  0
LINE
  8
ボルト／ビス
  6
CONTINUOUS
 10
110.868155
 20
12.365715
 11
110.80149
 21
12.365715
  0
LINE
  8
ボルト／ビス
  6
CONTINUOUS
 10
110.80149
 20
12.365715
 11
110.80149
 21
13.099048
  0
LINE
  8
ボルト／ビス
  6
CONTINUOUS
 10
110.80149
 20
13.099048
 11
110.868155
 21
13.099048
  0
LINE
  8
ボルト／ビス
  6
CONTINUOUS
 10
110.868155
 20
12.365715
 11
110.868155
 21
13.099048
  0
LINE
  8
ボルト／ビス
  6
CONTINUOUS
 10
110.768155
 20
12.43238
 11
110.80149
 21
12.43238
  0
LINE
  8
ボルト／ビス
  6
CONTINUOUS
 10
110.768155
 20
12.43238
 11
110.768155
 21
13.03238
  0
LINE
  8
ボルト／ビス
  6
CONTINUOUS
 10
110.768155
 20
13.03238
 11
110.80149
 21
13.03238
  0
LINE
  8
ボルト／ビス
  6
CONTINUOUS
 62
    64
 10
110.568155
 20
12.572005
 11
110.57983
 21
12.53993
  0
ARC
  8
ボルト／ビス
  6
CONTINUOUS
 62
    64
 10
110.673134
 20
12.588044
 40
0.104978
 50
152.721967
 51
180.0
  0
ARC
  8
ボルト／ビス
  6
CONTINUOUS
 62
    64
 10
110.970558
 20
12.732382
 40
0.402402
 50
166.165002
 51
193.834985
  0
LINE
  8
ボルト／ビス
  6
CONTINUOUS
 62
    64
 10
110.568155
 20
12.892755
 11
110.57983
 21
12.92483
  0
ARC
  8
ボルト／ビス
  6
CONTINUOUS
 62
    64
 10
110.673134
 20
12.876719
 40
0.104978
 50
180.0
 51
207.278033
  0
LINE
  8
ボルト／ビス
  6
CONTINUOUS
 62
    64
 10
110.568155
 20
12.572005
 11
110.568155
 21
12.892755
  0
LINE
  8
ボルト／ビス
  6
CONTINUOUS
 62
    64
 10
110.57983
 20
12.92483
 11
110.70149
 21
12.92483
  0
LINE
  8
ボルト／ビス
  6
CONTINUOUS
 62
    64
 10
110.57983
 20
12.828605
 11
110.70149
 21
12.828605
  0
LINE
  8
ボルト／ビス
  6
CONTINUOUS
 62
    64
 10
110.57983
 20
12.53993
 11
110.70149
 21
12.53993
  0
LINE
  8
ボルト／ビス
  6
CONTINUOUS
 62
    64
 10
110.57983
 20
12.636155
 11
110.70149
 21
12.636155
  0
LINE
  8
ボルト／ビス
  6
CONTINUOUS
 10
110.70149
 20
12.53993
 11
110.70149
 21
12.92483
  0
LINE
  8
ボルト／ビス
  6
CONTINUOUS
 10
110.70149
 20
12.53238
 11
110.768155
 21
12.53238
  0
LINE
  8
ボルト／ビス
  6
CONTINUOUS
 10
110.70149
 20
12.53238
 11
110.70149
 21
12.93238
  0
LINE
  8
ボルト／ビス
  6
CONTINUOUS
 10
110.70149
 20
12.93238
 11
110.768155
 21
12.93238
  0
ENDBLK
  0
BLOCK
  2
*GRP_0028
 70
    65
 10
0.0
 20
0.0
  0
LINE
  8
ボルト／ビス
  6
CONTINUOUS
 10
110.868155
 20
57.39905
 11
110.40149
 21
57.39905
  0
LINE
  8
ボルト／ビス
  6
CONTINUOUS
 10
110.868155
 20
57.765715
 11
110.80149
 21
57.765715
  0
LINE
  8
ボルト／ビス
  6
CONTINUOUS
 10
110.80149
 20
57.765715
 11
110.80149
 21
57.032382
  0
LINE
  8
ボルト／ビス
  6
CONTINUOUS
 10
110.80149
 20
57.032382
 11
110.868155
 21
57.032382
  0
LINE
  8
ボルト／ビス
  6
CONTINUOUS
 10
110.868155
 20
57.765715
 11
110.868155
 21
57.032382
  0
LINE
  8
ボルト／ビス
  6
CONTINUOUS
 10
110.768155
 20
57.69905
 11
110.80149
 21
57.69905
  0
LINE
  8
ボルト／ビス
  6
CONTINUOUS
 10
110.768155
 20
57.69905
 11
110.768155
 21
57.09905
  0
LINE
  8
ボルト／ビス
  6
CONTINUOUS
 10
110.768155
 20
57.09905
 11
110.80149
 21
57.09905
  0
LINE
  8
ボルト／ビス
  6
CONTINUOUS
 62
    64
 10
110.568155
 20
57.559425
 11
110.57983
 21
57.5915
  0
ARC
  8
ボルト／ビス
  6
CONTINUOUS
 62
    64
 10
110.673134
 20
57.543386
 40
0.104978
 50
180.0
 51
207.278033
  0
ARC
  8
ボルト／ビス
  6
CONTINUOUS
 62
    64
 10
110.970558
 20
57.399048
 40
0.402402
 50
166.165015
 51
193.834998
  0
LINE
  8
ボルト／ビス
  6
CONTINUOUS
 62
    64
 10
110.568155
 20
57.238675
 11
110.57983
 21
57.2066
  0
ARC
  8
ボルト／ビス
  6
CONTINUOUS
 62
    64
 10
110.673134
 20
57.254711
 40
0.104978
 50
152.721967
 51
180.0
  0
LINE
  8
ボルト／ビス
  6
CONTINUOUS
 62
    64
 10
110.568155
 20
57.559425
 11
110.568155
 21
57.238675
  0
LINE
  8
ボルト／ビス
  6
CONTINUOUS
 62
    64
 10
110.57983
 20
57.2066
 11
110.70149
 21
57.2066
  0
LINE
  8
ボルト／ビス
  6
CONTINUOUS
 62
    64
 10
110.57983
 20
57.302825
 11
110.70149
 21
57.302825
  0
LINE
  8
ボルト／ビス
  6
CONTINUOUS
 62
    64
 10
110.57983
 20
57.5915
 11
110.70149
 21
57.5915
  0
LINE
  8
ボルト／ビス
  6
CONTINUOUS
 62
    64
 10
110.57983
 20
57.495275
 11
110.70149
 21
57.495275
  0
LINE
  8
ボルト／ビス
  6
CONTINUOUS
 10
110.70149
 20
57.5915
 11
110.70149
 21
57.2066
  0
LINE
  8
ボルト／ビス
  6
CONTINUOUS
 10
110.70149
 20
57.59905
 11
110.768155
 21
57.59905
  0
LINE
  8
ボルト／ビス
  6
CONTINUOUS
 10
110.70149
 20
57.59905
 11
110.70149
 21
57.19905
  0
LINE
  8
ボルト／ビス
  6
CONTINUOUS
 10
110.70149
 20
57.19905
 11
110.768155
 21
57.19905
  0
ENDBLK
  0
BLOCK
  2
*GRP_0029
 70
    65
 10
0.0
 20
0.0
  0
LINE
  8
ボルト／ビス
  6
CONTINUOUS
 10
22.001557
 20
-79.624597
 11
22.001557
 21
-79.157932
  0
LINE
  8
ボルト／ビス
  6
CONTINUOUS
 10
22.368223
 20
-79.624597
 11
22.368223
 21
-79.557932
  0
LINE
  8
ボルト／ビス
  6
CONTINUOUS
 10
22.368223
 20
-79.557932
 11
21.63489
 21
-79.557932
  0
LINE
  8
ボルト／ビス
  6
CONTINUOUS
 10
21.63489
 20
-79.557932
 11
21.63489
 21
-79.624597
  0
LINE
  8
ボルト／ビス
  6
CONTINUOUS
 10
22.368223
 20
-79.624597
 11
21.63489
 21
-79.624597
  0
LINE
  8
ボルト／ビス
  6
CONTINUOUS
 10
22.301557
 20
-79.524597
 11
22.301557
 21
-79.557932
  0
LINE
  8
ボルト／ビス
  6
CONTINUOUS
 10
22.301557
 20
-79.524597
 11
21.701557
 21
-79.524597
  0
LINE
  8
ボルト／ビス
  6
CONTINUOUS
 10
21.701557
 20
-79.524597
 11
21.701557
 21
-79.557932
  0
LINE
  8
ボルト／ビス
  6
CONTINUOUS
 62
    64
 10
22.161932
 20
-79.324597
 11
22.194008
 21
-79.336272
  0
ARC
  8
ボルト／ビス
  6
CONTINUOUS
 62
    64
 10
22.145894
 20
-79.429577
 40
0.104978
 50
90.0
 51
117.278033
  0
ARC
  8
ボルト／ビス
  6
CONTINUOUS
 62
    64
 10
22.001556
 20
-79.727001
 40
0.402402
 50
76.165015
 51
103.834998
  0
LINE
  8
ボルト／ビス
  6
CONTINUOUS
 62
    64
 10
21.841182
 20
-79.324597
 11
21.809108
 21
-79.336272
  0
ARC
  8
ボルト／ビス
  6
CONTINUOUS
 62
    64
 10
21.857219
 20
-79.429577
 40
0.104978
 50
62.721967
 51
90.0
  0
LINE
  8
ボルト／ビス
  6
CONTINUOUS
 62
    64
 10
22.161932
 20
-79.324597
 11
21.841182
 21
-79.324597
  0
LINE
  8
ボルト／ビス
  6
CONTINUOUS
 62
    64
 10
21.809108
 20
-79.336272
 11
21.809108
 21
-79.457932
  0
LINE
  8
ボルト／ビス
  6
CONTINUOUS
 62
    64
 10
21.905333
 20
-79.336272
 11
21.905333
 21
-79.457932
  0
LINE
  8
ボルト／ビス
  6
CONTINUOUS
 62
    64
 10
22.194008
 20
-79.336272
 11
22.194008
 21
-79.457932
  0
LINE
  8
ボルト／ビス
  6
CONTINUOUS
 62
    64
 10
22.097782
 20
-79.336272
 11
22.097782
 21
-79.457932
  0
LINE
  8
ボルト／ビス
  6
CONTINUOUS
 10
22.194008
 20
-79.457932
 11
21.809108
 21
-79.457932
  0
LINE
  8
ボルト／ビス
  6
CONTINUOUS
 10
22.201557
 20
-79.457932
 11
22.201557
 21
-79.524597
  0
LINE
  8
ボルト／ビス
  6
CONTINUOUS
 10
22.201557
 20
-79.457932
 11
21.801557
 21
-79.457932
  0
LINE
  8
ボルト／ビス
  6
CONTINUOUS
 10
21.801557
 20
-79.457932
 11
21.801557
 21
-79.524597
  0
ENDBLK
  0
BLOCK
  2
*GRP_0030
 70
    65
 10
0.0
 20
0.0
  0
LINE
  8
ボルト／ビス
  6
DOT
 10
22.001557
 20
-64.624597
 11
22.001557
 21
-64.157932
  0
LINE
  8
ボルト／ビス
  6
DOT
 10
22.368223
 20
-64.624597
 11
22.368223
 21
-64.557932
  0
LINE
  8
ボルト／ビス
  6
DOT
 10
22.368223
 20
-64.557932
 11
21.63489
 21
-64.557932
  0
LINE
  8
ボルト／ビス
  6
DOT
 10
21.63489
 20
-64.557932
 11
21.63489
 21
-64.624597
  0
LINE
  8
ボルト／ビス
  6
DOT
 10
22.368223
 20
-64.624597
 11
21.63489
 21
-64.624597
  0
LINE
  8
ボルト／ビス
  6
DOT
 10
22.301557
 20
-64.524597
 11
22.301557
 21
-64.557932
  0
LINE
  8
ボルト／ビス
  6
DOT
 10
22.301557
 20
-64.524597
 11
21.701557
 21
-64.524597
  0
LINE
  8
ボルト／ビス
  6
DOT
 10
21.701557
 20
-64.524597
 11
21.701557
 21
-64.557932
  0
LINE
  8
ボルト／ビス
  6
DOT
 62
    64
 10
22.161932
 20
-64.324597
 11
22.194008
 21
-64.336272
  0
ARC
  8
ボルト／ビス
  6
DOT
 62
    64
 10
22.145894
 20
-64.429577
 40
0.104978
 50
90.0
 51
117.278033
  0
ARC
  8
ボルト／ビス
  6
DOT
 62
    64
 10
22.001556
 20
-64.727001
 40
0.402402
 50
76.165015
 51
103.834998
  0
LINE
  8
ボルト／ビス
  6
DOT
 62
    64
 10
21.841182
 20
-64.324597
 11
21.809108
 21
-64.336272
  0
ARC
  8
ボルト／ビス
  6
DOT
 62
    64
 10
21.857219
 20
-64.429577
 40
0.104978
 50
62.721967
 51
90.0
  0
LINE
  8
ボルト／ビス
  6
DOT
 62
    64
 10
22.161932
 20
-64.324597
 11
21.841182
 21
-64.324597
  0
LINE
  8
ボルト／ビス
  6
DOT
 62
    64
 10
21.809108
 20
-64.336272
 11
21.809108
 21
-64.457932
  0
LINE
  8
ボルト／ビス
  6
DOT
 62
    64
 10
21.905333
 20
-64.336272
 11
21.905333
 21
-64.457932
  0
LINE
  8
ボルト／ビス
  6
DOT
 62
    64
 10
22.194008
 20
-64.336272
 11
22.194008
 21
-64.457932
  0
LINE
  8
ボルト／ビス
  6
DOT
 62
    64
 10
22.097782
 20
-64.336272
 11
22.097782
 21
-64.457932
  0
LINE
  8
ボルト／ビス
  6
DOT
 10
22.194008
 20
-64.457932
 11
21.809108
 21
-64.457932
  0
LINE
  8
ボルト／ビス
  6
DOT
 10
22.201557
 20
-64.457932
 11
22.201557
 21
-64.524597
  0
LINE
  8
ボルト／ビス
  6
DOT
 10
22.201557
 20
-64.457932
 11
21.801557
 21
-64.457932
  0
LINE
  8
ボルト／ビス
  6
DOT
 10
21.801557
 20
-64.457932
 11
21.801557
 21
-64.524597
  0
ENDBLK
  0
BLOCK
  2
*GRP_0031
 70
    65
 10
0.0
 20
0.0
  0
LINE
  8
ボルト／ビス
  6
CONTINUOUS
 10
-79.331778
 20
-79.624597
 11
-79.331778
 21
-79.157932
  0
LINE
  8
ボルト／ビス
  6
CONTINUOUS
 10
-79.698442
 20
-79.624597
 11
-79.698442
 21
-79.557932
  0
LINE
  8
ボルト／ビス
  6
CONTINUOUS
 10
-79.698442
 20
-79.557932
 11
-78.96511
 21
-79.557932
  0
LINE
  8
ボルト／ビス
  6
CONTINUOUS
 10
-78.96511
 20
-79.557932
 11
-78.96511
 21
-79.624597
  0
LINE
  8
ボルト／ビス
  6
CONTINUOUS
 10
-79.698442
 20
-79.624597
 11
-78.96511
 21
-79.624597
  0
LINE
  8
ボルト／ビス
  6
CONTINUOUS
 10
-79.631778
 20
-79.524597
 11
-79.631778
 21
-79.557932
  0
LINE
  8
ボルト／ビス
  6
CONTINUOUS
 10
-79.631778
 20
-79.524597
 11
-79.031778
 21
-79.524597
  0
LINE
  8
ボルト／ビス
  6
CONTINUOUS
 10
-79.031778
 20
-79.524597
 11
-79.031778
 21
-79.557932
  0
LINE
  8
ボルト／ビス
  6
CONTINUOUS
 62
    64
 10
-79.492152
 20
-79.324597
 11
-79.524227
 21
-79.336272
  0
ARC
  8
ボルト／ビス
  6
CONTINUOUS
 62
    64
 10
-79.476114
 20
-79.429577
 40
0.104978
 50
62.721967
 51
90.0
  0
ARC
  8
ボルト／ビス
  6
CONTINUOUS
 62
    64
 10
-79.331776
 20
-79.727001
 40
0.402402
 50
76.165002
 51
103.834985
  0
LINE
  8
ボルト／ビス
  6
CONTINUOUS
 62
    64
 10
-79.171403
 20
-79.324597
 11
-79.139328
 21
-79.336272
  0
ARC
  8
ボルト／ビス
  6
CONTINUOUS
 62
    64
 10
-79.187439
 20
-79.429577
 40
0.104978
 50
90.0
 51
117.278033
  0
LINE
  8
ボルト／ビス
  6
CONTINUOUS
 62
    64
 10
-79.492152
 20
-79.324597
 11
-79.171403
 21
-79.324597
  0
LINE
  8
ボルト／ビス
  6
CONTINUOUS
 62
    64
 10
-79.139328
 20
-79.336272
 11
-79.139328
 21
-79.457932
  0
LINE
  8
ボルト／ビス
  6
CONTINUOUS
 62
    64
 10
-79.235552
 20
-79.336272
 11
-79.235552
 21
-79.457932
  0
LINE
  8
ボルト／ビス
  6
CONTINUOUS
 62
    64
 10
-79.524227
 20
-79.336272
 11
-79.524227
 21
-79.457932
  0
LINE
  8
ボルト／ビス
  6
CONTINUOUS
 62
    64
 10
-79.428003
 20
-79.336272
 11
-79.428003
 21
-79.457932
  0
LINE
  8
ボルト／ビス
  6
CONTINUOUS
 10
-79.524227
 20
-79.457932
 11
-79.139328
 21
-79.457932
  0
LINE
  8
ボルト／ビス
  6
CONTINUOUS
 10
-79.531778
 20
-79.457932
 11
-79.531778
 21
-79.524597
  0
LINE
  8
ボルト／ビス
  6
CONTINUOUS
 10
-79.531778
 20
-79.457932
 11
-79.131778
 21
-79.457932
  0
LINE
  8
ボルト／ビス
  6
CONTINUOUS
 10
-79.131778
 20
-79.457932
 11
-79.131778
 21
-79.524597
  0
ENDBLK
  0
BLOCK
  2
*GRP_0032
 70
    65
 10
0.0
 20
0.0
  0
LINE
  8
ボルト／ビス
  6
DOT
 10
-79.331778
 20
-64.624597
 11
-79.331778
 21
-64.157932
  0
LINE
  8
ボルト／ビス
  6
DOT
 10
-79.698442
 20
-64.624597
 11
-79.698442
 21
-64.557932
  0
LINE
  8
ボルト／ビス
  6
DOT
 10
-79.698442
 20
-64.557932
 11
-78.96511
 21
-64.557932
  0
LINE
  8
ボルト／ビス
  6
DOT
 10
-78.96511
 20
-64.557932
 11
-78.96511
 21
-64.624597
  0
LINE
  8
ボルト／ビス
  6
DOT
 10
-79.698442
 20
-64.624597
 11
-78.96511
 21
-64.624597
  0
LINE
  8
ボルト／ビス
  6
DOT
 10
-79.631778
 20
-64.524597
 11
-79.631778
 21
-64.557932
  0
LINE
  8
ボルト／ビス
  6
DOT
 10
-79.631778
 20
-64.524597
 11
-79.031778
 21
-64.524597
  0
LINE
  8
ボルト／ビス
  6
DOT
 10
-79.031778
 20
-64.524597
 11
-79.031778
 21
-64.557932
  0
LINE
  8
ボルト／ビス
  6
DOT
 62
    64
 10
-79.492152
 20
-64.324597
 11
-79.524227
 21
-64.336272
  0
ARC
  8
ボルト／ビス
  6
DOT
 62
    64
 10
-79.476114
 20
-64.429577
 40
0.104978
 50
62.721967
 51
90.0
  0
ARC
  8
ボルト／ビス
  6
DOT
 62
    64
 10
-79.331776
 20
-64.727001
 40
0.402402
 50
76.165002
 51
103.834985
  0
LINE
  8
ボルト／ビス
  6
DOT
 62
    64
 10
-79.171403
 20
-64.324597
 11
-79.139328
 21
-64.336272
  0
ARC
  8
ボルト／ビス
  6
DOT
 62
    64
 10
-79.187439
 20
-64.429577
 40
0.104978
 50
90.0
 51
117.278033
  0
LINE
  8
ボルト／ビス
  6
DOT
 62
    64
 10
-79.492152
 20
-64.324597
 11
-79.171403
 21
-64.324597
  0
LINE
  8
ボルト／ビス
  6
DOT
 62
    64
 10
-79.139328
 20
-64.336272
 11
-79.139328
 21
-64.457932
  0
LINE
  8
ボルト／ビス
  6
DOT
 62
    64
 10
-79.235552
 20
-64.336272
 11
-79.235552
 21
-64.457932
  0
LINE
  8
ボルト／ビス
  6
DOT
 62
    64
 10
-79.524227
 20
-64.336272
 11
-79.524227
 21
-64.457932
  0
LINE
  8
ボルト／ビス
  6
DOT
 62
    64
 10
-79.428003
 20
-64.336272
 11
-79.428003
 21
-64.457932
  0
LINE
  8
ボルト／ビス
  6
DOT
 10
-79.524227
 20
-64.457932
 11
-79.139328
 21
-64.457932
  0
LINE
  8
ボルト／ビス
  6
DOT
 10
-79.531778
 20
-64.457932
 11
-79.531778
 21
-64.524597
  0
LINE
  8
ボルト／ビス
  6
DOT
 10
-79.531778
 20
-64.457932
 11
-79.131778
 21
-64.457932
  0
LINE
  8
ボルト／ビス
  6
DOT
 10
-79.131778
 20
-64.457932
 11
-79.131778
 21
-64.524597
  0
ENDBLK
  0
BLOCK
  2
*DIM_0033
 70
    65
 10
0.0
 20
0.0
  0
LINE
  8
寸法
  6
BYBLOCK
 62
     0
 10
2.668223
 20
-52.95793
 11
37.30454
 21
-52.95793
  0
LINE
  8
寸法
  6
BYBLOCK
 62
     0
 10
37.30454
 20
-67.95793
 11
37.30454
 21
-52.95793
  0
POINT
  8
寸法
 62
     0
 10
37.30454
 20
-67.95793
  0
POINT
  8
寸法
 62
     0
 10
37.30454
 20
-52.95793
  0
TEXT
  7
TextStyle03
  8
寸法
  6
CONTINUOUS
 62
     0
 10
36.425
 20
-50.9625
  1
上昇高さ450
 40
3.0
 50
90.0
 72
     5
 11
36.425
 21
-32.5875
  0
ENDBLK
  0
ENDSEC
  0
SECTION
  2
ENTITIES
  0
POLYLINE
  8
通り芯
  6
CONTINUOUS
 66
     1
 70
     1
  0
VERTEX
  8
通り芯
 10
-210.0
 20
-148.5
  0
VERTEX
  8
通り芯
 10
210.0
 20
-148.5
  0
VERTEX
  8
通り芯
 10
210.0
 20
148.5
  0
VERTEX
  8
通り芯
 10
-210.0
 20
148.5
  0
SEQEND
  0
INSERT
  2
*GRP_0001
  8
型材断面
  6
CONTINUOUS
 10
0.0
 20
0.0
  0
LINE
  8
型材断面
  6
DASHDOT
 10
21.33489
 20
-87.251428
 11
21.33489
 21
56.73238
  0
LINE
  8
型材断面
  6
DASHDOT
 10
-28.66511
 20
-87.251428
 11
-28.66511
 21
56.73238
  0
LINE
  8
型材断面
  6
DASHDOT
 10
-78.66511
 20
-87.251428
 11
-78.66511
 21
56.73238
  0
LINE
  8
型材断面
  6
DASHDOT
 10
119.011652
 20
13.399048
 11
-78.66511
 21
13.399048
  0
LINE
  8
型材断面
  6
DASHDOT
 10
119.011652
 20
35.065715
 11
-78.66511
 21
35.065715
  0
LINE
  8
型材断面
  6
DASHDOT
 10
119.011652
 20
56.73238
 11
-78.66511
 21
56.73238
  0
POLYLINE
  8
型材断面
  6
CONTINUOUS
 66
     1
 70
     1
  0
VERTEX
  8
型材断面
 10
-18.713223
 20
66.508305
  0
VERTEX
  8
型材断面
 10
-37.485153
 20
66.508305
  0
VERTEX
  8
型材断面
 10
-37.485153
 20
71.245147
  0
VERTEX
  8
型材断面
 10
-18.713223
 20
71.245147
  0
SEQEND
  0
POLYLINE
  8
型材断面
  6
CONTINUOUS
 66
     1
 70
     1
  0
VERTEX
  8
型材断面
 10
-18.713223
 20
3.623125
  0
VERTEX
  8
型材断面
 10
-37.485153
 20
3.623125
  0
VERTEX
  8
型材断面
 10
-37.485153
 20
-1.113717
  0
VERTEX
  8
型材断面
 10
-18.713223
 20
-1.113717
  0
SEQEND
  0
LINE
  8
型材断面
  6
CONTINUOUS
 10
-81.29524
 20
35.065715
 11
-83.885747
 21
36.561345
  0
LINE
  8
型材断面
  6
CONTINUOUS
 10
-81.29524
 20
35.065715
 11
-83.885747
 21
33.570085
  0
LINE
  8
型材断面
  6
CONTINUOUS
 10
-83.885747
 20
33.570085
 11
-83.885747
 21
36.561345
  0
LINE
  8
型材断面
  6
CONTINUOUS
 10
-61.998442
 20
59.36251
 11
-63.494073
 21
61.953017
  0
LINE
  8
型材断面
  6
CONTINUOUS
 10
-61.998442
 20
59.36251
 11
-60.502812
 21
61.953017
  0
LINE
  8
型材断面
  6
CONTINUOUS
 10
-60.502812
 20
61.953017
 11
-63.494073
 21
61.953017
  0
LINE
  8
型材断面
  6
CONTINUOUS
 10
-119.517317
 20
94.709852
 11
-118.921263
 21
92.119345
  0
LINE
  8
型材断面
  6
CONTINUOUS
 10
-119.517317
 20
94.709852
 11
-120.113375
 21
92.119345
  0
LINE
  8
型材断面
  6
CONTINUOUS
 10
-120.113375
 20
92.119345
 11
-118.921263
 21
92.119345
  0
LINE
  8
型材断面
  6
CONTINUOUS
 10
-125.539905
 20
88.840452
 11
-79.298128
 21
88.840452
  0
LINE
  8
型材断面
  6
CONTINUOUS
 10
-119.517317
 20
101.239727
 11
-121.012947
 21
98.64922
  0
LINE
  8
型材断面
  6
CONTINUOUS
 10
-119.517317
 20
101.239727
 11
-118.021688
 21
98.64922
  0
LINE
  8
型材断面
  6
CONTINUOUS
 10
-118.021688
 20
98.64922
 11
-121.012947
 21
98.64922
  0
LINE
  8
型材断面
  6
CONTINUOUS
 10
-125.539905
 20
97.710625
 11
-79.298128
 21
97.710625
  0
LINE
  8
型材断面
  6
CONTINUOUS
 10
-125.539905
 20
83.05242
 11
-79.298128
 21
83.05242
  0
LINE
  8
型材断面
  6
CONTINUOUS
 10
-61.998442
 20
10.76892
 11
-63.494073
 21
8.178413
  0
LINE
  8
型材断面
  6
CONTINUOUS
 10
-61.998442
 20
10.76892
 11
-60.502812
 21
8.178413
  0
LINE
  8
型材断面
  6
CONTINUOUS
 10
-60.502812
 20
8.178413
 11
-63.494073
 21
8.178413
  0
LINE
  8
型材断面
  6
CONTINUOUS
 10
23.96502
 20
35.065715
 11
26.555528
 21
36.561345
  0
LINE
  8
型材断面
  6
CONTINUOUS
 10
23.96502
 20
35.065715
 11
26.555528
 21
33.570085
  0
LINE
  8
型材断面
  6
CONTINUOUS
 10
26.555528
 20
33.570085
 11
26.555528
 21
36.561345
  0
LINE
  8
型材断面
  6
CONTINUOUS
 10
4.668223
 20
59.36251
 11
6.163853
 21
61.953017
  0
LINE
  8
型材断面
  6
CONTINUOUS
 10
4.668223
 20
59.36251
 11
3.172593
 21
61.953017
  0
LINE
  8
型材断面
  6
CONTINUOUS
 10
3.172593
 20
61.953017
 11
6.163853
 21
61.953017
  0
LINE
  8
型材断面
  6
CONTINUOUS
 10
4.668223
 20
10.76892
 11
6.163853
 21
8.178413
  0
LINE
  8
型材断面
  6
CONTINUOUS
 10
4.668223
 20
10.76892
 11
3.172593
 21
8.178413
  0
LINE
  8
型材断面
  6
CONTINUOUS
 10
3.172593
 20
8.178413
 11
6.163853
 21
8.178413
  0
LINE
  8
型材断面
  6
CONTINUOUS
 10
23.96502
 20
53.032382
 11
26.55553
 21
52.43633
  0
LINE
  8
型材断面
  6
CONTINUOUS
 10
23.96502
 20
53.032382
 11
26.555528
 21
53.628442
  0
LINE
  8
型材断面
  6
CONTINUOUS
 10
26.555528
 20
53.628442
 11
26.55553
 21
52.43633
  0
LINE
  8
型材断面
  6
CONTINUOUS
 10
23.96502
 20
17.099048
 11
26.55553
 21
17.6951
  0
LINE
  8
型材断面
  6
CONTINUOUS
 10
23.96502
 20
17.099048
 11
26.555528
 21
16.502988
  0
LINE
  8
型材断面
  6
CONTINUOUS
 10
26.555528
 20
16.502988
 11
26.55553
 21
17.6951
  0
LINE
  8
型材断面
  6
CONTINUOUS
 10
-81.29524
 20
53.032382
 11
-83.88575
 21
52.43633
  0
LINE
  8
型材断面
  6
CONTINUOUS
 10
-81.29524
 20
53.032382
 11
-83.885747
 21
53.628442
  0
LINE
  8
型材断面
  6
CONTINUOUS
 10
-83.885747
 20
53.628442
 11
-83.88575
 21
52.43633
  0
LINE
  8
型材断面
  6
CONTINUOUS
 10
-81.29524
 20
17.099048
 11
-83.88575
 21
17.6951
  0
LINE
  8
型材断面
  6
CONTINUOUS
 10
-81.29524
 20
17.099048
 11
-83.885747
 21
16.502988
  0
LINE
  8
型材断面
  6
CONTINUOUS
 10
-83.885747
 20
16.502988
 11
-83.88575
 21
17.6951
  0
INSERT
  2
*GRP_0012
  8
型材断面
  6
CONTINUOUS
 10
0.0
 20
0.0
  0
INSERT
  2
*GRP_0013
  8
型材断面
  6
CONTINUOUS
 10
0.0
 20
0.0
  0
INSERT
  2
*GRP_0014
  8
型材断面
  6
CONTINUOUS
 10
0.0
 20
0.0
  0
INSERT
  2
*GRP_0015
  8
型材断面
  6
CONTINUOUS
 10
0.0
 20
0.0
  0
LINE
  8
型材断面
  6
CONTINUOUS
 62
    47
 10
118.401657
 20
11.915715
 11
117.901657
 21
11.915715
  0
LINE
  8
型材断面
  6
CONTINUOUS
 62
    47
 10
117.901657
 20
11.415715
 11
114.58499
 21
11.415715
  0
LINE
  8
型材断面
  6
CONTINUOUS
 62
    47
 10
112.24494
 20
11.415715
 11
114.418273
 21
11.415715
  0
LINE
  8
型材断面
  6
CONTINUOUS
 62
    47
 10
112.24494
 20
12.299048
 11
111.868155
 21
12.299048
  0
LINE
  8
型材断面
  6
CONTINUOUS
 62
    47
 10
112.24494
 20
11.415715
 11
112.24494
 21
35.065715
  0
LINE
  8
型材断面
  6
CONTINUOUS
 62
    47
 10
114.58499
 20
11.415715
 11
114.584943
 21
35.065715
  0
LINE
  8
型材断面
  6
CONTINUOUS
 62
    47
 10
114.418273
 20
11.415715
 11
114.418273
 21
35.065715
  0
LINE
  8
型材断面
  6
CONTINUOUS
 62
    47
 10
118.401657
 20
11.915715
 11
118.401657
 21
35.065715
  0
LINE
  8
型材断面
  6
CONTINUOUS
 62
    47
 10
117.901657
 20
11.415715
 11
117.901657
 21
35.065715
  0
LINE
  8
型材断面
  6
CONTINUOUS
 62
    47
 10
118.401657
 20
58.215715
 11
117.901657
 21
58.215715
  0
LINE
  8
型材断面
  6
CONTINUOUS
 62
    47
 10
117.901657
 20
58.715715
 11
114.58499
 21
58.715715
  0
LINE
  8
型材断面
  6
CONTINUOUS
 62
    47
 10
112.24494
 20
58.715715
 11
114.418273
 21
58.715715
  0
LINE
  8
型材断面
  6
CONTINUOUS
 62
    47
 10
112.24494
 20
57.832382
 11
111.868155
 21
57.832382
  0
LINE
  8
型材断面
  6
CONTINUOUS
 62
    47
 10
112.24494
 20
58.715715
 11
112.24494
 21
35.065715
  0
LINE
  8
型材断面
  6
CONTINUOUS
 62
    47
 10
114.58499
 20
58.715715
 11
114.584943
 21
35.065715
  0
LINE
  8
型材断面
  6
CONTINUOUS
 62
    47
 10
114.418273
 20
58.715715
 11
114.418273
 21
35.065715
  0
LINE
  8
型材断面
  6
CONTINUOUS
 62
    47
 10
118.401657
 20
58.215715
 11
118.401657
 21
35.065715
  0
LINE
  8
型材断面
  6
CONTINUOUS
 62
    47
 10
117.901657
 20
58.715715
 11
117.901657
 21
35.065715
  0
LINE
  8
型材断面
  6
CONTINUOUS
 62
    47
 10
22.818225
 20
-87.1581
 11
22.818225
 21
-86.6581
  0
LINE
  8
型材断面
  6
CONTINUOUS
 62
    47
 10
23.318225
 20
-86.6581
 11
23.318225
 21
-83.341432
  0
LINE
  8
型材断面
  6
CONTINUOUS
 62
    47
 10
23.318225
 20
-81.001383
 11
23.318225
 21
-83.174715
  0
LINE
  8
型材断面
  6
CONTINUOUS
 62
    47
 10
22.434893
 20
-81.001383
 11
22.434893
 21
-80.624597
  0
LINE
  8
型材断面
  6
CONTINUOUS
 62
    47
 10
22.818225
 20
-87.1581
 11
-28.66511
 21
-87.1581
  0
LINE
  8
型材断面
  6
CONTINUOUS
 62
    47
 10
23.318225
 20
-86.6581
 11
-28.66511
 21
-86.6581
  0
LINE
  8
型材断面
  6
CONTINUOUS
 62
    47
 10
23.318225
 20
-83.341432
 11
-28.66511
 21
-83.341333
  0
LINE
  8
型材断面
  6
CONTINUOUS
 62
    47
 10
23.318225
 20
-83.174715
 11
-28.66511
 21
-83.174715
  0
LINE
  8
型材断面
  6
CONTINUOUS
 62
    47
 10
23.318225
 20
-81.001383
 11
-28.66511
 21
-81.001383
  0
LINE
  8
型材断面
  6
CONTINUOUS
 62
    47
 10
-80.148442
 20
-87.1581
 11
-80.148442
 21
-86.6581
  0
LINE
  8
型材断面
  6
CONTINUOUS
 62
    47
 10
-80.648442
 20
-86.6581
 11
-80.648442
 21
-83.341432
  0
LINE
  8
型材断面
  6
CONTINUOUS
 62
    47
 10
-80.648442
 20
-81.001383
 11
-80.648442
 21
-83.174715
  0
LINE
  8
型材断面
  6
CONTINUOUS
 62
    47
 10
-79.76511
 20
-81.001383
 11
-79.76511
 21
-80.624597
  0
LINE
  8
型材断面
  6
CONTINUOUS
 62
    47
 10
-80.648442
 20
-83.341432
 11
-28.66511
 21
-83.341335
  0
LINE
  8
型材断面
  6
CONTINUOUS
 62
    47
 10
-80.648442
 20
-83.174715
 11
-28.66511
 21
-83.174715
  0
LINE
  8
型材断面
  6
CONTINUOUS
 62
    47
 10
-80.148442
 20
-87.1581
 11
-28.66511
 21
-87.1581
  0
LINE
  8
型材断面
  6
CONTINUOUS
 62
    47
 10
-80.648442
 20
-86.6581
 11
-28.66511
 21
-86.6581
  0
LINE
  8
型材断面
  6
CONTINUOUS
 62
    47
 10
-80.648442
 20
-81.001383
 11
-28.66511
 21
-81.001383
  0
LINE
  8
型材断面
  6
CONTINUOUS
 10
-125.539905
 20
77.264387
 11
-79.298128
 21
77.264387
  0
LINE
  8
型材断面
  6
DASHDOT
 10
-45.398442
 20
13.399048
 11
-45.398442
 21
56.73238
  0
LINE
  8
型材断面
  6
DOT
 10
-44.148442
 20
13.399048
 11
-44.148442
 21
56.73238
  0
LINE
  8
型材断面
  6
DOT
 10
-46.648442
 20
13.399048
 11
-46.648442
 21
56.73238
  0
LINE
  8
型材断面
  6
DASHDOT
 10
-11.931778
 20
13.399048
 11
-11.931778
 21
56.73238
  0
LINE
  8
型材断面
  6
DOT
 10
-13.181778
 20
13.399048
 11
-13.181778
 21
56.73238
  0
LINE
  8
型材断面
  6
DOT
 10
-10.681778
 20
13.399048
 11
-10.681778
 21
56.73238
  0
TEXT
  7
TextStyle03
  8
文字
  6
CONTINUOUS
 10
97.9
 20
-86.1
  1
網入り6.8t
 40
3.0
 72
     5
 11
114.5875
 21
-86.1
  0
TEXT
  7
TextStyle03
  8
文字
  6
CONTINUOUS
 10
104.575
 20
-90.775
  1
×３枚
 40
3.0
 72
     5
 11
114.325
 21
-90.775
  0
TEXT
  7
TextStyle03
  8
文字
  6
CONTINUOUS
 10
-36.425
 20
67.2
  1
可動装置側
 40
3.0
 72
     5
 11
-19.925
 21
67.2
  0
TEXT
  7
TextStyle03
  8
文字
  6
CONTINUOUS
 10
-36.425
 20
-0.075
  1
可動装置側
 40
3.0
 72
     5
 11
-19.925
 21
-0.075
  0
TEXT
  7
TextStyle03
  8
文字
  6
CONTINUOUS
 10
-116.75
 20
93.325
  1
はケーシング位置を示す
 40
3.0
 72
     5
 11
-80.0
 21
93.325
  0
TEXT
  7
TextStyle03
  8
文字
  6
CONTINUOUS
 10
-116.75
 20
89.95
  1
４ヶ所中1ヶ所に設定
 40
3.0
 72
     5
 11
-85.0625
 21
89.95
  0
TEXT
  7
TextStyle03
  8
文字
  6
CONTINUOUS
 10
-116.75
 20
98.85
  1
は排水穴位置を示す
 40
3.0
 72
     5
 11
-86.75
 21
98.85
  0
TEXT
  7
TextStyle03
  8
文字
  6
CONTINUOUS
 10
-120.475
 20
83.975
  1
アンカー数量　１２ヶ所
 40
3.0
 72
     5
 11
-83.725
 21
83.975
  0
TEXT
  7
TextStyle03
  8
文字
  6
CONTINUOUS
 10
-116.175
 20
23.975
  1
アンカーピッチ
 40
3.0
 50
90.0
 72
     5
 11
-116.175
 21
47.225
  0
TEXT
  7
TextStyle03
  8
文字
  6
CONTINUOUS
 10
-68.7
 20
94.125
  1
アンカーピッチ
 40
3.0
 72
     5
 11
-45.45
 21
94.125
  0
TEXT
  7
TextStyle03
  8
文字
  6
CONTINUOUS
 10
-120.475
 20
78.2
  1
アームユニット数　４ヶ所
 40
3.0
 72
     5
 11
-80.35
 21
78.2
  0
TEXT
  7
TextStyle03
  8
文字
  6
CONTINUOUS
 10
78.1
 20
125.25
  1
シリーズ：ＴＤ２Ｌ
 40
5.0
 72
     5
 11
128.1
 21
125.25
  0
TEXT
  7
TextStyle03
  8
文字
  6
CONTINUOUS
 10
78.1
 20
119.625
  1
　　　　　（上下可動）1300×3000タイプ
 40
5.0
 72
     5
 11
184.35
 21
119.625
  0
TEXT
  7
TextStyle03
  8
文字
  6
CONTINUOUS
 10
78.1
 20
114.0
  1
図面名　：外観姿図
 40
5.0
 72
     5
 11
128.1
 21
114.0
  0
TEXT
  7
TextStyle03
  8
文字
  6
CONTINUOUS
 10
78.1
 20
108.375
  1
　　　　　　
 40
5.0
 72
     5
 11
111.225
 21
108.375
  0
TEXT
  7
TextStyle03
  8
文字
  6
CONTINUOUS
 10
77.125
 20
103.95
  1
ＮＳコード：ＮＳＤＺＬ
 40
5.0
 72
     5
 11
138.375
 21
103.95
  0
INSERT
  2
*DIM_0002
  8
寸法
  6
CONTINUOUS
 10
0.0
 20
0.0
  0
INSERT
  2
*DIM_0003
  8
寸法
  6
CONTINUOUS
 10
0.0
 20
0.0
  0
INSERT
  2
*DIM_0004
  8
寸法
  6
CONTINUOUS
 10
0.0
 20
0.0
  0
INSERT
  2
*DIM_0005
  8
寸法
  6
CONTINUOUS
 10
0.0
 20
0.0
  0
INSERT
  2
*DIM_0006
  8
寸法
  6
CONTINUOUS
 10
0.0
 20
0.0
  0
INSERT
  2
*DIM_0007
  8
寸法
  6
CONTINUOUS
 10
0.0
 20
0.0
  0
INSERT
  2
*DIM_0008
  8
寸法
  6
CONTINUOUS
 10
0.0
 20
0.0
  0
INSERT
  2
*DIM_0009
  8
寸法
  6
CONTINUOUS
 10
0.0
 20
0.0
  0
INSERT
  2
*DIM_0010
  8
寸法
  6
CONTINUOUS
 10
0.0
 20
0.0
  0
INSERT
  2
*DIM_0016
  8
寸法
  6
CONTINUOUS
 10
0.0
 20
0.0
  0
INSERT
  2
*DIM_0017
  8
寸法
  6
CONTINUOUS
 10
0.0
 20
0.0
  0
INSERT
  2
*DIM_0018
  8
寸法
  6
CONTINUOUS
 10
0.0
 20
0.0
  0
INSERT
  2
*DIM_0019
  8
寸法
  6
CONTINUOUS
 10
0.0
 20
0.0
  0
INSERT
  2
*DIM_0020
  8
寸法
  6
CONTINUOUS
 10
0.0
 20
0.0
  0
INSERT
  2
*DIM_0021
  8
寸法
  6
CONTINUOUS
 10
0.0
 20
0.0
  0
INSERT
  2
*DIM_0022
  8
寸法
  6
CONTINUOUS
 10
0.0
 20
0.0
  0
INSERT
  2
*DIM_0023
  8
寸法
  6
CONTINUOUS
 10
0.0
 20
0.0
  0
INSERT
  2
*DIM_0024
  8
寸法
  6
CONTINUOUS
 10
0.0
 20
0.0
  0
INSERT
  2
*DIM_0025
  8
寸法
  6
CONTINUOUS
 10
0.0
 20
0.0
  0
INSERT
  2
*DIM_0033
  8
寸法
  6
CONTINUOUS
 10
0.0
 20
0.0
  0
LINE
  8
別途部材
  6
CONTINUOUS
 10
23.401557
 20
11.33238
 11
23.001557
 21
11.73238
  0
LINE
  8
別途部材
  6
CONTINUOUS
 10
21.33489
 20
13.399048
 11
13.275635
 21
21.458305
  0
LINE
  8
別途部材
  6
CONTINUOUS
 62
    96
 10
110.868155
 20
11.73238
 11
111.868155
 21
11.33238
  0
LINE
  8
別途部材
  6
CONTINUOUS
 10
23.001557
 20
11.73238
 11
23.001557
 21
35.065715
  0
LINE
  8
別途部材
  6
CONTINUOUS
 10
23.401557
 20
11.33238
 11
23.401557
 21
35.065715
  0
LINE
  8
別途部材
  6
CONTINUOUS
 10
23.401557
 20
58.79905
 11
23.001557
 21
58.39905
  0
LINE
  8
別途部材
  6
CONTINUOUS
 10
21.33489
 20
56.732382
 11
13.275635
 21
48.673125
  0
LINE
  8
別途部材
  6
CONTINUOUS
 10
23.001557
 20
58.39905
 11
23.001557
 21
35.065715
  0
LINE
  8
別途部材
  6
CONTINUOUS
 10
23.401557
 20
58.79905
 11
23.401557
 21
35.065715
  0
LINE
  8
別途部材
  6
CONTINUOUS
 10
111.868155
 20
11.33238
 11
111.868155
 21
35.065715
  0
LINE
  8
別途部材
  6
CONTINUOUS
 62
    96
 10
110.868155
 20
11.73238
 11
110.868155
 21
35.065715
  0
LINE
  8
別途部材
  6
CONTINUOUS
 62
    96
 10
110.868155
 20
58.39905
 11
111.868155
 21
58.79905
  0
LINE
  8
別途部材
  6
CONTINUOUS
 10
111.868155
 20
58.79905
 11
111.868155
 21
35.065715
  0
LINE
  8
別途部材
  6
CONTINUOUS
 62
    96
 10
110.868155
 20
58.39905
 11
110.868155
 21
35.065715
  0
ARC
  8
別途部材
  6
CONTINUOUS
 10
125.153867
 20
35.065713
 40
25.95238
 50
123.398485
 51
236.601515
  0
LINE
  8
別途部材
  6
CONTINUOUS
 10
23.401557
 20
58.79905
 11
-28.66511
 21
58.79905
  0
LINE
  8
別途部材
  6
CONTINUOUS
 10
23.001557
 20
58.39905
 11
-28.66511
 21
58.39905
  0
LINE
  8
別途部材
  6
CONTINUOUS
 10
23.001557
 20
11.73238
 11
-28.66511
 21
11.73238
  0
LINE
  8
別途部材
  6
CONTINUOUS
 10
23.401557
 20
11.33238
 11
-28.66511
 21
11.33238
  0
LINE
  8
別途部材
  6
CONTINUOUS
 10
-80.731778
 20
11.33238
 11
-80.331778
 21
11.73238
  0
LINE
  8
別途部材
  6
CONTINUOUS
 10
-78.66511
 20
13.399048
 11
-70.605855
 21
21.458305
  0
LINE
  8
別途部材
  6
CONTINUOUS
 10
-80.331778
 20
11.73238
 11
-80.331778
 21
35.065715
  0
LINE
  8
別途部材
  6
CONTINUOUS
 10
-80.731778
 20
11.33238
 11
-80.731778
 21
35.065715
  0
LINE
  8
別途部材
  6
CONTINUOUS
 10
-80.731778
 20
58.79905
 11
-80.331778
 21
58.39905
  0
LINE
  8
別途部材
  6
CONTINUOUS
 10
-78.66511
 20
56.732382
 11
-70.605855
 21
48.673125
  0
LINE
  8
別途部材
  6
CONTINUOUS
 10
-80.331778
 20
58.39905
 11
-80.331778
 21
35.065715
  0
LINE
  8
別途部材
  6
CONTINUOUS
 10
-80.731778
 20
58.79905
 11
-80.731778
 21
35.065715
  0
LINE
  8
別途部材
  6
CONTINUOUS
 10
-80.731778
 20
58.79905
 11
-28.66511
 21
58.79905
  0
LINE
  8
別途部材
  6
CONTINUOUS
 10
-80.331778
 20
58.39905
 11
-28.66511
 21
58.39905
  0
LINE
  8
別途部材
  6
CONTINUOUS
 10
-80.331778
 20
11.73238
 11
-28.66511
 21
11.73238
  0
LINE
  8
別途部材
  6
CONTINUOUS
 10
-80.731778
 20
11.33238
 11
-28.66511
 21
11.33238
  0
LINE
  8
別途部材
  6
DOT
 62
    96
 10
23.001557
 20
-64.624597
 11
23.401557
 21
-65.624597
  0
ARC
  8
別途部材
  6
DOT
 10
-0.331778
 20
-78.910312
 40
25.952382
 50
33.398488
 51
90.0
  0
LINE
  8
別途部材
  6
DOT
 10
-0.331778
 20
-52.95793
 11
-28.66511
 21
-52.95793
  0
LINE
  8
別途部材
  6
DOT
 10
23.401557
 20
-65.624597
 11
-28.66511
 21
-65.624597
  0
LINE
  8
別途部材
  6
DOT
 62
    96
 10
23.001557
 20
-64.624597
 11
-28.66511
 21
-64.624597
  0
LINE
  8
別途部材
  6
DOT
 62
    96
 10
-80.331778
 20
-64.624597
 11
-80.731778
 21
-65.624597
  0
ARC
  8
別途部材
  6
DOT
 10
-56.998442
 20
-78.910312
 40
25.952382
 50
90.0
 51
146.601512
  0
LINE
  8
別途部材
  6
DOT
 10
-56.998442
 20
-52.95793
 11
-28.66511
 21
-52.95793
  0
LINE
  8
別途部材
  6
DOT
 10
-80.731778
 20
-65.624597
 11
-28.66511
 21
-65.624597
  0
LINE
  8
別途部材
  6
DOT
 62
    96
 10
-80.331778
 20
-64.624597
 11
-28.66511
 21
-64.624597
  0
INSERT
  2
*GRP_0011
  8
別途部材
  6
CONTINUOUS
 10
0.0
 20
0.0
  0
INSERT
  2
*GRP_0027
  8
別途部材
  6
DOT
 10
0.0
 20
0.0
  0
INSERT
  2
*GRP_0028
  8
別途部材
  6
DOT
 10
0.0
 20
0.0
  0
INSERT
  2
*GRP_0029
  8
別途部材
  6
DOT
 10
0.0
 20
0.0
  0
INSERT
  2
*GRP_0030
  8
別途部材
  6
DOT
 10
0.0
 20
0.0
  0
INSERT
  2
*GRP_0031
  8
別途部材
  6
DOT
 10
0.0
 20
0.0
  0
INSERT
  2
*GRP_0032
  8
別途部材
  6
DOT
 10
0.0
 20
0.0
  0
LINE
  8
曲げ物
  6
CONTINUOUS
 10
116.421445
 20
-92.533713
 11
116.421445
 21
-49.867045
  0
LINE
  8
曲げ物
  6
CONTINUOUS
 10
84.021445
 20
-92.533713
 11
84.021445
 21
-49.867045
  0
LINE
  8
曲げ物
  6
CONTINUOUS
 10
116.421445
 20
-49.867045
 11
84.021445
 21
-49.867045
  0
LINE
  8
曲げ物
  6
CONTINUOUS
 10
116.421445
 20
-92.533713
 11
84.021445
 21
-92.533713
  0
ENDSEC
  0
EOF
