  0
SECTION
  2
HEADER
  9
$EXTMIN
 10
-210.0
 20
-148.5
  9
$EXTMAX
 10
210.0
 20
148.5
  9
$PDMODE
 70
    32
  9
$PDSIZE
 40
1.5
  9
$LTSCALE
 40
10.0
  0
ENDSEC
  0
SECTION
  2
TABLES
  0
TABLE
  2
LTYPE
 70
    15
  0
LTYPE
  2
CONTINUOUS
 70
    64
  3
実線
 72
    65
 73
     0
 40
0.0
  0
LTYPE
  2
DASHED
 70
    64
  3
破線A
 72
    65
 73
     2
 40
0.6
 49
0.4
 49
-0.2
  0
LTYPE
  2
DASHEDX2
 70
    64
  3
破線B
 72
    65
 73
     2
 40
1.3
 49
0.9
 49
-0.4
  0
LTYPE
  2
DASHDOT
 70
    64
  3
１点鎖線A
 72
    65
 73
     4
 40
0.5375
 49
0.375
 49
-0.05
 49
0.0625
 49
-0.05
  0
LTYPE
  2
DASHDOTX2
 70
    64
  3
１点鎖線B
 72
    65
 73
     4
 40
1.075
 49
0.75
 49
-0.1
 49
0.125
 49
-0.1
  0
LTYPE
  2
DIVIDE2
 70
    64
  3
２点鎖線A
 72
    65
 73
     6
 40
0.5125
 49
0.3
 49
-0.0375
 49
0.05
 49
-0.0375
 49
0.05
 49
-0.0375
  0
LTYPE
  2
DIVIDE
 70
    64
  3
２点鎖線B
 72
    65
 73
     6
 40
1.05
 49
0.55
 49
-0.1
 49
0.1
 49
-0.1
 49
0.1
 49
-0.1
  0
LTYPE
  2
DOT
 70
    64
  3
点線A
 72
    65
 73
     2
 40
0.1125
 49
0.0625
 49
-0.05
  0
LTYPE
  2
DOTX2
 70
    64
  3
点線B
 72
    65
 73
     2
 40
0.275
 49
0.15
 49
-0.125
  0
LTYPE
  2
CONTINUOUS
 70
    64
  3
実線
 72
    65
 73
     0
 40
0.0
  0
LTYPE
  2
CONTINUOUS
 70
    64
  3
実線
 72
    65
 73
     0
 40
0.0
  0
LTYPE
  2
CONTINUOUS
 70
    64
  3
実線
 72
    65
 73
     0
 40
0.0
  0
LTYPE
  2
CONTINUOUS
 70
    64
  3
実線
 72
    65
 73
     0
 40
0.0
  0
LTYPE
  2
CONTINUOUS
 70
    64
  3
実線
 72
    65
 73
     0
 40
0.0
  0
LTYPE
  2
CONTINUOUS
 70
    64
  3
実線
 72
    65
 73
     0
 40
0.0
  0
ENDTAB
  0
TABLE
  2
LAYER
 70
    34
  0
LAYER
  2
通り芯
 70
     0
 62
    15
  6
CONTINUOUS
  0
LAYER
  2
補助線
 70
     0
 62
    16
  6
DOT
  0
LAYER
  2
躯体
 70
     0
 62
    31
  6
CONTINUOUS
  0
LAYER
  2
型材
 70
     0
 62
    32
  6
CONTINUOUS
  0
LAYER
  2
型材断面
 70
     0
 62
    47
  6
CONTINUOUS
  0
LAYER
  2
ガラス
 70
     0
 62
    48
  6
CONTINUOUS
  0
LAYER
  2
ゴム等
 70
     0
 62
    63
  6
CONTINUOUS
  0
LAYER
  2
ボルト／ビス
 70
     0
 62
    64
  6
CONTINUOUS
  0
LAYER
  2
文字
 70
     0
 62
    79
  6
CONTINUOUS
  0
LAYER
  2
寸法
 70
     0
 62
    80
  6
CONTINUOUS
  0
LAYER
  2
ﾊｯﾁﾝｸﾞ
 70
     0
 62
    95
  6
CONTINUOUS
  0
LAYER
  2
別途部材
 70
     0
 62
    96
  6
CONTINUOUS
  0
LAYER
  2
曲げ物
 70
     0
 62
   111
  6
CONTINUOUS
  0
LAYER
  2
鉄骨等
 70
     0
 62
   112
  6
CONTINUOUS
  0
LAYER
  2
St
 70
     0
 62
   127
  6
CONTINUOUS
  0
LAYER
  2
その他部品等
 70
     0
 62
   128
  6
CONTINUOUS
  0
LAYER
  2
ｶﾞｽｹｯﾄ
 70
     0
 62
   143
  6
CONTINUOUS
  0
LAYER
  2
ｽｹｯﾁ
 70
     0
 62
    14
  6
CONTINUOUS
  0
LAYER
  2
0
 70
     0
 62
    17
  6
CONTINUOUS
  0
LAYER
  2
1
 70
     0
 62
    30
  6
CONTINUOUS
  0
LAYER
  2
4
 70
     0
 62
    33
  6
CONTINUOUS
  0
LAYER
  2
ﾚｲﾔ3
 70
     0
 62
    46
  6
CONTINUOUS
  0
LAYER
  2
外形線
 70
     0
 62
    49
  6
CONTINUOUS
  0
LAYER
  2
部品
 70
     0
 62
    14
  6
CONTINUOUS
  0
LAYER
  2
サッシ芯
 70
     0
 62
    17
  6
DASHDOTX2
  0
LAYER
  2
寸法線
 70
     0
 62
    62
  6
CONTINUOUS
  0
LAYER
  2
姿図外形線
 70
     0
 62
    65
  6
CONTINUOUS
  0
LAYER
  2
姿補助線
 70
     0
 62
    30
  6
CONTINUOUS
  0
LAYER
  2
透視線
 70
     0
 62
    78
  6
DOT
  0
LAYER
  2
用紙
 70
     0
 62
    81
  6
CONTINUOUS
  0
LAYER
  2
実線図枠
 70
     0
 62
    94
  6
CONTINUOUS
  0
LAYER
  2
補助図枠
 70
     0
 62
    97
  6
CONTINUOUS
  0
LAYER
  2
建具記号
 70
     0
 62
   110
  6
CONTINUOUS
  0
LAYER
  2
補助文字
 70
     0
 62
   113
  6
CONTINUOUS
  0
ENDTAB
  0
TABLE
  2
STYLE
 70
    10
  0
STYLE
  2
STANDARD
 70
     0
 40
1.0
 41
1.0
 42
1.0
 50
0.0
 71
     0
  3
TXT
  4
BIGFONT
  0
STYLE
  2
TATE
 70
     4
 40
1.0
 41
1.0
 42
1.0
 50
0.0
 71
     0
  3
TXT
  4
BIGFONT
  0
STYLE
  2
TextStyle03
 70
     0
 40
1.0
 41
1.0
 42
1.0
 50
0.0
 71
     0
  3
MONOTXT
  4
BIGFONT
  0
STYLE
  2
TextStyle04
 70
     0
 40
1.0
 41
1.0
 42
1.0
 50
0.0
 71
     0
  3
MONOTXT
  4
BIGFONT
  0
STYLE
  2
TextStyle05
 70
     0
 40
1.0
 41
1.0
 42
1.0
 50
0.0
 71
     0
  3
MONOTXT
  4
BIGFONT
  0
STYLE
  2
TextStyle06
 70
     0
 40
1.0
 41
1.0
 42
1.0
 50
0.0
 71
     0
  3
MONOTXT
  4
BIGFONT
  0
STYLE
  2
TextStyle07
 70
     0
 40
1.0
 41
1.0
 42
1.0
 50
0.0
 71
     0
  3
MONOTXT
  4
BIGFONT
  0
STYLE
  2
TextStyle08
 70
     0
 40
1.0
 41
1.0
 42
1.0
 50
0.0
 71
     0
  3
MONOTXT
  4
BIGFONT
  0
STYLE
  2
TextStyle09
 70
     0
 40
1.0
 41
1.0
 42
1.0
 50
0.0
 71
     0
  3
MONOTXT
  4
BIGFONT
  0
STYLE
  2
TextStyle10
 70
     0
 40
1.0
 41
1.0
 42
1.0
 50
0.0
 71
     0
  3
MONOTXT
  4
BIGFONT
  0
ENDTAB
  0
ENDSEC
  0
SECTION
  2
BLOCKS
  0
BLOCK
  2
*HAT_0001
 70
    65
 10
0.0
 20
0.0
  0
LINE
  8
ゴム等
 10
-26.425
 20
15.5
 11
-25.925
 21
16.025
  0
LINE
  8
ゴム等
 10
-24.925
 20
17.0
 11
-24.925
 21
17.0
  0
LINE
  8
ゴム等
 10
-29.125
 20
13.725
 11
-28.45
 21
14.45
  0
LINE
  8
ゴム等
 10
-27.4
 20
15.5
 11
-25.925
 21
16.925
  0
LINE
  8
ゴム等
 10
-25.9
 20
17.0
 11
-24.925
 21
17.925
  0
LINE
  8
ゴム等
 10
-30.1
 20
13.725
 11
-28.925
 21
14.9
  0
LINE
  8
ゴム等
 10
-28.325
 20
15.5
 11
-25.6
 21
18.225
  0
LINE
  8
ゴム等
 10
-31.0
 20
13.725
 11
-26.5
 21
18.225
  0
LINE
  8
ゴム等
 10
-31.675
 20
14.025
 11
-27.475
 21
18.275
  0
LINE
  8
ゴム等
 10
-31.45
 20
15.2
 11
-28.075
 21
18.525
  0
LINE
  8
ゴム等
 10
-32.075
 20
15.5
 11
-28.825
 21
18.8
  0
LINE
  8
ゴム等
 10
-33.025
 20
15.5
 11
-29.575
 21
18.95
  0
LINE
  8
ゴム等
 10
-33.425
 20
16.025
 11
-30.475
 21
18.975
  0
LINE
  8
ゴム等
 10
-33.425
 20
17.0
 11
-31.525
 21
18.875
  0
LINE
  8
ゴム等
 10
-33.425
 20
17.925
 11
-32.825
 21
18.5
  0
ENDBLK
  0
BLOCK
  2
*HAT_0002
 70
    65
 10
0.0
 20
0.0
  0
LINE
  8
ゴム等
 10
-1.3
 20
54.3
 11
-0.95
 21
54.625
  0
LINE
  8
ゴム等
 10
-2.0
 20
54.3
 11
-0.95
 21
55.35
  0
LINE
  8
ゴム等
 10
-2.725
 20
54.3
 11
-0.95
 21
56.025
  0
LINE
  8
ゴム等
 10
-3.4
 20
54.3
 11
-0.95
 21
56.725
  0
LINE
  8
ゴム等
 10
-4.1
 20
54.3
 11
-1.625
 21
56.8
  0
LINE
  8
ゴム等
 10
-4.825
 20
54.3
 11
-2.3
 21
56.8
  0
LINE
  8
ゴム等
 10
-5.525
 20
54.3
 11
-3.025
 21
56.8
  0
LINE
  8
ゴム等
 10
-5.95
 20
54.55
 11
-3.725
 21
56.8
  0
LINE
  8
ゴム等
 10
-5.95
 20
55.275
 11
-4.45
 21
56.8
  0
LINE
  8
ゴム等
 10
-5.95
 20
55.975
 11
-5.15
 21
56.8
  0
LINE
  8
ゴム等
 10
-5.95
 20
56.7
 11
-5.875
 21
56.8
  0
ENDBLK
  0
BLOCK
  2
*HAT_0003
 70
    65
 10
0.0
 20
0.0
  0
LINE
  8
ゴム等
 10
-4.7
 20
60.175
 11
-5.8
 21
61.3
  0
LINE
  8
ゴム等
 10
-3.425
 20
60.175
 11
-5.8
 21
62.575
  0
LINE
  8
ゴム等
 10
-2.15
 20
60.175
 11
-5.275
 21
63.3
  0
LINE
  8
ゴム等
 10
-0.875
 20
60.175
 11
-4.0
 21
63.3
  0
LINE
  8
ゴム等
 10
-0.8
 20
61.375
 11
-2.725
 21
63.3
  0
LINE
  8
ゴム等
 10
-0.8
 20
62.65
 11
-1.45
 21
63.3
  0
ENDBLK
  0
BLOCK
  2
*HAT_0004
 70
    65
 10
0.0
 20
0.0
  0
LINE
  8
型材断面
  6
DOT
 10
-39.0
 20
-37.6
 11
-38.575
 21
-37.175
  0
LINE
  8
型材断面
  6
DOT
 10
-40.425
 20
-37.6
 11
-38.575
 21
-35.775
  0
LINE
  8
型材断面
  6
DOT
 10
-41.825
 20
-37.6
 11
-38.575
 21
-34.35
  0
LINE
  8
型材断面
  6
DOT
 10
-43.25
 20
-37.6
 11
-38.575
 21
-32.95
  0
LINE
  8
型材断面
  6
DOT
 10
-43.575
 20
-36.525
 11
-39.65
 21
-32.6
  0
LINE
  8
型材断面
  6
DOT
 10
-43.575
 20
-35.125
 11
-41.075
 21
-32.6
  0
LINE
  8
型材断面
  6
DOT
 10
-43.575
 20
-33.7
 11
-42.475
 21
-32.6
  0
ENDBLK
  0
BLOCK
  2
*HAT_0005
 70
    65
 10
0.0
 20
0.0
  0
LINE
  8
型材断面
  6
DOT
 10
-25.775
 20
46.5
 11
-25.35
 21
46.925
  0
LINE
  8
型材断面
  6
DOT
 10
-27.2
 20
46.5
 11
-25.35
 21
48.325
  0
LINE
  8
型材断面
  6
DOT
 10
-28.6
 20
46.5
 11
-25.35
 21
49.75
  0
LINE
  8
型材断面
  6
DOT
 10
-30.025
 20
46.5
 11
-25.35
 21
51.15
  0
LINE
  8
型材断面
  6
DOT
 10
-30.35
 20
47.575
 11
-26.425
 21
51.5
  0
LINE
  8
型材断面
  6
DOT
 10
-30.35
 20
48.975
 11
-27.85
 21
51.5
  0
LINE
  8
型材断面
  6
DOT
 10
-30.35
 20
50.4
 11
-29.25
 21
51.5
  0
ENDBLK
  0
BLOCK
  2
*HAT_0006
 70
    65
 10
0.0
 20
0.0
  0
LINE
  8
曲げ物
 10
-44.825
 20
14.925
 11
-44.6
 21
15.2
  0
LINE
  8
曲げ物
 10
-44.825
 20
15.35
 11
-44.6
 21
15.6
  0
LINE
  8
曲げ物
 10
-44.825
 20
15.8
 11
-44.6
 21
16.025
  0
LINE
  8
曲げ物
 10
-44.825
 20
16.2
 11
-44.6
 21
16.425
  0
LINE
  8
曲げ物
 10
-44.825
 20
16.625
 11
-44.6
 21
16.875
  0
LINE
  8
曲げ物
 10
-44.825
 20
17.025
 11
-44.6
 21
17.3
  0
LINE
  8
曲げ物
 10
-44.825
 20
17.475
 11
-44.6
 21
17.7
  0
LINE
  8
曲げ物
 10
-44.825
 20
17.9
 11
-44.6
 21
18.15
  0
LINE
  8
曲げ物
 10
-44.825
 20
18.3
 11
-44.6
 21
18.575
  0
LINE
  8
曲げ物
 10
-44.825
 20
18.75
 11
-44.6
 21
18.975
  0
LINE
  8
曲げ物
 10
-44.825
 20
19.175
 11
-44.6
 21
19.425
  0
LINE
  8
曲げ物
 10
-44.825
 20
19.575
 11
-44.6
 21
19.85
  0
LINE
  8
曲げ物
 10
-44.825
 20
20.0
 11
-44.6
 21
20.25
  0
LINE
  8
曲げ物
 10
-44.825
 20
20.45
 11
-44.6
 21
20.675
  0
LINE
  8
曲げ物
 10
-44.825
 20
20.85
 11
-44.6
 21
21.125
  0
LINE
  8
曲げ物
 10
-44.825
 20
21.275
 11
-44.6
 21
21.525
  0
LINE
  8
曲げ物
 10
-44.825
 20
21.725
 11
-44.6
 21
21.95
  0
LINE
  8
曲げ物
 10
-44.825
 20
22.125
 11
-44.6
 21
22.4
  0
LINE
  8
曲げ物
 10
-44.825
 20
22.55
 11
-44.6
 21
22.8
  0
LINE
  8
曲げ物
 10
-44.825
 20
23.0
 11
-44.6
 21
23.225
  0
LINE
  8
曲げ物
 10
-44.825
 20
23.4
 11
-44.6
 21
23.625
  0
LINE
  8
曲げ物
 10
-44.825
 20
23.825
 11
-44.6
 21
24.075
  0
LINE
  8
曲げ物
 10
-44.825
 20
24.225
 11
-44.6
 21
24.5
  0
LINE
  8
曲げ物
 10
-44.825
 20
24.675
 11
-44.6
 21
24.9
  0
LINE
  8
曲げ物
 10
-44.825
 20
25.1
 11
-44.6
 21
25.35
  0
LINE
  8
曲げ物
 10
-44.825
 20
25.5
 11
-44.6
 21
25.775
  0
LINE
  8
曲げ物
 10
-44.825
 20
25.95
 11
-44.6
 21
26.175
  0
LINE
  8
曲げ物
 10
-44.825
 20
26.375
 11
-44.6
 21
26.625
  0
LINE
  8
曲げ物
 10
-44.825
 20
26.775
 11
-44.6
 21
27.05
  0
LINE
  8
曲げ物
 10
-44.825
 20
27.225
 11
-44.6
 21
27.45
  0
LINE
  8
曲げ物
 10
-44.825
 20
27.65
 11
-44.6
 21
27.875
  0
LINE
  8
曲げ物
 10
-44.825
 20
28.05
 11
-44.6
 21
28.325
  0
LINE
  8
曲げ物
 10
-44.825
 20
28.475
 11
-44.6
 21
28.725
  0
LINE
  8
曲げ物
 10
-44.825
 20
28.925
 11
-44.6
 21
29.15
  0
LINE
  8
曲げ物
 10
-44.825
 20
29.325
 11
-44.6
 21
29.6
  0
LINE
  8
曲げ物
 10
-44.825
 20
29.75
 11
-44.725
 21
29.9
  0
ENDBLK
  0
BLOCK
  2
*HAT_0007
 70
    65
 10
0.0
 20
0.0
  0
LINE
  8
曲げ物
 10
-44.825
 20
-7.075
 11
-44.6
 21
-6.85
  0
LINE
  8
曲げ物
 10
-44.825
 20
-6.675
 11
-44.6
 21
-6.4
  0
LINE
  8
曲げ物
 10
-44.825
 20
-6.25
 11
-44.6
 21
-6.0
  0
LINE
  8
曲げ物
 10
-44.825
 20
-5.85
 11
-44.6
 21
-5.575
  0
LINE
  8
曲げ物
 10
-44.825
 20
-5.4
 11
-44.6
 21
-5.175
  0
LINE
  8
曲げ物
 10
-44.825
 20
-4.975
 11
-44.6
 21
-4.725
  0
LINE
  8
曲げ物
 10
-44.825
 20
-4.575
 11
-44.6
 21
-4.3
  0
LINE
  8
曲げ物
 10
-44.825
 20
-4.125
 11
-44.6
 21
-3.9
  0
LINE
  8
曲げ物
 10
-44.825
 20
-3.7
 11
-44.6
 21
-3.45
  0
LINE
  8
曲げ物
 10
-44.825
 20
-3.3
 11
-44.6
 21
-3.025
  0
LINE
  8
曲げ物
 10
-44.825
 20
-2.85
 11
-44.6
 21
-2.625
  0
LINE
  8
曲げ物
 10
-44.825
 20
-2.425
 11
-44.6
 21
-2.175
  0
LINE
  8
曲げ物
 10
-44.825
 20
-2.025
 11
-44.6
 21
-1.75
  0
LINE
  8
曲げ物
 10
-44.825
 20
-1.6
 11
-44.6
 21
-1.35
  0
LINE
  8
曲げ物
 10
-44.825
 20
-1.15
 11
-44.6
 21
-0.925
  0
LINE
  8
曲げ物
 10
-44.825
 20
-0.75
 11
-44.6
 21
-0.475
  0
LINE
  8
曲げ物
 10
-44.825
 20
-0.325
 11
-44.6
 21
-0.075
  0
LINE
  8
曲げ物
 10
-44.825
 20
0.125
 11
-44.6
 21
0.35
  0
LINE
  8
曲げ物
 10
-44.825
 20
0.525
 11
-44.6
 21
0.8
  0
LINE
  8
曲げ物
 10
-44.825
 20
0.95
 11
-44.6
 21
1.2
  0
LINE
  8
曲げ物
 10
-44.825
 20
1.4
 11
-44.6
 21
1.625
  0
LINE
  8
曲げ物
 10
-44.825
 20
1.8
 11
-44.6
 21
2.025
  0
LINE
  8
曲げ物
 10
-44.825
 20
2.225
 11
-44.6
 21
2.475
  0
LINE
  8
曲げ物
 10
-44.825
 20
2.625
 11
-44.6
 21
2.9
  0
LINE
  8
曲げ物
 10
-44.825
 20
3.075
 11
-44.6
 21
3.3
  0
LINE
  8
曲げ物
 10
-44.825
 20
3.5
 11
-44.6
 21
3.75
  0
LINE
  8
曲げ物
 10
-44.825
 20
3.9
 11
-44.6
 21
4.175
  0
LINE
  8
曲げ物
 10
-44.825
 20
4.35
 11
-44.6
 21
4.575
  0
LINE
  8
曲げ物
 10
-44.825
 20
4.775
 11
-44.6
 21
5.025
  0
LINE
  8
曲げ物
 10
-44.825
 20
5.175
 11
-44.6
 21
5.45
  0
LINE
  8
曲げ物
 10
-44.825
 20
5.6
 11
-44.6
 21
5.85
  0
LINE
  8
曲げ物
 10
-44.825
 20
6.05
 11
-44.6
 21
6.275
  0
LINE
  8
曲げ物
 10
-44.825
 20
6.45
 11
-44.6
 21
6.725
  0
LINE
  8
曲げ物
 10
-44.825
 20
6.875
 11
-44.6
 21
7.125
  0
LINE
  8
曲げ物
 10
-44.825
 20
7.325
 11
-44.6
 21
7.55
  0
LINE
  8
曲げ物
 10
-44.825
 20
7.725
 11
-44.675
 21
7.875
  0
ENDBLK
  0
BLOCK
  2
*HAT_0008
 70
    65
 10
0.0
 20
0.0
  0
LINE
  8
St
 10
-16.45
 20
64.225
 11
-15.5
 21
65.15
  0
LINE
  8
St
 10
-17.125
 20
64.225
 11
-15.8
 21
65.575
  0
LINE
  8
St
 10
-17.825
 20
64.225
 11
-16.325
 21
65.725
  0
LINE
  8
St
 10
-18.55
 20
64.225
 11
-17.05
 21
65.725
  0
LINE
  8
St
 10
-19.25
 20
64.225
 11
-17.75
 21
65.725
  0
LINE
  8
St
 10
-19.975
 20
64.225
 11
-18.475
 21
65.725
  0
LINE
  8
St
 10
-20.675
 20
64.225
 11
-19.175
 21
65.725
  0
LINE
  8
St
 10
-21.35
 20
64.225
 11
-19.85
 21
65.725
  0
LINE
  8
St
 10
-22.075
 20
64.225
 11
-20.575
 21
65.725
  0
LINE
  8
St
 10
-22.775
 20
64.225
 11
-21.275
 21
65.725
  0
LINE
  8
St
 10
-23.5
 20
64.225
 11
-22.0
 21
65.725
  0
LINE
  8
St
 10
-24.2
 20
64.225
 11
-22.7
 21
65.725
  0
LINE
  8
St
 10
-24.925
 20
64.225
 11
-23.425
 21
65.725
  0
LINE
  8
St
 10
-25.6
 20
64.225
 11
-24.1
 21
65.725
  0
LINE
  8
St
 10
-26.3
 20
64.225
 11
-24.8
 21
65.725
  0
LINE
  8
St
 10
-27.025
 20
64.225
 11
-25.525
 21
65.725
  0
LINE
  8
St
 10
-27.725
 20
64.225
 11
-26.225
 21
65.725
  0
LINE
  8
St
 10
-28.45
 20
64.225
 11
-26.95
 21
65.725
  0
LINE
  8
St
 10
-29.15
 20
64.225
 11
-27.65
 21
65.725
  0
LINE
  8
St
 10
-29.825
 20
64.225
 11
-28.325
 21
65.725
  0
LINE
  8
St
 10
-30.325
 20
64.475
 11
-29.05
 21
65.725
  0
LINE
  8
St
 10
-30.5
 20
65.0
 11
-29.75
 21
65.725
  0
ENDBLK
  0
BLOCK
  2
*HAT_0009
 70
    65
 10
0.0
 20
0.0
  0
LINE
  8
その他部品等
 10
-42.025
 20
-45.525
 11
-40.375
 21
-43.825
  0
LINE
  8
その他部品等
 10
-44.45
 20
-45.85
 11
-40.375
 21
-41.725
  0
LINE
  8
その他部品等
 10
-44.575
 20
-43.825
 11
-40.375
 21
-39.625
  0
LINE
  8
その他部品等
 10
-44.575
 20
-41.7
 11
-41.225
 21
-38.35
  0
LINE
  8
その他部品等
 10
-44.575
 20
-39.6
 11
-43.325
 21
-38.35
  0
LINE
  8
その他部品等
 10
-44.575
 20
-45.375
 11
-44.125
 21
-45.775
  0
LINE
  8
その他部品等
 10
-44.575
 20
-43.225
 11
-42.275
 21
-45.525
  0
LINE
  8
その他部品等
 10
-44.575
 20
-41.125
 11
-40.4
 21
-45.3
  0
LINE
  8
その他部品等
 10
-44.575
 20
-39.0
 11
-40.375
 21
-43.2
  0
LINE
  8
その他部品等
 10
-43.1
 20
-38.35
 11
-40.375
 21
-41.1
  0
LINE
  8
その他部品等
 10
-40.975
 20
-38.35
 11
-40.375
 21
-38.95
  0
ENDBLK
  0
BLOCK
  2
*HAT_0010
 70
    65
 10
0.0
 20
0.0
  0
LINE
  8
その他部品等
 10
-27.3
 20
-35.775
 11
-26.025
 21
-34.5
  0
LINE
  8
その他部品等
 10
-30.225
 20
-37.3
 11
-27.45
 21
-34.5
  0
LINE
  8
その他部品等
 10
-31.7
 20
-37.35
 11
-28.85
 21
-34.5
  0
LINE
  8
その他部品等
 10
-33.1
 20
-37.35
 11
-30.25
 21
-34.5
  0
LINE
  8
その他部品等
 10
-34.525
 20
-37.35
 11
-31.675
 21
-34.5
  0
LINE
  8
その他部品等
 10
-35.925
 20
-37.35
 11
-33.075
 21
-34.5
  0
LINE
  8
その他部品等
 10
-36.325
 20
-36.325
 11
-34.5
 21
-34.5
  0
LINE
  8
その他部品等
 10
-36.325
 20
-34.925
 11
-35.9
 21
-34.5
  0
LINE
  8
その他部品等
 10
-36.35
 20
-37.1
 11
-36.1
 21
-37.35
  0
LINE
  8
その他部品等
 10
-36.35
 20
-35.7
 11
-34.7
 21
-37.35
  0
LINE
  8
その他部品等
 10
-36.125
 20
-34.5
 11
-33.275
 21
-37.35
  0
LINE
  8
その他部品等
 10
-34.725
 20
-34.5
 11
-31.875
 21
-37.35
  0
LINE
  8
その他部品等
 10
-33.3
 20
-34.5
 11
-30.45
 21
-37.35
  0
LINE
  8
その他部品等
 10
-31.9
 20
-34.5
 11
-29.5
 21
-36.9
  0
LINE
  8
その他部品等
 10
-30.475
 20
-34.5
 11
-28.55
 21
-36.425
  0
LINE
  8
その他部品等
 10
-29.075
 20
-34.5
 11
-27.625
 21
-35.95
  0
LINE
  8
その他部品等
 10
-27.65
 20
-34.5
 11
-26.7
 21
-35.45
  0
LINE
  8
その他部品等
 10
-26.25
 20
-34.5
 11
-25.775
 21
-34.975
  0
ENDBLK
  0
BLOCK
  2
*HAT_0011
 70
    65
 10
0.0
 20
0.0
  0
LINE
  8
その他部品等
 10
-95.1
 20
-83.675
 11
-94.175
 21
-82.7
  0
LINE
  8
その他部品等
 10
-97.25
 20
-83.675
 11
-94.175
 21
-80.6
  0
LINE
  8
その他部品等
 10
-99.35
 20
-83.65
 11
-95.325
 21
-79.675
  0
LINE
  8
その他部品等
 10
-101.25
 20
-83.45
 11
-97.475
 21
-79.675
  0
LINE
  8
その他部品等
 10
-101.25
 20
-81.35
 11
-99.575
 21
-79.675
  0
LINE
  8
その他部品等
 10
-101.25
 20
-81.925
 11
-99.525
 21
-83.65
  0
LINE
  8
その他部品等
 10
-101.25
 20
-79.825
 11
-97.425
 21
-83.65
  0
LINE
  8
その他部品等
 10
-99.3
 20
-79.675
 11
-95.3
 21
-83.65
  0
LINE
  8
その他部品等
 10
-97.175
 20
-79.675
 11
-94.175
 21
-82.675
  0
LINE
  8
その他部品等
 10
-95.075
 20
-79.675
 11
-94.175
 21
-80.575
  0
ENDBLK
  0
BLOCK
  2
*GRP_0001
 70
    65
 10
0.0
 20
0.0
  0
LINE
  8
型材断面
  6
CONTINUOUS
 10
195.0
 20
133.5
 11
195.0
 21
-133.5
  0
LINE
  8
型材断面
  6
CONTINUOUS
 10
195.0
 20
-133.5
 11
-185.0
 21
-133.5
  0
LINE
  8
型材断面
  6
CONTINUOUS
 10
-185.0
 20
-133.5
 11
-185.0
 21
133.5
  0
LINE
  8
型材断面
  6
CONTINUOUS
 10
195.0
 20
133.5
 11
-185.0
 21
133.5
  0
LINE
  8
型材断面
  6
CONTINUOUS
 10
145.0
 20
-133.5
 11
145.0
 21
-118.5
  0
LINE
  8
型材断面
  6
CONTINUOUS
 10
195.0
 20
-118.5
 11
145.0
 21
-118.5
  0
ENDBLK
  0
BLOCK
  2
*GRP_0002
 70
    65
 10
0.0
 20
0.0
  0
LINE
  8
通り芯
  6
CONTINUOUS
 10
-25.575708
 20
43.769985
 11
-27.17571
 21
43.769985
  0
LINE
  8
通り芯
  6
CONTINUOUS
 10
-27.17571
 20
20.51998
 11
-27.17571
 21
43.769985
  0
LINE
  8
通り芯
  6
CONTINUOUS
 10
-25.575708
 20
20.51998
 11
-25.575708
 21
43.769985
  0
LINE
  8
通り芯
  6
CONTINUOUS
 10
-27.17571
 20
20.51998
 11
-25.575708
 21
20.51998
  0
LINE
  8
通り芯
  6
CONTINUOUS
 10
-27.17571
 20
40.067507
 11
-25.575708
 21
41.66751
  0
LINE
  8
通り芯
  6
CONTINUOUS
 10
-27.17571
 20
39.713957
 11
-25.575708
 21
41.31396
  0
LINE
  8
通り芯
  6
CONTINUOUS
 10
-27.17571
 20
25.651668
 11
-25.575708
 21
27.25167
  0
LINE
  8
通り芯
  6
CONTINUOUS
 10
-27.17571
 20
25.298118
 11
-25.575708
 21
26.89812
  0
ENDBLK
  0
BLOCK
  2
*GRP_0003
 70
    65
 10
0.0
 20
0.0
  0
LINE
  8
ゴム等
  6
CONTINUOUS
 10
-31.2985
 20
13.769238
 11
-28.7985
 21
13.769238
  0
LINE
  8
ゴム等
  6
CONTINUOUS
 10
-28.7985
 20
14.76924
 11
-28.7985
 21
15.51924
  0
LINE
  8
ゴム等
  6
CONTINUOUS
 10
-31.2985
 20
14.76924
 11
-31.2985
 21
15.51924
  0
LINE
  8
ゴム等
  6
CONTINUOUS
 10
-33.2985
 20
15.51924
 11
-31.2985
 21
15.51924
  0
LINE
  8
ゴム等
  6
CONTINUOUS
 10
-28.7985
 20
15.51924
 11
-25.7985
 21
15.51924
  0
LINE
  8
ゴム等
  6
CONTINUOUS
 10
-25.7985
 20
15.51924
 11
-25.7985
 21
17.01924
  0
LINE
  8
ゴム等
  6
CONTINUOUS
 10
-24.798502
 20
17.01924
 11
-25.7985
 21
17.01924
  0
LINE
  8
ゴム等
  6
CONTINUOUS
 10
-24.798502
 20
17.01924
 11
-24.798502
 21
18.269238
  0
ARC
  8
ゴム等
  6
CONTINUOUS
 10
-30.298494
 20
12.644238
 40
6.375
 50
61.927513
 51
118.072487
  0
LINE
  8
ゴム等
  6
CONTINUOUS
 10
-24.798502
 20
18.269238
 11
-27.2985
 21
18.269238
  0
LINE
  8
ゴム等
  6
CONTINUOUS
 10
-33.2985
 20
15.51924
 11
-33.2985
 21
18.269238
  0
LINE
  8
ゴム等
  6
CONTINUOUS
 10
-28.7985
 20
13.769238
 11
-28.34847
 21
14.367385
  0
ARC
  8
ゴム等
  6
CONTINUOUS
 10
-28.548494
 20
14.519238
 40
0.25
 50
322.618449
 51
450.0
  0
LINE
  8
ゴム等
  6
CONTINUOUS
 10
-28.7985
 20
14.76924
 11
-28.548502
 21
14.76924
  0
LINE
  8
ゴム等
  6
CONTINUOUS
 10
-31.2985
 20
13.769238
 11
-31.74853
 21
14.367385
  0
ARC
  8
ゴム等
  6
CONTINUOUS
 10
-31.548494
 20
14.519238
 40
0.25
 50
90.0
 51
217.381551
  0
LINE
  8
ゴム等
  6
CONTINUOUS
 10
-31.2985
 20
14.76924
 11
-31.548502
 21
14.76924
  0
INSERT
  2
*HAT_0001
  8
ゴム等
 10
0.0
 20
0.0
  0
ENDBLK
  0
BLOCK
  2
*GRP_0004
 70
    65
 10
0.0
 20
0.0
  0
LINE
  8
ボルト／ビス
  6
CONTINUOUS
 10
-20.825702
 20
30.519982
 11
-21.9757
 21
31.269982
  0
LINE
  8
ボルト／ビス
  6
CONTINUOUS
 10
-20.825702
 20
34.519982
 11
-21.9757
 21
33.769982
  0
LINE
  8
ボルト／ビス
  6
CONTINUOUS
 10
-20.825702
 20
30.519982
 11
-20.825702
 21
34.519982
  0
LINE
  8
ボルト／ビス
  6
CONTINUOUS
 10
-21.9757
 20
31.269982
 11
-21.9757
 21
33.769982
  0
LINE
  8
ボルト／ビス
  6
CONTINUOUS
 10
-19.633097
 20
32.51998
 11
-28.325702
 21
32.51998
  0
LINE
  8
ボルト／ビス
  6
CONTINUOUS
 10
-28.075702
 20
31.269977
 11
-28.325702
 21
31.51998
  0
LINE
  8
ボルト／ビス
  6
CONTINUOUS
 10
-28.075702
 20
33.76998
 11
-28.325702
 21
33.519977
  0
LINE
  8
ボルト／ビス
  6
CONTINUOUS
 10
-28.325702
 20
33.519977
 11
-28.325702
 21
31.51998
  0
LINE
  8
ボルト／ビス
  6
CONTINUOUS
 10
-28.075702
 20
33.76998
 11
-28.075702
 21
31.269977
  0
LINE
  8
ボルト／ビス
  6
CONTINUOUS
 10
-21.9757
 20
33.769982
 11
-28.075702
 21
33.769982
  0
LINE
  8
ボルト／ビス
  6
CONTINUOUS
 10
-21.9757
 20
31.269982
 11
-28.075702
 21
31.269982
  0
LINE
  8
ボルト／ビス
  6
CONTINUOUS
 10
-21.9757
 20
33.519982
 11
-28.325702
 21
33.519982
  0
LINE
  8
ボルト／ビス
  6
CONTINUOUS
 10
-21.9757
 20
31.519982
 11
-28.325702
 21
31.519982
  0
ENDBLK
  0
BLOCK
  2
*GRP_0005
 70
    65
 10
0.0
 20
0.0
  0
LINE
  8
ボルト／ビス
  6
CONTINUOUS
 10
-20.825702
 20
20.519985
 11
-21.9757
 21
21.269985
  0
LINE
  8
ボルト／ビス
  6
CONTINUOUS
 10
-20.825702
 20
24.519985
 11
-21.9757
 21
23.769985
  0
LINE
  8
ボルト／ビス
  6
CONTINUOUS
 10
-20.825702
 20
20.519985
 11
-20.825702
 21
24.519985
  0
LINE
  8
ボルト／ビス
  6
CONTINUOUS
 10
-21.9757
 20
21.269985
 11
-21.9757
 21
23.769985
  0
LINE
  8
ボルト／ビス
  6
CONTINUOUS
 10
-19.633097
 20
22.519982
 11
-28.325702
 21
22.519982
  0
LINE
  8
ボルト／ビス
  6
CONTINUOUS
 10
-28.075702
 20
21.26998
 11
-28.325702
 21
21.519982
  0
LINE
  8
ボルト／ビス
  6
CONTINUOUS
 10
-28.075702
 20
23.769982
 11
-28.325702
 21
23.51998
  0
LINE
  8
ボルト／ビス
  6
CONTINUOUS
 10
-28.325702
 20
23.51998
 11
-28.325702
 21
21.519982
  0
LINE
  8
ボルト／ビス
  6
CONTINUOUS
 10
-28.075702
 20
23.769982
 11
-28.075702
 21
21.26998
  0
LINE
  8
ボルト／ビス
  6
CONTINUOUS
 10
-21.9757
 20
23.769985
 11
-28.075702
 21
23.769985
  0
LINE
  8
ボルト／ビス
  6
CONTINUOUS
 10
-21.9757
 20
21.269985
 11
-28.075702
 21
21.269985
  0
LINE
  8
ボルト／ビス
  6
CONTINUOUS
 10
-21.9757
 20
23.519985
 11
-28.325702
 21
23.519985
  0
LINE
  8
ボルト／ビス
  6
CONTINUOUS
 10
-21.9757
 20
21.519985
 11
-28.325702
 21
21.519985
  0
ENDBLK
  0
BLOCK
  2
*GRP_0006
 70
    65
 10
0.0
 20
0.0
  0
LINE
  8
ボルト／ビス
  6
CONTINUOUS
 10
-20.825702
 20
-9.480757
 11
-21.9757
 21
-10.230757
  0
LINE
  8
ボルト／ビス
  6
CONTINUOUS
 10
-20.825702
 20
-13.48076
 11
-21.9757
 21
-12.73076
  0
LINE
  8
ボルト／ビス
  6
CONTINUOUS
 10
-20.825702
 20
-9.480757
 11
-20.825702
 21
-13.48076
  0
LINE
  8
ボルト／ビス
  6
CONTINUOUS
 10
-21.9757
 20
-10.230757
 11
-21.9757
 21
-12.73076
  0
LINE
  8
ボルト／ビス
  6
CONTINUOUS
 10
-19.633097
 20
-11.480757
 11
-28.325702
 21
-11.480757
  0
LINE
  8
ボルト／ビス
  6
CONTINUOUS
 10
-28.075702
 20
-10.230755
 11
-28.325702
 21
-10.480755
  0
LINE
  8
ボルト／ビス
  6
CONTINUOUS
 10
-28.075702
 20
-12.730755
 11
-28.325702
 21
-12.480755
  0
LINE
  8
ボルト／ビス
  6
CONTINUOUS
 10
-28.325702
 20
-12.480755
 11
-28.325702
 21
-10.480755
  0
LINE
  8
ボルト／ビス
  6
CONTINUOUS
 10
-28.075702
 20
-12.730755
 11
-28.075702
 21
-10.230755
  0
LINE
  8
ボルト／ビス
  6
CONTINUOUS
 10
-21.9757
 20
-12.73076
 11
-28.075702
 21
-12.73076
  0
LINE
  8
ボルト／ビス
  6
CONTINUOUS
 10
-21.9757
 20
-10.230757
 11
-28.075702
 21
-10.230757
  0
LINE
  8
ボルト／ビス
  6
CONTINUOUS
 10
-21.9757
 20
-12.480757
 11
-28.325702
 21
-12.480757
  0
LINE
  8
ボルト／ビス
  6
CONTINUOUS
 10
-21.9757
 20
-10.48076
 11
-28.325702
 21
-10.48076
  0
ENDBLK
  0
BLOCK
  2
*GRP_0007
 70
    65
 10
0.0
 20
0.0
  0
LINE
  8
ボルト／ビス
  6
CONTINUOUS
 10
-20.825702
 20
-19.48076
 11
-21.9757
 21
-20.23076
  0
LINE
  8
ボルト／ビス
  6
CONTINUOUS
 10
-20.825702
 20
-23.48076
 11
-21.9757
 21
-22.73076
  0
LINE
  8
ボルト／ビス
  6
CONTINUOUS
 10
-20.825702
 20
-19.48076
 11
-20.825702
 21
-23.48076
  0
LINE
  8
ボルト／ビス
  6
CONTINUOUS
 10
-21.9757
 20
-20.23076
 11
-21.9757
 21
-22.73076
  0
LINE
  8
ボルト／ビス
  6
CONTINUOUS
 10
-19.633097
 20
-21.480757
 11
-28.325702
 21
-21.480757
  0
LINE
  8
ボルト／ビス
  6
CONTINUOUS
 10
-28.075702
 20
-20.230755
 11
-28.325702
 21
-20.480757
  0
LINE
  8
ボルト／ビス
  6
CONTINUOUS
 10
-28.075702
 20
-22.730757
 11
-28.325702
 21
-22.480755
  0
LINE
  8
ボルト／ビス
  6
CONTINUOUS
 10
-28.325702
 20
-22.480755
 11
-28.325702
 21
-20.480757
  0
LINE
  8
ボルト／ビス
  6
CONTINUOUS
 10
-28.075702
 20
-22.730757
 11
-28.075702
 21
-20.230755
  0
LINE
  8
ボルト／ビス
  6
CONTINUOUS
 10
-21.9757
 20
-22.73076
 11
-28.075702
 21
-22.73076
  0
LINE
  8
ボルト／ビス
  6
CONTINUOUS
 10
-21.9757
 20
-20.23076
 11
-28.075702
 21
-20.23076
  0
LINE
  8
ボルト／ビス
  6
CONTINUOUS
 10
-21.9757
 20
-22.48076
 11
-28.325702
 21
-22.48076
  0
LINE
  8
ボルト／ビス
  6
CONTINUOUS
 10
-21.9757
 20
-20.48076
 11
-28.325702
 21
-20.48076
  0
ENDBLK
  0
BLOCK
  2
*GRP_0008
 70
    65
 10
0.0
 20
0.0
  0
LINE
  8
ボルト／ビス
  6
CONTINUOUS
 10
-20.825702
 20
-14.230763
 11
-21.9757
 21
-14.980763
  0
LINE
  8
ボルト／ビス
  6
CONTINUOUS
 10
-20.825702
 20
-18.230765
 11
-21.9757
 21
-17.480765
  0
LINE
  8
ボルト／ビス
  6
CONTINUOUS
 10
-20.825702
 20
-14.230763
 11
-20.825702
 21
-18.230765
  0
LINE
  8
ボルト／ビス
  6
CONTINUOUS
 10
-21.9757
 20
-14.980763
 11
-21.9757
 21
-17.480765
  0
LINE
  8
ボルト／ビス
  6
CONTINUOUS
 10
-19.633097
 20
-16.230763
 11
-28.325702
 21
-16.230763
  0
LINE
  8
ボルト／ビス
  6
CONTINUOUS
 10
-28.075702
 20
-14.98076
 11
-28.325702
 21
-15.23076
  0
LINE
  8
ボルト／ビス
  6
CONTINUOUS
 10
-28.075702
 20
-17.48076
 11
-28.325702
 21
-17.23076
  0
LINE
  8
ボルト／ビス
  6
CONTINUOUS
 10
-28.325702
 20
-17.23076
 11
-28.325702
 21
-15.23076
  0
LINE
  8
ボルト／ビス
  6
CONTINUOUS
 10
-28.075702
 20
-17.48076
 11
-28.075702
 21
-14.98076
  0
LINE
  8
ボルト／ビス
  6
CONTINUOUS
 10
-21.9757
 20
-17.480765
 11
-28.075702
 21
-17.480765
  0
LINE
  8
ボルト／ビス
  6
CONTINUOUS
 10
-21.9757
 20
-14.980763
 11
-28.075702
 21
-14.980763
  0
LINE
  8
ボルト／ビス
  6
CONTINUOUS
 10
-21.9757
 20
-17.230763
 11
-28.325702
 21
-17.230763
  0
LINE
  8
ボルト／ビス
  6
CONTINUOUS
 10
-21.9757
 20
-15.230765
 11
-28.325702
 21
-15.230765
  0
ENDBLK
  0
BLOCK
  2
*GRP_0009
 70
    65
 10
0.0
 20
0.0
  0
LINE
  8
ボルト／ビス
  6
CONTINUOUS
 62
    64
 10
-37.975702
 20
-40.082802
 11
-38.499788
 21
-40.128653
  0
ARC
  8
ボルト／ビス
  6
CONTINUOUS
 62
    64
 10
-38.425702
 20
-40.975419
 40
0.85
 50
94.999989
 51
180.0
  0
LINE
  8
ボルト／ビス
  6
CONTINUOUS
 62
    64
 10
-39.275702
 20
-40.975418
 11
-39.275702
 21
-41.832802
  0
LINE
  8
ボルト／ビス
  6
CONTINUOUS
 62
    64
 10
-37.975702
 20
-43.582805
 11
-38.499788
 21
-43.536953
  0
ARC
  8
ボルト／ビス
  6
CONTINUOUS
 62
    64
 10
-38.425702
 20
-42.690186
 40
0.85
 50
180.0
 51
265.000011
  0
LINE
  8
ボルト／ビス
  6
CONTINUOUS
 62
    64
 10
-39.275702
 20
-42.690187
 11
-39.275702
 21
-41.832802
  0
LINE
  8
ボルト／ビス
  6
CONTINUOUS
 62
    64
 10
-39.08325
 20
-40.634483
 11
-39.204332
 21
-40.634483
  0
LINE
  8
ボルト／ビス
  6
CONTINUOUS
 62
    64
 10
-38.75821
 20
-41.482805
 11
-38.75821
 21
-41.832802
  0
LINE
  8
ボルト／ビス
  6
CONTINUOUS
 62
    64
 10
-39.08325
 20
-41.282802
 11
-39.08325
 21
-40.634483
  0
LINE
  8
ボルト／ビス
  6
CONTINUOUS
 62
    64
 10
-38.75821
 20
-41.482805
 11
-38.88325
 21
-41.482805
  0
ARC
  8
ボルト／ビス
  6
CONTINUOUS
 62
    64
 10
-38.88325
 20
-41.282803
 40
0.2
 50
180.0
 51
270.0
  0
LINE
  8
ボルト／ビス
  6
CONTINUOUS
 62
    64
 10
-39.08325
 20
-43.031123
 11
-39.204332
 21
-43.031123
  0
LINE
  8
ボルト／ビス
  6
CONTINUOUS
 62
    64
 10
-38.75821
 20
-42.182802
 11
-38.75821
 21
-41.832802
  0
LINE
  8
ボルト／ビス
  6
CONTINUOUS
 62
    64
 10
-39.08325
 20
-42.382805
 11
-39.08325
 21
-43.031123
  0
LINE
  8
ボルト／ビス
  6
CONTINUOUS
 62
    64
 10
-38.75821
 20
-42.182802
 11
-38.88325
 21
-42.182802
  0
ARC
  8
ボルト／ビス
  6
CONTINUOUS
 62
    64
 10
-38.88325
 20
-42.382803
 40
0.2
 50
90.0
 51
180.0
  0
LINE
  8
ボルト／ビス
  6
CONTINUOUS
 62
    64
 10
-37.975702
 20
-40.082802
 11
-37.975702
 21
-43.582805
  0
LINE
  8
ボルト／ビス
  6
CONTINUOUS
 62
    64
 10
-40.261398
 20
-41.832802
 11
-32.850457
 21
-41.832802
  0
LINE
  8
ボルト／ビス
  6
CONTINUOUS
 62
    64
 10
-35.225702
 20
-40.832802
 11
-34.975702
 21
-41.082802
  0
LINE
  8
ボルト／ビス
  6
CONTINUOUS
 62
    64
 10
-35.225702
 20
-42.832805
 11
-34.975702
 21
-42.582802
  0
LINE
  8
ボルト／ビス
  6
CONTINUOUS
 62
    64
 10
-35.225702
 20
-40.832802
 11
-35.225702
 21
-42.832805
  0
LINE
  8
ボルト／ビス
  6
CONTINUOUS
 62
    64
 10
-34.975702
 20
-41.082802
 11
-34.975702
 21
-42.582802
  0
LINE
  8
ボルト／ビス
  6
CONTINUOUS
 62
    64
 10
-37.975702
 20
-41.082802
 11
-34.975702
 21
-41.082802
  0
LINE
  8
ボルト／ビス
  6
CONTINUOUS
 62
    64
 10
-37.975702
 20
-42.582802
 11
-34.975702
 21
-42.582802
  0
LINE
  8
ボルト／ビス
  6
CONTINUOUS
 62
    64
 10
-37.975702
 20
-42.832805
 11
-35.225702
 21
-42.832805
  0
LINE
  8
ボルト／ビス
  6
CONTINUOUS
 62
    64
 10
-37.975702
 20
-40.832802
 11
-35.225702
 21
-40.832802
  0
ENDBLK
  0
BLOCK
  2
*DIM_0010
 70
    65
 10
0.0
 20
0.0
  0
LINE
  8
寸法
  6
BYBLOCK
 62
     0
 10
-45.575702
 20
-45.830765
 11
-164.550443
 21
-45.830765
  0
LINE
  8
寸法
  6
BYBLOCK
 62
     0
 10
-164.550443
 20
-38.330765
 11
-164.550443
 21
-45.830765
  0
POINT
  8
寸法
 62
     0
 10
-164.550443
 20
-45.830765
  0
TEXT
  7
TextStyle03
  8
寸法
  6
CONTINUOUS
 62
     0
 10
-164.925
 20
-43.69375
  1
15
 40
3.0
 50
90.0
 72
     5
 11
-164.925
 21
-40.50625
  0
ENDBLK
  0
BLOCK
  2
*DIM_0011
 70
    65
 10
0.0
 20
0.0
  0
LINE
  8
寸法
  6
BYBLOCK
 62
     0
 10
-103.0757
 20
-53.653895
 11
-164.550443
 21
-53.653895
  0
LINE
  8
寸法
  6
BYBLOCK
 62
     0
 10
-164.550443
 20
-45.830765
 11
-164.550443
 21
-53.653895
  0
POINT
  8
寸法
 62
     0
 10
-164.550443
 20
-53.653895
  0
TEXT
  7
TextStyle03
  8
寸法
  6
CONTINUOUS
 62
     0
 10
-164.925
 20
-53.03125
  1
15.7
 40
3.0
 50
90.0
 72
     5
 11
-164.925
 21
-46.46875
  0
ENDBLK
  0
BLOCK
  2
*DIM_0012
 70
    65
 10
0.0
 20
0.0
  0
LINE
  8
寸法
  6
BYBLOCK
 62
     0
 10
-103.07576
 20
-83.653895
 11
-164.550443
 21
-83.653895
  0
LINE
  8
寸法
  6
BYBLOCK
 62
     0
 10
-164.550443
 20
-53.653895
 11
-164.550443
 21
-83.653895
  0
POINT
  8
寸法
 62
     0
 10
-164.550443
 20
-83.653895
  0
TEXT
  7
TextStyle03
  8
寸法
  6
CONTINUOUS
 62
     0
 10
-164.925
 20
-70.26875
  1
60
 40
3.0
 50
90.0
 72
     5
 11
-164.925
 21
-67.08125
  0
ENDBLK
  0
BLOCK
  2
*DIM_0013
 70
    65
 10
0.0
 20
0.0
  0
LINE
  8
寸法
  6
BYBLOCK
 62
     0
 10
-45.075702
 20
11.419238
 11
-156.012565
 21
11.419238
  0
LINE
  8
寸法
  6
BYBLOCK
 62
     0
 10
-156.012565
 20
13.919982
 11
-156.012565
 21
11.419238
  0
POINT
  8
寸法
 62
     0
 10
-156.012565
 20
11.419238
  0
TEXT
  7
TextStyle03
  8
寸法
  6
CONTINUOUS
 62
     0
 10
-156.375
 20
11.9
  1
5
 40
3.0
 50
90.0
 72
     5
 11
-156.375
 21
13.4
  0
ENDBLK
  0
BLOCK
  2
*DIM_0014
 70
    65
 10
0.0
 20
0.0
  0
LINE
  8
寸法
  6
BYBLOCK
 62
     0
 10
-46.575702
 20
-38.330765
 11
-156.012565
 21
-38.330765
  0
LINE
  8
寸法
  6
BYBLOCK
 62
     0
 10
-156.012565
 20
11.419238
 11
-156.012565
 21
-38.330765
  0
POINT
  8
寸法
 62
     0
 10
-156.012565
 20
-38.330765
  0
TEXT
  7
TextStyle03
  8
寸法
  6
CONTINUOUS
 62
     0
 10
-156.375
 20
-16.75625
  1
99.5
 40
3.0
 50
90.0
 72
     5
 11
-156.375
 21
-10.19375
  0
ENDBLK
  0
BLOCK
  2
*GRP_0015
 70
    65
 10
0.0
 20
0.0
  0
LINE
  8
別途部材
  6
CONTINUOUS
 10
-19.575705
 20
40.269982
 11
-19.575705
 21
18.26998
  0
ARC
  8
別途部材
  6
CONTINUOUS
 10
-16.575698
 20
40.269982
 40
3.0
 50
90.0
 51
180.0
  0
LINE
  8
別途部材
  6
CONTINUOUS
 10
-16.575705
 20
43.269982
 11
-16.575705
 21
43.269982
  0
LINE
  8
別途部材
  6
CONTINUOUS
 10
-13.575705
 20
40.269982
 11
-13.575705
 21
18.26998
  0
ARC
  8
別途部材
  6
CONTINUOUS
 10
-16.575698
 20
40.269982
 40
3.0
 50
0.0
 51
90.0
  0
CIRCLE
  8
別途部材
  6
CONTINUOUS
 10
-16.575705
 20
40.269982
 40
1.5
  0
LINE
  8
別途部材
  6
CONTINUOUS
 10
-18.075705
 20
40.269982
 11
-15.075705
 21
40.269982
  0
LINE
  8
別途部材
  6
CONTINUOUS
 10
-16.575705
 20
41.769982
 11
-16.575705
 21
38.769982
  0
LINE
  8
別途部材
  6
CONTINUOUS
 10
-19.575705
 20
18.26998
 11
-18.575702
 21
18.26998
  0
LINE
  8
別途部材
  6
CONTINUOUS
 10
-14.575702
 20
18.26998
 11
-13.575705
 21
18.26998
  0
LINE
  8
別途部材
  6
CONTINUOUS
 10
-18.575702
 20
18.26998
 11
-18.575702
 21
37.269982
  0
LINE
  8
別途部材
  6
CONTINUOUS
 10
-18.575702
 20
37.269982
 11
-14.575702
 21
37.269982
  0
LINE
  8
別途部材
  6
CONTINUOUS
 10
-14.575702
 20
18.26998
 11
-14.575702
 21
37.269982
  0
ARC
  8
別途部材
  6
CONTINUOUS
 10
-16.575698
 20
36.540816
 40
1.270834
 50
90.0
 51
90.0
  0
ARC
  8
別途部材
  6
CONTINUOUS
 10
-16.575698
 20
18.499148
 40
1.270834
 50
10.38896
 51
169.61104
  0
LINE
  8
別途部材
  6
CONTINUOUS
 10
-14.825702
 20
18.26998
 11
-15.325702
 21
18.26998
  0
LINE
  8
別途部材
  6
CONTINUOUS
 10
-18.325702
 20
18.26998
 11
-17.825702
 21
18.26998
  0
CIRCLE
  8
別途部材
  6
CONTINUOUS
 10
-16.575705
 20
35.269982
 40
0.499997
  0
LINE
  8
別途部材
  6
CONTINUOUS
 10
-16.075702
 20
35.269982
 11
-17.075702
 21
35.269982
  0
LINE
  8
別途部材
  6
CONTINUOUS
 10
-16.575705
 20
35.769985
 11
-16.575705
 21
34.76998
  0
ARC
  8
別途部材
  6
CONTINUOUS
 10
-16.575698
 20
36.040818
 40
1.270834
 50
190.38896
 51
349.61104
  0
LINE
  8
別途部材
  6
CONTINUOUS
 10
-14.825702
 20
36.26998
 11
-15.325702
 21
36.26998
  0
LINE
  8
別途部材
  6
CONTINUOUS
 10
-17.825702
 20
36.26998
 11
-18.325702
 21
36.26998
  0
LINE
  8
別途部材
  6
CONTINUOUS
 10
-15.325702
 20
18.26998
 11
-15.325702
 21
36.26998
  0
LINE
  8
別途部材
  6
CONTINUOUS
 10
-14.825702
 20
18.26998
 11
-14.825702
 21
36.26998
  0
LINE
  8
別途部材
  6
CONTINUOUS
 10
-17.825702
 20
18.26998
 11
-17.825702
 21
36.26998
  0
LINE
  8
別途部材
  6
CONTINUOUS
 10
-18.325702
 20
18.26998
 11
-18.325702
 21
36.26998
  0
LINE
  8
別途部材
  6
CONTINUOUS
 10
-19.575705
 20
36.769982
 11
-20.825702
 21
36.769982
  0
LINE
  8
別途部材
  6
CONTINUOUS
 10
-16.575705
 20
43.519982
 11
-16.5757
 21
43.269982
  0
LINE
  8
別途部材
  6
CONTINUOUS
 10
-24.825705
 20
37.269982
 11
-20.825702
 21
37.269982
  0
ARC
  8
別途部材
  6
CONTINUOUS
 10
-24.325701
 20
18.769983
 40
0.5
 50
180.0
 51
270.0
  0
LINE
  8
別途部材
  6
CONTINUOUS
 10
-21.325705
 20
18.26998
 11
-24.325705
 21
18.26998
  0
ARC
  8
別途部材
  6
CONTINUOUS
 10
-21.325701
 20
18.769983
 40
0.5
 50
270.0
 51
360.0
  0
LINE
  8
別途部材
  6
CONTINUOUS
 10
-24.825705
 20
18.769982
 11
-24.825705
 21
43.01998
  0
ARC
  8
別途部材
  6
CONTINUOUS
 10
-24.325701
 20
43.019983
 40
0.5
 50
90.0
 51
180.0
  0
LINE
  8
別途部材
  6
CONTINUOUS
 10
-20.825702
 20
18.769982
 11
-20.825702
 21
43.01998
  0
ARC
  8
別途部材
  6
CONTINUOUS
 10
-21.325701
 20
43.019983
 40
0.5
 50
0.0
 51
90.0
  0
LINE
  8
別途部材
  6
CONTINUOUS
 10
-24.325705
 20
43.519982
 11
-16.575705
 21
43.519982
  0
LINE
  8
別途部材
  6
CONTINUOUS
 10
-21.975705
 20
33.769982
 11
-21.975705
 21
31.269982
  0
LINE
  8
別途部材
  6
CONTINUOUS
 10
-21.975705
 20
23.769982
 11
-21.975705
 21
21.26998
  0
POLYLINE
  8
別途部材
  6
CONTINUOUS
 66
     1
  0
VERTEX
  8
別途部材
 10
-20.825702
 20
34.519982
  0
VERTEX
  8
別途部材
 10
-21.975705
 20
33.769982
  0
VERTEX
  8
別途部材
 10
-24.825705
 20
33.769982
  0
SEQEND
  0
LINE
  8
別途部材
  6
CONTINUOUS
 10
-20.825702
 20
32.51998
 11
-24.825705
 21
32.51998
  0
POLYLINE
  8
別途部材
  6
CONTINUOUS
 66
     1
  0
VERTEX
  8
別途部材
 10
-20.825702
 20
30.519982
  0
VERTEX
  8
別途部材
 10
-21.975705
 20
31.269982
  0
VERTEX
  8
別途部材
 10
-24.825705
 20
31.269982
  0
SEQEND
  0
POLYLINE
  8
別途部材
  6
CONTINUOUS
 66
     1
  0
VERTEX
  8
別途部材
 10
-20.825702
 20
24.519982
  0
VERTEX
  8
別途部材
 10
-21.975705
 20
23.769982
  0
VERTEX
  8
別途部材
 10
-24.825705
 20
23.769982
  0
SEQEND
  0
LINE
  8
別途部材
  6
CONTINUOUS
 10
-20.825702
 20
22.519982
 11
-24.825705
 21
22.519982
  0
POLYLINE
  8
別途部材
  6
CONTINUOUS
 66
     1
  0
VERTEX
  8
別途部材
 10
-20.825702
 20
20.51998
  0
VERTEX
  8
別途部材
 10
-21.975705
 20
21.26998
  0
VERTEX
  8
別途部材
 10
-24.825705
 20
21.26998
  0
SEQEND
  0
ENDBLK
  0
BLOCK
  2
*GRP_0016
 70
    65
 10
0.0
 20
0.0
  0
LINE
  8
別途部材
  6
CONTINUOUS
 10
-19.575705
 20
-29.230763
 11
-19.575705
 21
-7.230763
  0
ARC
  8
別途部材
  6
CONTINUOUS
 10
-16.575696
 20
-29.230764
 40
3.0
 50
180.0
 51
270.0
  0
LINE
  8
別途部材
  6
CONTINUOUS
 10
-16.575705
 20
-32.230763
 11
-16.575705
 21
-32.230763
  0
LINE
  8
別途部材
  6
CONTINUOUS
 10
-13.575705
 20
-29.230763
 11
-13.575705
 21
-7.230763
  0
ARC
  8
別途部材
  6
CONTINUOUS
 10
-16.575696
 20
-29.230764
 40
3.0
 50
-90.0
 51
0.0
  0
CIRCLE
  8
別途部材
  6
CONTINUOUS
 10
-16.575705
 20
-29.230763
 40
1.5
  0
LINE
  8
別途部材
  6
CONTINUOUS
 10
-18.075705
 20
-29.230763
 11
-15.075705
 21
-29.230763
  0
LINE
  8
別途部材
  6
CONTINUOUS
 10
-16.575705
 20
-30.730763
 11
-16.575705
 21
-27.730763
  0
LINE
  8
別途部材
  6
CONTINUOUS
 10
-19.575705
 20
-7.230763
 11
-18.575702
 21
-7.230763
  0
LINE
  8
別途部材
  6
CONTINUOUS
 10
-14.575702
 20
-7.230763
 11
-13.575705
 21
-7.230763
  0
LINE
  8
別途部材
  6
CONTINUOUS
 10
-18.575702
 20
-7.230763
 11
-18.575702
 21
-26.230763
  0
LINE
  8
別途部材
  6
CONTINUOUS
 10
-18.575702
 20
-26.230763
 11
-14.575702
 21
-26.230763
  0
LINE
  8
別途部材
  6
CONTINUOUS
 10
-14.575702
 20
-7.230763
 11
-14.575702
 21
-26.230763
  0
ARC
  8
別途部材
  6
CONTINUOUS
 10
-16.575696
 20
-25.501597
 40
1.270834
 50
270.0
 51
270.0
  0
ARC
  8
別途部材
  6
CONTINUOUS
 10
-16.575696
 20
-7.45993
 40
1.270834
 50
190.38896
 51
349.61104
  0
LINE
  8
別途部材
  6
CONTINUOUS
 10
-14.825702
 20
-7.230763
 11
-15.325702
 21
-7.230763
  0
LINE
  8
別途部材
  6
CONTINUOUS
 10
-18.325702
 20
-7.230763
 11
-17.825702
 21
-7.230763
  0
CIRCLE
  8
別途部材
  6
CONTINUOUS
 10
-16.575705
 20
-24.230765
 40
0.499997
  0
LINE
  8
別途部材
  6
CONTINUOUS
 10
-16.075702
 20
-24.230765
 11
-17.075702
 21
-24.230765
  0
LINE
  8
別途部材
  6
CONTINUOUS
 10
-16.575705
 20
-24.730763
 11
-16.575705
 21
-23.730763
  0
ARC
  8
別途部材
  6
CONTINUOUS
 10
-16.575696
 20
-25.0016
 40
1.270834
 50
10.38896
 51
169.61104
  0
LINE
  8
別途部材
  6
CONTINUOUS
 10
-14.825702
 20
-25.230763
 11
-15.325702
 21
-25.230763
  0
LINE
  8
別途部材
  6
CONTINUOUS
 10
-17.825702
 20
-25.230763
 11
-18.325702
 21
-25.230763
  0
LINE
  8
別途部材
  6
CONTINUOUS
 10
-15.325702
 20
-7.230763
 11
-15.325702
 21
-25.230763
  0
LINE
  8
別途部材
  6
CONTINUOUS
 10
-14.825702
 20
-7.230763
 11
-14.825702
 21
-25.230763
  0
LINE
  8
別途部材
  6
CONTINUOUS
 10
-17.825702
 20
-7.230763
 11
-17.825702
 21
-25.230763
  0
LINE
  8
別途部材
  6
CONTINUOUS
 10
-18.325702
 20
-7.230763
 11
-18.325702
 21
-25.230763
  0
LINE
  8
別途部材
  6
CONTINUOUS
 10
-19.575705
 20
-25.73076
 11
-20.825702
 21
-25.73076
  0
LINE
  8
別途部材
  6
CONTINUOUS
 10
-16.575705
 20
-32.48076
 11
-16.5757
 21
-32.23076
  0
LINE
  8
別途部材
  6
CONTINUOUS
 10
-24.825705
 20
-26.230763
 11
-20.825702
 21
-26.230763
  0
ARC
  8
別途部材
  6
CONTINUOUS
 10
-24.325699
 20
-7.730764
 40
0.5
 50
90.0
 51
180.0
  0
LINE
  8
別途部材
  6
CONTINUOUS
 10
-21.325705
 20
-7.230763
 11
-24.325705
 21
-7.230763
  0
ARC
  8
別途部材
  6
CONTINUOUS
 10
-21.325699
 20
-7.730764
 40
0.5
 50
0.0
 51
90.0
  0
LINE
  8
別途部材
  6
CONTINUOUS
 10
-24.825705
 20
-7.73076
 11
-24.825705
 21
-31.980763
  0
ARC
  8
別途部材
  6
CONTINUOUS
 10
-24.325699
 20
-31.980764
 40
0.5
 50
180.0
 51
270.0
  0
LINE
  8
別途部材
  6
CONTINUOUS
 10
-20.825702
 20
-7.73076
 11
-20.825702
 21
-31.980763
  0
ARC
  8
別途部材
  6
CONTINUOUS
 10
-21.325699
 20
-31.980764
 40
0.5
 50
-90.0
 51
0.0
  0
LINE
  8
別途部材
  6
CONTINUOUS
 10
-24.325705
 20
-32.48076
 11
-16.575705
 21
-32.48076
  0
LINE
  8
別途部材
  6
CONTINUOUS
 10
-21.975705
 20
-22.73076
 11
-21.975705
 21
-20.230763
  0
LINE
  8
別途部材
  6
CONTINUOUS
 10
-21.975705
 20
-12.730763
 11
-21.975705
 21
-10.230757
  0
POLYLINE
  8
別途部材
  6
CONTINUOUS
 66
     1
  0
VERTEX
  8
別途部材
 10
-20.825702
 20
-23.48076
  0
VERTEX
  8
別途部材
 10
-21.975705
 20
-22.73076
  0
VERTEX
  8
別途部材
 10
-24.825705
 20
-22.73076
  0
SEQEND
  0
LINE
  8
別途部材
  6
CONTINUOUS
 10
-20.825702
 20
-21.480757
 11
-24.825705
 21
-21.480757
  0
POLYLINE
  8
別途部材
  6
CONTINUOUS
 66
     1
  0
VERTEX
  8
別途部材
 10
-20.825702
 20
-19.480763
  0
VERTEX
  8
別途部材
 10
-21.975705
 20
-20.230763
  0
VERTEX
  8
別途部材
 10
-24.825705
 20
-20.230763
  0
SEQEND
  0
POLYLINE
  8
別途部材
  6
CONTINUOUS
 66
     1
  0
VERTEX
  8
別途部材
 10
-20.825702
 20
-13.480763
  0
VERTEX
  8
別途部材
 10
-21.975705
 20
-12.730763
  0
VERTEX
  8
別途部材
 10
-24.825705
 20
-12.730763
  0
SEQEND
  0
LINE
  8
別途部材
  6
CONTINUOUS
 10
-20.825702
 20
-11.48076
 11
-24.825705
 21
-11.48076
  0
POLYLINE
  8
別途部材
  6
CONTINUOUS
 66
     1
  0
VERTEX
  8
別途部材
 10
-20.825702
 20
-9.480757
  0
VERTEX
  8
別途部材
 10
-21.975705
 20
-10.230757
  0
VERTEX
  8
別途部材
 10
-24.825705
 20
-10.230757
  0
SEQEND
  0
ENDBLK
  0
BLOCK
  2
*GRP_0017
 70
    65
 10
0.0
 20
0.0
  0
LINE
  8
別途部材
  6
CONTINUOUS
 10
-21.575702
 20
-21.230765
 11
0.424297
 21
-21.230765
  0
ARC
  8
別途部材
  6
CONTINUOUS
 10
-21.575697
 20
-24.230775
 40
3.0
 50
90.0
 51
180.0
  0
LINE
  8
別途部材
  6
CONTINUOUS
 10
-24.575702
 20
-24.230765
 11
-24.575702
 21
-24.230765
  0
LINE
  8
別途部材
  6
CONTINUOUS
 10
-21.575702
 20
-27.230765
 11
0.424297
 21
-27.230765
  0
ARC
  8
別途部材
  6
CONTINUOUS
 10
-21.575697
 20
-24.230775
 40
3.0
 50
180.0
 51
270.0
  0
CIRCLE
  8
別途部材
  6
CONTINUOUS
 10
-21.575702
 20
-24.230765
 40
1.5
  0
LINE
  8
別途部材
  6
CONTINUOUS
 10
-21.575702
 20
-22.730765
 11
-21.575702
 21
-25.730765
  0
LINE
  8
別途部材
  6
CONTINUOUS
 10
-23.075702
 20
-24.230765
 11
-20.075702
 21
-24.230765
  0
LINE
  8
別途部材
  6
CONTINUOUS
 10
0.424297
 20
-21.230765
 11
0.424297
 21
-22.23077
  0
LINE
  8
別途部材
  6
CONTINUOUS
 10
0.424297
 20
-26.230768
 11
0.424297
 21
-27.230765
  0
LINE
  8
別途部材
  6
CONTINUOUS
 10
0.424297
 20
-22.23077
 11
-18.575702
 21
-22.23077
  0
LINE
  8
別途部材
  6
CONTINUOUS
 10
-18.575702
 20
-22.23077
 11
-18.575702
 21
-26.230768
  0
LINE
  8
別途部材
  6
CONTINUOUS
 10
0.424297
 20
-26.230768
 11
-18.575702
 21
-26.230768
  0
ARC
  8
別途部材
  6
CONTINUOUS
 10
-17.846531
 20
-24.230775
 40
1.270834
 50
180.0
 51
180.0
  0
ARC
  8
別途部材
  6
CONTINUOUS
 10
0.195137
 20
-24.230775
 40
1.270834
 50
100.38896
 51
259.61104
  0
LINE
  8
別途部材
  6
CONTINUOUS
 10
0.424297
 20
-25.98077
 11
0.424297
 21
-25.480768
  0
LINE
  8
別途部材
  6
CONTINUOUS
 10
0.424297
 20
-22.480768
 11
0.424297
 21
-22.98077
  0
CIRCLE
  8
別途部材
  6
CONTINUOUS
 10
-16.575705
 20
-24.230765
 40
0.499997
  0
LINE
  8
別途部材
  6
CONTINUOUS
 10
-16.575705
 20
-24.730768
 11
-16.575705
 21
-23.73077
  0
LINE
  8
別途部材
  6
CONTINUOUS
 10
-17.075702
 20
-24.230765
 11
-16.075702
 21
-24.230765
  0
ARC
  8
別途部材
  6
CONTINUOUS
 10
-17.346533
 20
-24.230775
 40
1.270834
 50
280.38896
 51
439.61104
  0
LINE
  8
別途部材
  6
CONTINUOUS
 10
-17.575702
 20
-25.98077
 11
-17.575702
 21
-25.480768
  0
LINE
  8
別途部材
  6
CONTINUOUS
 10
-17.575702
 20
-22.98077
 11
-17.575702
 21
-22.480768
  0
LINE
  8
別途部材
  6
CONTINUOUS
 10
0.424297
 20
-25.480768
 11
-17.575702
 21
-25.480768
  0
LINE
  8
別途部材
  6
CONTINUOUS
 10
0.424297
 20
-25.98077
 11
-17.575702
 21
-25.98077
  0
LINE
  8
別途部材
  6
CONTINUOUS
 10
0.424297
 20
-22.98077
 11
-17.575702
 21
-22.98077
  0
LINE
  8
別途部材
  6
CONTINUOUS
 10
0.424297
 20
-22.480768
 11
-17.575702
 21
-22.480768
  0
LINE
  8
別途部材
  6
CONTINUOUS
 10
-21.9757
 20
-14.980763
 11
-21.9757
 21
-17.480765
  0
LINE
  8
別途部材
  6
CONTINUOUS
 10
-20.825702
 20
-16.230765
 11
-24.8257
 21
-16.230765
  0
POLYLINE
  8
別途部材
  6
CONTINUOUS
 66
     1
  0
VERTEX
  8
別途部材
 10
-20.825702
 20
-18.230765
  0
VERTEX
  8
別途部材
 10
-21.9757
 20
-17.480765
  0
VERTEX
  8
別途部材
 10
-24.8257
 20
-17.480765
  0
SEQEND
  0
POLYLINE
  8
別途部材
  6
CONTINUOUS
 66
     1
  0
VERTEX
  8
別途部材
 10
-20.825702
 20
-14.230763
  0
VERTEX
  8
別途部材
 10
-21.9757
 20
-14.980763
  0
VERTEX
  8
別途部材
 10
-24.8257
 20
-14.980763
  0
SEQEND
  0
LINE
  8
別途部材
  6
CONTINUOUS
 10
-24.8257
 20
-24.230765
 11
-24.575702
 21
-24.230765
  0
ARC
  8
別途部材
  6
CONTINUOUS
 10
-21.325698
 20
-11.73077
 40
0.5
 50
0.0
 51
90.0
  0
LINE
  8
別途部材
  6
CONTINUOUS
 10
-21.325702
 20
-11.230768
 11
-24.325702
 21
-11.230768
  0
ARC
  8
別途部材
  6
CONTINUOUS
 10
-24.325698
 20
-11.73077
 40
0.5
 50
90.0
 51
180.0
  0
ARC
  8
別途部材
  6
CONTINUOUS
 10
-21.325698
 20
-19.73077
 40
0.5
 50
-90.0
 51
0.0
  0
LINE
  8
別途部材
  6
CONTINUOUS
 10
-24.325702
 20
-20.230768
 11
-21.325702
 21
-20.230768
  0
ARC
  8
別途部材
  6
CONTINUOUS
 10
-24.325698
 20
-19.73077
 40
0.5
 50
180.0
 51
270.0
  0
LINE
  8
別途部材
  6
CONTINUOUS
 10
-24.8257
 20
-11.730765
 11
-24.8257
 21
-24.230765
  0
LINE
  8
別途部材
  6
CONTINUOUS
 10
-20.825702
 20
-11.730765
 11
-20.825702
 21
-21.230765
  0
ENDBLK
  0
BLOCK
  2
*DIM_0018
 70
    65
 10
0.0
 20
0.0
  0
LINE
  8
寸法
  6
BYBLOCK
 62
     0
 10
14.924295
 20
-34.480763
 11
57.653147
 21
-34.480763
  0
LINE
  8
寸法
  6
BYBLOCK
 62
     0
 10
57.653147
 20
-38.330765
 11
57.653147
 21
-34.480763
  0
POINT
  8
寸法
 62
     0
 10
57.653147
 20
-34.480763
  0
TEXT
  7
TextStyle03
  8
寸法
  6
CONTINUOUS
 62
     0
 10
60.65
 20
-38.8625
  1
7.7
 40
3.0
 50
90.0
 72
     5
 11
60.65
 21
-33.9875
  0
ENDBLK
  0
BLOCK
  2
*DIM_0019
 70
    65
 10
0.0
 20
0.0
  0
LINE
  8
寸法
  6
BYBLOCK
 62
     0
 10
14.924295
 20
-26.080763
 11
57.653147
 21
-26.080763
  0
LINE
  8
寸法
  6
BYBLOCK
 62
     0
 10
57.653147
 20
-34.480763
 11
57.653147
 21
-26.080763
  0
POINT
  8
寸法
 62
     0
 10
57.653147
 20
-26.080763
  0
TEXT
  7
TextStyle03
  8
寸法
  6
CONTINUOUS
 62
     0
 10
57.275
 20
-33.58125
  1
16.8
 40
3.0
 50
90.0
 72
     5
 11
57.275
 21
-27.01875
  0
ENDBLK
  0
BLOCK
  2
*DIM_0020
 70
    65
 10
0.0
 20
0.0
  0
LINE
  8
寸法
  6
BYBLOCK
 62
     0
 10
-23.825705
 20
16.91998
 11
57.653147
 21
16.91998
  0
LINE
  8
寸法
  6
BYBLOCK
 62
     0
 10
57.653147
 20
-26.080763
 11
57.653147
 21
16.91998
  0
POINT
  8
寸法
 62
     0
 10
57.653147
 20
16.91998
  0
TEXT
  7
TextStyle03
  8
寸法
  6
CONTINUOUS
 62
     0
 10
57.275
 20
-6.19375
  1
86
 40
3.0
 50
90.0
 72
     5
 11
57.275
 21
-3.00625
  0
ENDBLK
  0
BLOCK
  2
*DIM_0021
 70
    65
 10
0.0
 20
0.0
  0
LINE
  8
寸法
  6
BYBLOCK
 62
     0
 10
-23.825705
 20
18.41998
 11
57.653147
 21
18.41998
  0
LINE
  8
寸法
  6
BYBLOCK
 62
     0
 10
57.653147
 20
16.91998
 11
57.653147
 21
18.41998
  0
POINT
  8
寸法
 62
     0
 10
57.653147
 20
18.41998
  0
TEXT
  7
TextStyle03
  8
寸法
  6
CONTINUOUS
 62
     0
 10
57.275
 20
18.575
  1
3
 40
3.0
 50
90.0
 72
     5
 11
57.275
 21
20.075
  0
ENDBLK
  0
BLOCK
  2
*GRP_0022
 70
    65
 10
0.0
 20
0.0
  0
POLYLINE
  8
寸法
  6
BYBLOCK
 62
     0
 66
     1
  0
VERTEX
  8
寸法
 10
-44.575702
 20
36.51389
  0
VERTEX
  8
寸法
 10
-47.136335
 20
33.953255
  0
VERTEX
  8
寸法
 10
-49.444445
 20
33.953255
  0
SEQEND
  0
ENDBLK
  0
BLOCK
  2
*GRP_0023
 70
    65
 10
0.0
 20
0.0
  0
POLYLINE
  8
寸法
  6
BYBLOCK
 62
     0
 66
     1
  0
VERTEX
  8
寸法
 10
-102.075723
 20
-64.807997
  0
VERTEX
  8
寸法
 10
-107.283443
 20
-70.015718
  0
VERTEX
  8
寸法
 10
-115.717613
 20
-70.015718
  0
SEQEND
  0
ENDBLK
  0
BLOCK
  2
*GRP_0024
 70
    65
 10
0.0
 20
0.0
  0
POLYLINE
  8
寸法
  6
BYBLOCK
 62
     0
 66
     1
  0
VERTEX
  8
寸法
 10
-44.425702
 20
-35.580768
  0
VERTEX
  8
寸法
 10
-52.346045
 20
-27.660425
  0
VERTEX
  8
寸法
 10
-58.454348
 20
-27.660425
  0
SEQEND
  0
ENDBLK
  0
BLOCK
  2
*GRP_0025
 70
    65
 10
0.0
 20
0.0
  0
POLYLINE
  8
寸法
  6
BYBLOCK
 62
     0
 66
     1
  0
VERTEX
  8
寸法
 10
-27.0
 20
16.875002
  0
VERTEX
  8
寸法
 10
-21.339142
 20
11.214145
  0
VERTEX
  8
寸法
 10
-16.795455
 20
11.214145
  0
SEQEND
  0
ENDBLK
  0
BLOCK
  2
*GRP_0026
 70
    65
 10
0.0
 20
0.0
  0
SPLINE
  5
1400000
100
AcDbEntity
  8
ガラス
100
AcDbSpline
  6
CONTINUOUS
 70
     0
 71
     3
 74
     3
 44
0.0
 11
-33.872787
 21
-32.268127
 11
-32.967857
 21
-32.17145
 11
-32.259738
 21
-32.623348
  0
SPLINE
  5
1400001
100
AcDbEntity
  8
ガラス
100
AcDbSpline
  6
CONTINUOUS
 70
     0
 71
     3
 74
     3
 44
0.0
 11
-32.259738
 21
-32.623348
 11
-32.888872
 21
-32.820865
 11
-33.387103
 21
-33.090563
  0
ARC
  8
ガラス
  6
CONTINUOUS
 10
-33.629943
 20
-32.679346
 40
0.477567
 50
120.563758
 51
300.563758
  0
ENDBLK
  0
BLOCK
  2
*GRP_0027
 70
    65
 10
0.0
 20
0.0
  0
SPLINE
  5
1400002
100
AcDbEntity
  8
ガラス
100
AcDbSpline
  6
CONTINUOUS
 70
     0
 71
     3
 74
     3
 44
0.0
 11
-40.774543
 21
-36.312357
 11
-39.869613
 21
-36.21568
 11
-39.161492
 21
-36.667577
  0
SPLINE
  5
1400003
100
AcDbEntity
  8
ガラス
100
AcDbSpline
  6
CONTINUOUS
 70
     0
 71
     3
 74
     3
 44
0.0
 11
-39.161492
 21
-36.667577
 11
-39.790628
 21
-36.865095
 11
-40.288857
 21
-37.134793
  0
ARC
  8
ガラス
  6
CONTINUOUS
 10
-40.531699
 20
-36.723576
 40
0.477567
 50
120.563758
 51
300.563758
  0
ENDBLK
  0
BLOCK
  2
*GRP_0028
 70
    65
 10
0.0
 20
0.0
  0
SPLINE
  5
1400004
100
AcDbEntity
  8
ガラス
100
AcDbSpline
  6
CONTINUOUS
 70
     0
 71
     3
 74
     3
 44
0.0
 11
-46.789592
 21
-36.864197
 11
-45.884663
 21
-36.76752
 11
-45.176542
 21
-37.219417
  0
SPLINE
  5
1400005
100
AcDbEntity
  8
ガラス
100
AcDbSpline
  6
CONTINUOUS
 70
     0
 71
     3
 74
     3
 44
0.0
 11
-45.176542
 21
-37.219417
 11
-45.805678
 21
-37.416935
 11
-46.303907
 21
-37.686632
  0
ARC
  8
ガラス
  6
CONTINUOUS
 10
-46.546749
 20
-37.275416
 40
0.477567
 50
120.563758
 51
300.563758
  0
ENDBLK
  0
BLOCK
  2
*GRP_0029
 70
    65
 10
0.0
 20
0.0
  0
SPLINE
  5
1400006
100
AcDbEntity
  8
ガラス
100
AcDbSpline
  6
CONTINUOUS
 70
     0
 71
     3
 74
     3
 44
0.0
 11
-50.459477
 21
-40.8541
 11
-50.02572
 21
-40.05404
 11
-49.25186
 21
-39.72726
  0
SPLINE
  5
1400007
100
AcDbEntity
  8
ガラス
100
AcDbSpline
  6
CONTINUOUS
 70
     0
 71
     3
 74
     3
 44
0.0
 11
-49.25186
 21
-39.72726
 11
-49.446112
 21
-40.35741
 11
-49.506665
 21
-40.920708
  0
ARC
  8
ガラス
  6
CONTINUOUS
 10
-49.983068
 20
-40.887405
 40
0.477567
 50
176.001233
 51
356.001233
  0
ENDBLK
  0
BLOCK
  2
*GRP_0030
 70
    65
 10
0.0
 20
0.0
  0
SPLINE
  5
1400008
100
AcDbEntity
  8
ガラス
100
AcDbSpline
  6
CONTINUOUS
 70
     0
 71
     3
 74
     3
 44
0.0
 11
-27.531923
 21
-32.212518
 11
-26.626992
 21
-32.11584
 11
-25.918872
 21
-32.567738
  0
SPLINE
  5
1400009
100
AcDbEntity
  8
ガラス
100
AcDbSpline
  6
CONTINUOUS
 70
     0
 71
     3
 74
     3
 44
0.0
 11
-25.918872
 21
-32.567738
 11
-26.548008
 21
-32.765255
 11
-27.046238
 21
-33.034952
  0
ARC
  8
ガラス
  6
CONTINUOUS
 10
-27.289079
 20
-32.623736
 40
0.477567
 50
120.563758
 51
300.563758
  0
ENDBLK
  0
BLOCK
  2
*GRP_0031
 70
    65
 10
0.0
 20
0.0
  0
SPLINE
  5
1400010
100
AcDbEntity
  8
ガラス
100
AcDbSpline
  6
CONTINUOUS
 70
     0
 71
     3
 74
     3
 44
0.0
 11
-23.813093
 21
-32.162292
 11
-22.908162
 21
-32.065615
 11
-22.200043
 21
-32.517512
  0
SPLINE
  5
1400011
100
AcDbEntity
  8
ガラス
100
AcDbSpline
  6
CONTINUOUS
 70
     0
 71
     3
 74
     3
 44
0.0
 11
-22.200043
 21
-32.517512
 11
-22.829177
 21
-32.71503
 11
-23.327408
 21
-32.984728
  0
ARC
  8
ガラス
  6
CONTINUOUS
 10
-23.570249
 20
-32.573511
 40
0.477567
 50
120.563758
 51
300.563758
  0
ENDBLK
  0
BLOCK
  2
*GRP_0032
 70
    65
 10
0.0
 20
0.0
  0
SPLINE
  5
1400012
100
AcDbEntity
  8
ガラス
100
AcDbSpline
  6
CONTINUOUS
 70
     0
 71
     3
 74
     3
 44
0.0
 11
-15.374007
 21
-32.16331
 11
-14.469078
 21
-32.066633
 11
-13.760958
 21
-32.51853
  0
SPLINE
  5
1400013
100
AcDbEntity
  8
ガラス
100
AcDbSpline
  6
CONTINUOUS
 70
     0
 71
     3
 74
     3
 44
0.0
 11
-13.760958
 21
-32.51853
 11
-14.390092
 21
-32.716047
 11
-14.888322
 21
-32.985745
  0
ARC
  8
ガラス
  6
CONTINUOUS
 10
-15.131165
 20
-32.57453
 40
0.477567
 50
120.563758
 51
300.563758
  0
ENDBLK
  0
BLOCK
  2
*GRP_0033
 70
    65
 10
0.0
 20
0.0
  0
SPLINE
  5
1400014
100
AcDbEntity
  8
ガラス
100
AcDbSpline
  6
CONTINUOUS
 70
     0
 71
     3
 74
     3
 44
0.0
 11
-7.041233
 21
-32.218495
 11
-6.136302
 21
-32.121817
 11
-5.428183
 21
-32.573715
  0
SPLINE
  5
1400015
100
AcDbEntity
  8
ガラス
100
AcDbSpline
  6
CONTINUOUS
 70
     0
 71
     3
 74
     3
 44
0.0
 11
-5.428183
 21
-32.573715
 11
-6.057318
 21
-32.771233
 11
-6.555548
 21
-33.04093
  0
ARC
  8
ガラス
  6
CONTINUOUS
 10
-6.798389
 20
-32.629714
 40
0.477567
 50
120.563758
 51
300.563758
  0
ENDBLK
  0
BLOCK
  2
*GRP_0034
 70
    65
 10
0.0
 20
0.0
  0
SPLINE
  5
1400016
100
AcDbEntity
  8
ガラス
100
AcDbSpline
  6
CONTINUOUS
 70
     0
 71
     3
 74
     3
 44
0.0
 11
-17.868415
 21
54.441848
 11
-17.151083
 21
55.001917
 11
-16.311113
 21
54.992223
  0
SPLINE
  5
1400017
100
AcDbEntity
  8
ガラス
100
AcDbSpline
  6
CONTINUOUS
 70
     0
 71
     3
 74
     3
 44
0.0
 11
-16.311113
 21
54.992223
 11
-16.740997
 21
54.492202
 11
-17.021605
 21
54.000033
  0
ARC
  8
ガラス
  6
CONTINUOUS
 10
-17.445008
 20
54.220939
 40
0.477567
 50
152.447188
 51
332.447188
  0
ENDBLK
  0
BLOCK
  2
*GRP_0035
 70
    65
 10
0.0
 20
0.0
  0
SPLINE
  5
1400018
100
AcDbEntity
  8
ガラス
100
AcDbSpline
  6
CONTINUOUS
 70
     0
 71
     3
 74
     3
 44
0.0
 11
-21.179453
 21
52.124122
 11
-20.46212
 21
52.684193
 11
-19.62215
 21
52.674497
  0
SPLINE
  5
1400019
100
AcDbEntity
  8
ガラス
100
AcDbSpline
  6
CONTINUOUS
 70
     0
 71
     3
 74
     3
 44
0.0
 11
-19.62215
 21
52.674497
 11
-20.052035
 21
52.174477
 11
-20.332643
 21
51.682308
  0
ARC
  8
ガラス
  6
CONTINUOUS
 10
-20.756045
 20
51.903213
 40
0.477567
 50
152.447188
 51
332.447188
  0
ENDBLK
  0
BLOCK
  2
*GRP_0036
 70
    65
 10
0.0
 20
0.0
  0
SPLINE
  5
1400020
100
AcDbEntity
  8
ガラス
100
AcDbSpline
  6
CONTINUOUS
 70
     0
 71
     3
 74
     3
 44
0.0
 11
-22.945338
 21
47.654222
 11
-22.228005
 21
48.214293
 11
-21.388035
 21
48.204598
  0
SPLINE
  5
1400021
100
AcDbEntity
  8
ガラス
100
AcDbSpline
  6
CONTINUOUS
 70
     0
 71
     3
 74
     3
 44
0.0
 11
-21.388035
 21
48.204598
 11
-21.81792
 21
47.704578
 11
-22.098527
 21
47.212407
  0
ARC
  8
ガラス
  6
CONTINUOUS
 10
-22.52193
 20
47.433312
 40
0.477567
 50
152.447188
 51
332.447188
  0
ENDBLK
  0
BLOCK
  2
*GRP_0037
 70
    65
 10
0.0
 20
0.0
  0
SPLINE
  5
1400022
100
AcDbEntity
  8
ガラス
100
AcDbSpline
  6
CONTINUOUS
 70
     0
 71
     3
 74
     3
 44
0.0
 11
-26.987525
 21
47.62757
 11
-26.079692
 21
47.691475
 11
-25.388372
 21
47.214275
  0
SPLINE
  5
1400023
100
AcDbEntity
  8
ガラス
100
AcDbSpline
  6
CONTINUOUS
 70
     0
 71
     3
 74
     3
 44
0.0
 11
-25.388372
 21
47.214275
 11
-26.024235
 21
47.039627
 11
-26.53189
 21
46.788115
  0
ARC
  8
ガラス
  6
CONTINUOUS
 10
-26.759707
 20
47.207838
 40
0.477567
 50
118.492171
 51
298.492171
  0
ENDBLK
  0
BLOCK
  2
*GRP_0038
 70
    65
 10
0.0
 20
0.0
  0
SPLINE
  5
1400024
100
AcDbEntity
  8
ガラス
100
AcDbSpline
  6
CONTINUOUS
 70
     0
 71
     3
 74
     3
 44
0.0
 11
-33.757293
 21
47.774845
 11
-32.84946
 21
47.83875
 11
-32.15814
 21
47.36155
  0
SPLINE
  5
1400025
100
AcDbEntity
  8
ガラス
100
AcDbSpline
  6
CONTINUOUS
 70
     0
 71
     3
 74
     3
 44
0.0
 11
-32.15814
 21
47.36155
 11
-32.794002
 21
47.186902
 11
-33.301657
 21
46.93539
  0
ARC
  8
ガラス
  6
CONTINUOUS
 10
-33.529475
 20
47.355113
 40
0.477567
 50
118.492171
 51
298.492171
  0
ENDBLK
  0
BLOCK
  2
*GRP_0039
 70
    65
 10
0.0
 20
0.0
  0
SPLINE
  5
1400026
100
AcDbEntity
  8
ガラス
100
AcDbSpline
  6
CONTINUOUS
 70
     0
 71
     3
 74
     3
 44
0.0
 11
-40.577945
 21
47.882872
 11
-39.670112
 21
47.946777
 11
-38.978792
 21
47.469578
  0
SPLINE
  5
1400027
100
AcDbEntity
  8
ガラス
100
AcDbSpline
  6
CONTINUOUS
 70
     0
 71
     3
 74
     3
 44
0.0
 11
-38.978792
 21
47.469578
 11
-39.614655
 21
47.29493
 11
-40.12231
 21
47.043418
  0
ARC
  8
ガラス
  6
CONTINUOUS
 10
-40.350127
 20
47.46314
 40
0.477567
 50
118.492171
 51
298.492171
  0
ENDBLK
  0
BLOCK
  2
*DIM_0040
 70
    65
 10
0.0
 20
0.0
  0
LINE
  8
寸法
  6
BYBLOCK
 62
     0
 10
-44.575702
 20
47.019985
 11
-44.575702
 21
124.462565
  0
LINE
  8
寸法
  6
BYBLOCK
 62
     0
 10
-14.825708
 20
124.462565
 11
-44.575702
 21
124.462565
  0
POINT
  8
寸法
 62
     0
 10
-14.825708
 20
124.462565
  0
POINT
  8
寸法
 62
     0
 10
-44.575702
 20
124.462565
  0
TEXT
  7
TextStyle03
  8
寸法
  6
CONTINUOUS
 62
     0
 10
-33.00625
 20
124.825
  1
59.5
 40
3.0
 72
     5
 11
-26.44375
 21
124.825
  0
ENDBLK
  0
BLOCK
  2
*DIM_0041
 70
    65
 10
0.0
 20
0.0
  0
LINE
  8
寸法
  6
BYBLOCK
 62
     0
 10
-44.575702
 20
118.496965
 11
-44.575702
 21
118.155853
  0
LINE
  8
寸法
  6
BYBLOCK
 62
     0
 10
13.924295
 20
-23.830763
 11
13.924295
 21
118.155853
  0
LINE
  8
寸法
  6
BYBLOCK
 62
     0
 10
-44.575702
 20
118.155853
 11
13.924295
 21
118.155853
  0
POINT
  8
寸法
 62
     0
 10
-44.575702
 20
118.155853
  0
POINT
  8
寸法
 62
     0
 10
13.924295
 20
118.155853
  0
TEXT
  7
TextStyle03
  8
寸法
  6
CONTINUOUS
 62
     0
 10
-20.7625
 20
118.5
  1
117
 40
3.0
 72
     5
 11
-15.8875
 21
118.5
  0
ENDBLK
  0
BLOCK
  2
*DIM_0042
 70
    65
 10
0.0
 20
0.0
  0
LINE
  8
寸法
  6
BYBLOCK
 62
     0
 10
-14.825708
 20
113.156712
 11
13.924295
 21
113.156712
  0
POINT
  8
寸法
 62
     0
 10
-14.825708
 20
113.156712
  0
POINT
  8
寸法
 62
     0
 10
13.924295
 20
113.156712
  0
TEXT
  7
TextStyle03
  8
寸法
  6
CONTINUOUS
 62
     0
 10
-3.75625
 20
113.525
  1
57.5
 40
3.0
 72
     5
 11
2.80625
 21
113.525
  0
ENDBLK
  0
BLOCK
  2
*DIM_0043
 70
    65
 10
0.0
 20
0.0
  0
LINE
  8
寸法
  6
BYBLOCK
 62
     0
 10
0.524295
 20
53.269985
 11
57.653147
 21
53.269985
  0
LINE
  8
寸法
  6
BYBLOCK
 62
     0
 10
57.653147
 20
45.769985
 11
57.653147
 21
53.269985
  0
POINT
  8
寸法
 62
     0
 10
57.653147
 20
53.269985
  0
TEXT
  7
TextStyle03
  8
寸法
  6
CONTINUOUS
 62
     0
 10
57.275
 20
47.90625
  1
15
 40
3.0
 50
90.0
 72
     5
 11
57.275
 21
51.09375
  0
ENDBLK
  0
BLOCK
  2
*GRP_0044
 70
    65
 10
0.0
 20
0.0
  0
POLYLINE
  8
寸法
  6
BYBLOCK
 62
     0
 66
     1
  0
VERTEX
  8
寸法
 10
-30.575702
 20
64.919982
  0
VERTEX
  8
寸法
 10
-36.015817
 20
77.30524
  0
VERTEX
  8
寸法
 10
-52.106063
 20
77.30524
  0
SEQEND
  0
ENDBLK
  0
BLOCK
  2
*DIM_0045
 70
    65
 10
0.0
 20
0.0
  0
LINE
  8
寸法
  6
BYBLOCK
 62
     0
 10
-45.075702
 20
46.519985
 11
-156.012565
 21
46.519985
  0
LINE
  8
寸法
  6
BYBLOCK
 62
     0
 10
-43.173417
 20
54.41996
 11
-156.012565
 21
54.41996
  0
LINE
  8
寸法
  6
BYBLOCK
 62
     0
 10
-156.012565
 20
46.519985
 11
-156.012565
 21
54.41996
  0
POINT
  8
寸法
 62
     0
 10
-156.012565
 20
46.519985
  0
POINT
  8
寸法
 62
     0
 10
-156.012565
 20
54.41996
  0
TEXT
  7
TextStyle03
  8
寸法
  6
CONTINUOUS
 62
     0
 10
-156.4
 20
47.16875
  1
15.8
 40
3.0
 50
90.0
 72
     5
 11
-156.4
 21
53.73125
  0
ENDBLK
  0
BLOCK
  2
*DIM_0046
 70
    65
 10
0.0
 20
0.0
  0
LINE
  8
寸法
  6
BYBLOCK
 62
     0
 10
-45.575702
 20
73.269958
 11
-156.012565
 21
73.269958
  0
LINE
  8
寸法
  6
BYBLOCK
 62
     0
 10
-156.012565
 20
54.41996
 11
-156.012565
 21
73.269958
  0
POINT
  8
寸法
 62
     0
 10
-156.012565
 20
73.269958
  0
TEXT
  7
TextStyle03
  8
寸法
  6
CONTINUOUS
 62
     0
 10
-156.4
 20
60.54375
  1
37.7
 40
3.0
 50
90.0
 72
     5
 11
-156.4
 21
67.10625
  0
ENDBLK
  0
BLOCK
  2
*GRP_0047
 70
    65
 10
0.0
 20
0.0
  0
POLYLINE
  8
寸法
  6
BYBLOCK
 62
     0
 66
     1
  0
VERTEX
  8
寸法
 10
-31.325708
 20
48.819985
  0
VERTEX
  8
寸法
 10
-38.082693
 20
61.280938
  0
VERTEX
  8
寸法
 10
-56.624497
 20
61.280938
  0
SEQEND
  0
ENDBLK
  0
BLOCK
  2
*GRP_0048
 70
    65
 10
0.0
 20
0.0
  0
ARC
  8
ゴム等
  6
CONTINUOUS
 62
   127
 10
-16.3257
 20
64.919984
 40
0.75
 50
0.0
 51
90.0
  0
LINE
  8
ゴム等
  6
CONTINUOUS
 62
   127
 10
-15.5757
 20
64.919982
 11
-15.5757
 21
64.919982
  0
ARC
  8
ゴム等
  6
CONTINUOUS
 62
   127
 10
-16.3257
 20
64.919984
 40
0.75
 50
-90.0
 51
0.0
  0
LINE
  8
ゴム等
  6
CONTINUOUS
 62
   127
 10
-29.8257
 20
65.669982
 11
-16.3257
 21
65.669982
  0
ARC
  8
ゴム等
  6
CONTINUOUS
 62
   127
 10
-29.8257
 20
64.919984
 40
0.75
 50
90.0
 51
180.0
  0
LINE
  8
ゴム等
  6
CONTINUOUS
 62
   127
 10
-30.5757
 20
64.919982
 11
-30.5757
 21
64.919982
  0
LINE
  8
ゴム等
  6
CONTINUOUS
 62
   127
 10
-29.8257
 20
64.169982
 11
-16.3257
 21
64.169982
  0
ARC
  8
ゴム等
  6
CONTINUOUS
 62
   127
 10
-29.8257
 20
64.919984
 40
0.75
 50
180.0
 51
270.0
  0
ENDBLK
  0
BLOCK
  2
*DIM_0049
 70
    65
 10
0.0
 20
0.0
  0
LINE
  8
寸法
  6
BYBLOCK
 62
     0
 10
-47.575702
 20
-38.330765
 11
-164.550443
 21
-38.330765
  0
LINE
  8
寸法
  6
BYBLOCK
 62
     0
 10
-15.182727
 20
73.269958
 11
-164.550443
 21
73.269958
  0
LINE
  8
寸法
  6
BYBLOCK
 62
     0
 10
-164.550443
 20
-38.330765
 11
-164.550443
 21
73.269958
  0
POINT
  8
寸法
 62
     0
 10
-164.550443
 20
-38.330765
  0
POINT
  8
寸法
 62
     0
 10
-164.550443
 20
73.269958
  0
TEXT
  7
TextStyle03
  8
寸法
  6
CONTINUOUS
 62
     0
 10
-164.95
 20
13.325
  1
223.2
 40
3.0
 50
90.0
 72
     5
 11
-164.95
 21
21.575
  0
ENDBLK
  0
BLOCK
  2
*DIM_0050
 70
    65
 10
0.0
 20
0.0
  0
LINE
  8
寸法
  6
BYBLOCK
 62
     0
 10
-45.675702
 20
13.919982
 11
-156.012565
 21
13.919982
  0
LINE
  8
寸法
  6
BYBLOCK
 62
     0
 10
-46.075702
 20
46.519985
 11
-156.012565
 21
46.519985
  0
LINE
  8
寸法
  6
BYBLOCK
 62
     0
 10
-156.012565
 20
13.919982
 11
-156.012565
 21
46.519985
  0
POINT
  8
寸法
 62
     0
 10
-156.012565
 20
13.919982
  0
POINT
  8
寸法
 62
     0
 10
-156.012565
 20
46.519985
  0
TEXT
  7
TextStyle03
  8
寸法
  6
CONTINUOUS
 62
     0
 10
-156.4
 20
26.91875
  1
65.2
 40
3.0
 50
90.0
 72
     5
 11
-156.4
 21
33.48125
  0
ENDBLK
  0
BLOCK
  2
*DIM_0051
 70
    65
 10
0.0
 20
0.0
  0
LINE
  8
寸法
  6
BYBLOCK
 62
     0
 10
-13.825705
 20
45.769982
 11
57.653147
 21
45.769982
  0
LINE
  8
寸法
  6
BYBLOCK
 62
     0
 10
57.653147
 20
18.41998
 11
57.653147
 21
45.769982
  0
POINT
  8
寸法
 62
     0
 10
57.653147
 20
18.41998
  0
POINT
  8
寸法
 62
     0
 10
57.653147
 20
45.769982
  0
TEXT
  7
TextStyle03
  8
寸法
  6
CONTINUOUS
 62
     0
 10
57.275
 20
28.79375
  1
54.7
 40
3.0
 50
90.0
 72
     5
 11
57.275
 21
35.35625
  0
ENDBLK
  0
BLOCK
  2
*GRP_0052
 70
    65
 10
0.0
 20
0.0
  0
LINE
  8
ボルト／ビス
  6
CONTINUOUS
 62
    64
 10
-51.300705
 20
20.54267
 11
-51.073057
 21
19.917208
  0
ARC
  8
ボルト／ビス
  6
CONTINUOUS
 62
    64
 10
-49.25362
 20
20.855401
 40
2.047085
 50
152.722034
 51
180.0
  0
LINE
  8
ボルト／ビス
  6
CONTINUOUS
 62
    64
 10
-51.300705
 20
26.797302
 11
-51.073057
 21
27.422765
  0
ARC
  8
ボルト／ビス
  6
CONTINUOUS
 62
    64
 10
-49.25362
 20
26.484568
 40
2.047085
 50
180.0
 51
207.277966
  0
ARC
  8
ボルト／ビス
  6
CONTINUOUS
 62
    64
 10
-43.453839
 20
23.669985
 40
7.846866
 50
166.165046
 51
193.834954
  0
LINE
  8
ボルト／ビス
  6
CONTINUOUS
 62
    64
 10
-48.725705
 20
19.917208
 11
-51.073057
 21
19.917208
  0
LINE
  8
ボルト／ビス
  6
CONTINUOUS
 62
    64
 10
-48.725705
 20
27.422765
 11
-51.073057
 21
27.422765
  0
LINE
  8
ボルト／ビス
  6
CONTINUOUS
 62
    64
 10
-51.300705
 20
26.797302
 11
-51.300705
 21
20.54267
  0
LINE
  8
ボルト／ビス
  6
CONTINUOUS
 62
    64
 10
-51.073057
 20
25.546372
 11
-48.725705
 21
25.546372
  0
LINE
  8
ボルト／ビス
  6
CONTINUOUS
 62
    64
 10
-51.073057
 20
21.793598
 11
-48.725705
 21
21.793598
  0
LINE
  8
ボルト／ビス
  6
CONTINUOUS
 62
    64
 10
-48.725705
 20
27.422765
 11
-48.725705
 21
19.917208
  0
LINE
  8
ボルト／ビス
  6
CONTINUOUS
 62
    64
 10
-47.825705
 20
19.294985
 11
-47.325705
 21
19.294985
  0
LINE
  8
ボルト／ビス
  6
CONTINUOUS
 62
    64
 10
-47.825705
 20
28.044988
 11
-47.325705
 21
28.044988
  0
LINE
  8
ボルト／ビス
  6
CONTINUOUS
 62
    64
 10
-47.825705
 20
19.294985
 11
-47.825705
 21
28.044988
  0
LINE
  8
ボルト／ビス
  6
CONTINUOUS
 62
    64
 10
-47.325705
 20
19.294985
 11
-47.325705
 21
28.044988
  0
LINE
  8
ボルト／ビス
  6
CONTINUOUS
 62
    64
 10
-48.725705
 20
23.669985
 11
-47.825705
 21
23.669985
  0
LINE
  8
ボルト／ビス
  6
CONTINUOUS
 62
    64
 10
-48.725705
 20
27.619985
 11
-47.825705
 21
27.619985
  0
LINE
  8
ボルト／ビス
  6
CONTINUOUS
 62
    64
 10
-48.725705
 20
19.719988
 11
-47.825705
 21
19.719988
  0
LINE
  8
ボルト／ビス
  6
CONTINUOUS
 62
    64
 10
-48.725705
 20
27.619985
 11
-48.725705
 21
19.719988
  0
LINE
  8
ボルト／ビス
  6
CONTINUOUS
 62
    64
 10
-53.800708
 20
23.669985
 11
-16.225708
 21
23.669985
  0
LINE
  8
ボルト／ビス
  6
CONTINUOUS
 62
    64
 10
-18.725705
 20
25.269988
 11
-18.725705
 21
22.069985
  0
LINE
  8
ボルト／ビス
  6
CONTINUOUS
 62
    64
 10
-18.725705
 20
25.269988
 11
-18.725705
 21
22.069985
  0
LINE
  8
ボルト／ビス
  6
CONTINUOUS
 62
    64
 10
-19.325705
 20
25.669985
 11
-18.725705
 21
25.269988
  0
LINE
  8
ボルト／ビス
  6
CONTINUOUS
 62
    64
 10
-19.325705
 20
21.669988
 11
-18.725705
 21
22.069985
  0
LINE
  8
ボルト／ビス
  6
CONTINUOUS
 62
    64
 10
-18.725705
 20
25.269988
 11
-18.725705
 21
22.069985
  0
LINE
  8
ボルト／ビス
  6
CONTINUOUS
 62
    64
 10
-19.325705
 20
25.669985
 11
-19.325705
 21
21.669988
  0
LINE
  8
ボルト／ビス
  6
CONTINUOUS
 62
    64
 10
-47.325705
 20
25.669985
 11
-19.325705
 21
25.669985
  0
LINE
  8
ボルト／ビス
  6
CONTINUOUS
 62
    64
 10
-47.325705
 20
21.669988
 11
-19.325705
 21
21.669988
  0
LINE
  8
ボルト／ビス
  6
CONTINUOUS
 62
    64
 10
-18.725705
 20
25.269988
 11
-47.325705
 21
25.269988
  0
LINE
  8
ボルト／ビス
  6
CONTINUOUS
 62
    64
 10
-18.725705
 20
22.069985
 11
-47.325705
 21
22.069985
  0
ENDBLK
  0
BLOCK
  2
*GRP_0053
 70
    65
 10
0.0
 20
0.0
  0
LINE
  8
曲げ物
  6
CONTINUOUS
 10
-47.325705
 20
29.919982
 11
-44.825705
 21
29.919982
  0
LINE
  8
曲げ物
  6
CONTINUOUS
 10
-44.825705
 20
29.919982
 11
-44.825705
 21
14.919982
  0
LINE
  8
曲げ物
  6
CONTINUOUS
 10
-44.825705
 20
14.919982
 11
-59.825705
 21
14.919982
  0
LINE
  8
曲げ物
  6
CONTINUOUS
 10
-59.825705
 20
14.919982
 11
-59.825705
 21
17.419985
  0
LINE
  8
曲げ物
  6
CONTINUOUS
 10
-47.325705
 20
29.919982
 11
-47.325705
 21
17.419985
  0
LINE
  8
曲げ物
  6
CONTINUOUS
 10
-59.825705
 20
17.419985
 11
-47.325705
 21
17.419985
  0
ENDBLK
  0
BLOCK
  2
*GRP_0054
 70
    65
 10
0.0
 20
0.0
  0
LINE
  8
ボルト／ビス
  6
CONTINUOUS
 62
    64
 10
-56.703015
 20
1.444238
 11
-57.328478
 21
1.671885
  0
ARC
  8
ボルト／ビス
  6
CONTINUOUS
 62
    64
 10
-56.390289
 20
3.491324
 40
2.047085
 50
270.0
 51
297.277966
  0
LINE
  8
ボルト／ビス
  6
CONTINUOUS
 62
    64
 10
-50.448387
 20
1.444238
 11
-49.822925
 21
1.671885
  0
ARC
  8
ボルト／ビス
  6
CONTINUOUS
 62
    64
 10
-50.761122
 20
3.491324
 40
2.047085
 50
242.722034
 51
270.0
  0
ARC
  8
ボルト／ビス
  6
CONTINUOUS
 62
    64
 10
-53.575705
 20
9.291105
 40
7.846866
 50
256.165046
 51
283.834954
  0
LINE
  8
ボルト／ビス
  6
CONTINUOUS
 62
    64
 10
-57.328478
 20
4.01924
 11
-57.328478
 21
1.671885
  0
LINE
  8
ボルト／ビス
  6
CONTINUOUS
 62
    64
 10
-49.822925
 20
4.01924
 11
-49.822925
 21
1.671885
  0
LINE
  8
ボルト／ビス
  6
CONTINUOUS
 62
    64
 10
-50.448387
 20
1.444238
 11
-56.703015
 21
1.444238
  0
LINE
  8
ボルト／ビス
  6
CONTINUOUS
 62
    64
 10
-51.699312
 20
1.671885
 11
-51.699312
 21
4.01924
  0
LINE
  8
ボルト／ビス
  6
CONTINUOUS
 62
    64
 10
-55.45209
 20
1.671885
 11
-55.45209
 21
4.01924
  0
LINE
  8
ボルト／ビス
  6
CONTINUOUS
 62
    64
 10
-49.822925
 20
4.01924
 11
-57.328478
 21
4.01924
  0
LINE
  8
ボルト／ビス
  6
CONTINUOUS
 62
    64
 10
-57.9507
 20
4.91924
 11
-57.9507
 21
5.419238
  0
LINE
  8
ボルト／ビス
  6
CONTINUOUS
 62
    64
 10
-49.200702
 20
4.91924
 11
-49.200702
 21
5.419238
  0
LINE
  8
ボルト／ビス
  6
CONTINUOUS
 62
    64
 10
-57.9507
 20
4.91924
 11
-49.200702
 21
4.91924
  0
LINE
  8
ボルト／ビス
  6
CONTINUOUS
 62
    64
 10
-57.9507
 20
5.419238
 11
-49.200702
 21
5.419238
  0
LINE
  8
ボルト／ビス
  6
CONTINUOUS
 62
    64
 10
-53.5757
 20
4.01924
 11
-53.5757
 21
4.91924
  0
LINE
  8
ボルト／ビス
  6
CONTINUOUS
 62
    64
 10
-49.6257
 20
4.01924
 11
-49.6257
 21
4.91924
  0
LINE
  8
ボルト／ビス
  6
CONTINUOUS
 62
    64
 10
-57.525702
 20
4.01924
 11
-57.525702
 21
4.91924
  0
LINE
  8
ボルト／ビス
  6
CONTINUOUS
 62
    64
 10
-49.6257
 20
4.01924
 11
-57.525702
 21
4.01924
  0
ENDBLK
  0
BLOCK
  2
*GRP_0055
 70
    65
 10
0.0
 20
0.0
  0
LINE
  8
ボルト／ビス
  6
CONTINUOUS
 62
    64
 10
-56.703017
 20
21.394985
 11
-57.328482
 21
21.167338
  0
ARC
  8
ボルト／ビス
  6
CONTINUOUS
 62
    64
 10
-56.390287
 20
19.3479
 40
2.047085
 50
62.722034
 51
90.0
  0
LINE
  8
ボルト／ビス
  6
CONTINUOUS
 62
    64
 10
-50.448387
 20
21.394985
 11
-49.822925
 21
21.167338
  0
ARC
  8
ボルト／ビス
  6
CONTINUOUS
 62
    64
 10
-50.761119
 20
19.3479
 40
2.047085
 50
90.0
 51
117.277966
  0
ARC
  8
ボルト／ビス
  6
CONTINUOUS
 62
    64
 10
-53.575703
 20
13.548119
 40
7.846866
 50
76.165046
 51
103.834954
  0
LINE
  8
ボルト／ビス
  6
CONTINUOUS
 62
    64
 10
-57.328482
 20
18.819982
 11
-57.328482
 21
21.167338
  0
LINE
  8
ボルト／ビス
  6
CONTINUOUS
 62
    64
 10
-49.822925
 20
18.819982
 11
-49.822925
 21
21.167338
  0
LINE
  8
ボルト／ビス
  6
CONTINUOUS
 62
    64
 10
-50.448387
 20
21.394985
 11
-56.703017
 21
21.394985
  0
LINE
  8
ボルト／ビス
  6
CONTINUOUS
 62
    64
 10
-51.699315
 20
21.167338
 11
-51.699315
 21
18.819982
  0
LINE
  8
ボルト／ビス
  6
CONTINUOUS
 62
    64
 10
-55.45209
 20
21.167338
 11
-55.45209
 21
18.819982
  0
LINE
  8
ボルト／ビス
  6
CONTINUOUS
 62
    64
 10
-49.822925
 20
18.819982
 11
-57.328482
 21
18.819982
  0
LINE
  8
ボルト／ビス
  6
CONTINUOUS
 62
    64
 10
-57.950705
 20
17.919982
 11
-57.950705
 21
17.419985
  0
LINE
  8
ボルト／ビス
  6
CONTINUOUS
 62
    64
 10
-49.200702
 20
17.919982
 11
-49.200702
 21
17.419985
  0
LINE
  8
ボルト／ビス
  6
CONTINUOUS
 62
    64
 10
-57.950705
 20
17.919982
 11
-49.200702
 21
17.919982
  0
LINE
  8
ボルト／ビス
  6
CONTINUOUS
 62
    64
 10
-57.950705
 20
17.419985
 11
-49.200702
 21
17.419985
  0
LINE
  8
ボルト／ビス
  6
CONTINUOUS
 62
    64
 10
-53.575702
 20
18.819982
 11
-53.575702
 21
17.919982
  0
LINE
  8
ボルト／ビス
  6
CONTINUOUS
 62
    64
 10
-49.625705
 20
18.819982
 11
-49.625705
 21
17.919982
  0
LINE
  8
ボルト／ビス
  6
CONTINUOUS
 62
    64
 10
-57.525702
 20
18.819982
 11
-57.525702
 21
17.919982
  0
LINE
  8
ボルト／ビス
  6
CONTINUOUS
 62
    64
 10
-49.625705
 20
18.819982
 11
-57.525702
 21
18.819982
  0
LINE
  8
ボルト／ビス
  6
CONTINUOUS
 62
    64
 10
-53.575702
 20
23.894985
 11
-53.575702
 21
-3.680018
  0
LINE
  8
ボルト／ビス
  6
CONTINUOUS
 62
    64
 10
-51.975702
 20
-1.180015
 11
-55.175705
 21
-1.180015
  0
LINE
  8
ボルト／ビス
  6
CONTINUOUS
 62
    64
 10
-51.975702
 20
-1.180015
 11
-55.175705
 21
-1.180015
  0
LINE
  8
ボルト／ビス
  6
CONTINUOUS
 62
    64
 10
-51.575705
 20
-0.580015
 11
-51.975702
 21
-1.180015
  0
LINE
  8
ボルト／ビス
  6
CONTINUOUS
 62
    64
 10
-55.575702
 20
-0.580015
 11
-55.175705
 21
-1.180015
  0
LINE
  8
ボルト／ビス
  6
CONTINUOUS
 62
    64
 10
-51.975702
 20
-1.180015
 11
-55.175705
 21
-1.180015
  0
LINE
  8
ボルト／ビス
  6
CONTINUOUS
 62
    64
 10
-51.575705
 20
-0.580015
 11
-55.575702
 21
-0.580015
  0
LINE
  8
ボルト／ビス
  6
CONTINUOUS
 62
    64
 10
-51.575705
 20
17.419985
 11
-51.575705
 21
-0.580015
  0
LINE
  8
ボルト／ビス
  6
CONTINUOUS
 62
    64
 10
-55.575702
 20
17.419985
 11
-55.575702
 21
-0.580015
  0
LINE
  8
ボルト／ビス
  6
CONTINUOUS
 62
    64
 10
-51.975702
 20
-1.180015
 11
-51.975702
 21
17.419985
  0
LINE
  8
ボルト／ビス
  6
CONTINUOUS
 62
    64
 10
-55.175705
 20
-1.180015
 11
-55.175705
 21
17.419985
  0
ENDBLK
  0
BLOCK
  2
*GRP_0056
 70
    65
 10
0.0
 20
0.0
  0
LINE
  8
曲げ物
  6
CONTINUOUS
 10
-47.325705
 20
-7.080757
 11
-44.825705
 21
-7.080757
  0
LINE
  8
曲げ物
  6
CONTINUOUS
 10
-44.825705
 20
-7.080757
 11
-44.825705
 21
7.919242
  0
LINE
  8
曲げ物
  6
CONTINUOUS
 10
-44.825705
 20
7.919242
 11
-59.825705
 21
7.919242
  0
LINE
  8
曲げ物
  6
CONTINUOUS
 10
-59.825705
 20
7.919242
 11
-59.825705
 21
5.419242
  0
LINE
  8
曲げ物
  6
CONTINUOUS
 10
-47.325705
 20
-7.080757
 11
-47.325705
 21
5.419242
  0
LINE
  8
曲げ物
  6
CONTINUOUS
 10
-59.825705
 20
5.419242
 11
-47.325705
 21
5.419242
  0
ENDBLK
  0
BLOCK
  2
*GRP_0057
 70
    65
 10
0.0
 20
0.0
  0
LINE
  8
ボルト／ビス
  6
CONTINUOUS
 62
    64
 10
-51.300705
 20
2.296552
 11
-51.073057
 21
2.922015
  0
ARC
  8
ボルト／ビス
  6
CONTINUOUS
 62
    64
 10
-49.25362
 20
1.98382
 40
2.047085
 50
180.0
 51
207.277966
  0
LINE
  8
ボルト／ビス
  6
CONTINUOUS
 62
    64
 10
-51.300705
 20
-3.95808
 11
-51.073057
 21
-4.583543
  0
ARC
  8
ボルト／ビス
  6
CONTINUOUS
 62
    64
 10
-49.25362
 20
-3.645347
 40
2.047085
 50
152.722034
 51
180.0
  0
ARC
  8
ボルト／ビス
  6
CONTINUOUS
 62
    64
 10
-43.453839
 20
-0.830763
 40
7.846866
 50
166.165046
 51
193.834954
  0
LINE
  8
ボルト／ビス
  6
CONTINUOUS
 62
    64
 10
-48.725705
 20
2.922015
 11
-51.073057
 21
2.922015
  0
LINE
  8
ボルト／ビス
  6
CONTINUOUS
 62
    64
 10
-48.725705
 20
-4.583543
 11
-51.073057
 21
-4.583543
  0
LINE
  8
ボルト／ビス
  6
CONTINUOUS
 62
    64
 10
-51.300705
 20
-3.95808
 11
-51.300705
 21
2.296552
  0
LINE
  8
ボルト／ビス
  6
CONTINUOUS
 62
    64
 10
-51.073057
 20
-2.70715
 11
-48.725705
 21
-2.70715
  0
LINE
  8
ボルト／ビス
  6
CONTINUOUS
 62
    64
 10
-51.073057
 20
1.045625
 11
-48.725705
 21
1.045625
  0
LINE
  8
ボルト／ビス
  6
CONTINUOUS
 62
    64
 10
-48.725705
 20
-4.583543
 11
-48.725705
 21
2.922015
  0
LINE
  8
ボルト／ビス
  6
CONTINUOUS
 62
    64
 10
-47.825705
 20
3.544238
 11
-47.325705
 21
3.544238
  0
LINE
  8
ボルト／ビス
  6
CONTINUOUS
 62
    64
 10
-47.825705
 20
-5.205765
 11
-47.325705
 21
-5.205765
  0
LINE
  8
ボルト／ビス
  6
CONTINUOUS
 62
    64
 10
-47.825705
 20
3.544238
 11
-47.825705
 21
-5.205765
  0
LINE
  8
ボルト／ビス
  6
CONTINUOUS
 62
    64
 10
-47.325705
 20
3.544238
 11
-47.325705
 21
-5.205765
  0
LINE
  8
ボルト／ビス
  6
CONTINUOUS
 62
    64
 10
-48.725705
 20
-0.830763
 11
-47.825705
 21
-0.830763
  0
LINE
  8
ボルト／ビス
  6
CONTINUOUS
 62
    64
 10
-48.725705
 20
-4.780763
 11
-47.825705
 21
-4.780763
  0
LINE
  8
ボルト／ビス
  6
CONTINUOUS
 62
    64
 10
-48.725705
 20
3.119235
 11
-47.825705
 21
3.119235
  0
LINE
  8
ボルト／ビス
  6
CONTINUOUS
 62
    64
 10
-48.725705
 20
-4.780763
 11
-48.725705
 21
3.119235
  0
LINE
  8
ボルト／ビス
  6
CONTINUOUS
 62
    64
 10
-53.800708
 20
-0.830763
 11
-16.225708
 21
-0.830763
  0
LINE
  8
ボルト／ビス
  6
CONTINUOUS
 62
    64
 10
-18.725705
 20
-2.430765
 11
-18.725705
 21
0.769238
  0
LINE
  8
ボルト／ビス
  6
CONTINUOUS
 62
    64
 10
-18.725705
 20
-2.430765
 11
-18.725705
 21
0.769238
  0
LINE
  8
ボルト／ビス
  6
CONTINUOUS
 62
    64
 10
-19.325705
 20
-2.830763
 11
-18.725705
 21
-2.430765
  0
LINE
  8
ボルト／ビス
  6
CONTINUOUS
 62
    64
 10
-19.325705
 20
1.169235
 11
-18.725705
 21
0.769238
  0
LINE
  8
ボルト／ビス
  6
CONTINUOUS
 62
    64
 10
-18.725705
 20
-2.430765
 11
-18.725705
 21
0.769238
  0
LINE
  8
ボルト／ビス
  6
CONTINUOUS
 62
    64
 10
-19.325705
 20
-2.830763
 11
-19.325705
 21
1.169235
  0
LINE
  8
ボルト／ビス
  6
CONTINUOUS
 62
    64
 10
-47.325705
 20
-2.830763
 11
-19.325705
 21
-2.830763
  0
LINE
  8
ボルト／ビス
  6
CONTINUOUS
 62
    64
 10
-47.325705
 20
1.169235
 11
-19.325705
 21
1.169235
  0
LINE
  8
ボルト／ビス
  6
CONTINUOUS
 62
    64
 10
-18.725705
 20
-2.430765
 11
-47.325705
 21
-2.430765
  0
LINE
  8
ボルト／ビス
  6
CONTINUOUS
 62
    64
 10
-18.725705
 20
0.769238
 11
-47.325705
 21
0.769238
  0
ENDBLK
  0
BLOCK
  2
*GRP_0058
 70
    65
 10
0.0
 20
0.0
  0
LINE
  8
ボルト／ビス
  6
CONTINUOUS
 62
    64
 10
-20.850705
 20
20.542672
 11
-21.078352
 21
19.91721
  0
ARC
  8
ボルト／ビス
  6
CONTINUOUS
 62
    64
 10
-22.897789
 20
20.855402
 40
2.047085
 50
0.0
 51
27.277966
  0
LINE
  8
ボルト／ビス
  6
CONTINUOUS
 62
    64
 10
-20.850705
 20
26.797302
 11
-21.078352
 21
27.422765
  0
ARC
  8
ボルト／ビス
  6
CONTINUOUS
 62
    64
 10
-22.897789
 20
26.484569
 40
2.047085
 50
332.722034
 51
360.0
  0
ARC
  8
ボルト／ビス
  6
CONTINUOUS
 62
    64
 10
-28.69757
 20
23.669986
 40
7.846866
 50
346.165046
 51
373.834954
  0
LINE
  8
ボルト／ビス
  6
CONTINUOUS
 62
    64
 10
-23.425708
 20
19.91721
 11
-21.078352
 21
19.91721
  0
LINE
  8
ボルト／ビス
  6
CONTINUOUS
 62
    64
 10
-23.425708
 20
27.422765
 11
-21.078352
 21
27.422765
  0
LINE
  8
ボルト／ビス
  6
CONTINUOUS
 62
    64
 10
-20.850705
 20
26.797302
 11
-20.850705
 21
20.542672
  0
LINE
  8
ボルト／ビス
  6
CONTINUOUS
 62
    64
 10
-21.078352
 20
25.546378
 11
-23.425708
 21
25.546378
  0
LINE
  8
ボルト／ビス
  6
CONTINUOUS
 62
    64
 10
-21.078352
 20
21.793598
 11
-23.425708
 21
21.793598
  0
LINE
  8
ボルト／ビス
  6
CONTINUOUS
 62
    64
 10
-23.425708
 20
27.422765
 11
-23.425708
 21
19.91721
  0
LINE
  8
ボルト／ビス
  6
CONTINUOUS
 62
    64
 10
-24.325708
 20
19.294988
 11
-24.825705
 21
19.294988
  0
LINE
  8
ボルト／ビス
  6
CONTINUOUS
 62
    64
 10
-24.325708
 20
28.044988
 11
-24.825705
 21
28.044988
  0
LINE
  8
ボルト／ビス
  6
CONTINUOUS
 62
    64
 10
-24.325708
 20
19.294988
 11
-24.325708
 21
28.044988
  0
LINE
  8
ボルト／ビス
  6
CONTINUOUS
 62
    64
 10
-24.825705
 20
19.294988
 11
-24.825705
 21
28.044988
  0
LINE
  8
ボルト／ビス
  6
CONTINUOUS
 62
    64
 10
-23.425708
 20
23.669988
 11
-24.325708
 21
23.669988
  0
LINE
  8
ボルト／ビス
  6
CONTINUOUS
 62
    64
 10
-23.425708
 20
27.619988
 11
-24.325708
 21
27.619988
  0
LINE
  8
ボルト／ビス
  6
CONTINUOUS
 62
    64
 10
-23.425708
 20
19.719988
 11
-24.325708
 21
19.719988
  0
LINE
  8
ボルト／ビス
  6
CONTINUOUS
 62
    64
 10
-23.425708
 20
27.619988
 11
-23.425708
 21
19.719988
  0
ENDBLK
  0
BLOCK
  2
*GRP_0059
 70
    65
 10
0.0
 20
0.0
  0
LINE
  8
ボルト／ビス
  6
CONTINUOUS
 62
    64
 10
-20.850705
 20
2.29655
 11
-21.078352
 21
2.92201
  0
ARC
  8
ボルト／ビス
  6
CONTINUOUS
 62
    64
 10
-22.897789
 20
1.983819
 40
2.047085
 50
332.722034
 51
360.0
  0
LINE
  8
ボルト／ビス
  6
CONTINUOUS
 62
    64
 10
-20.850705
 20
-3.95808
 11
-21.078352
 21
-4.583543
  0
ARC
  8
ボルト／ビス
  6
CONTINUOUS
 62
    64
 10
-22.897789
 20
-3.645348
 40
2.047085
 50
0.0
 51
27.277966
  0
ARC
  8
ボルト／ビス
  6
CONTINUOUS
 62
    64
 10
-28.69757
 20
-0.830764
 40
7.846866
 50
346.165046
 51
373.834954
  0
LINE
  8
ボルト／ビス
  6
CONTINUOUS
 62
    64
 10
-23.425708
 20
2.92201
 11
-21.078352
 21
2.92201
  0
LINE
  8
ボルト／ビス
  6
CONTINUOUS
 62
    64
 10
-23.425708
 20
-4.583543
 11
-21.078352
 21
-4.583543
  0
LINE
  8
ボルト／ビス
  6
CONTINUOUS
 62
    64
 10
-20.850705
 20
-3.95808
 11
-20.850705
 21
2.29655
  0
LINE
  8
ボルト／ビス
  6
CONTINUOUS
 62
    64
 10
-21.078352
 20
-2.707155
 11
-23.425708
 21
-2.707155
  0
LINE
  8
ボルト／ビス
  6
CONTINUOUS
 62
    64
 10
-21.078352
 20
1.045625
 11
-23.425708
 21
1.045625
  0
LINE
  8
ボルト／ビス
  6
CONTINUOUS
 62
    64
 10
-23.425708
 20
-4.583543
 11
-23.425708
 21
2.92201
  0
LINE
  8
ボルト／ビス
  6
CONTINUOUS
 62
    64
 10
-24.325708
 20
3.544235
 11
-24.825705
 21
3.544235
  0
LINE
  8
ボルト／ビス
  6
CONTINUOUS
 62
    64
 10
-24.325708
 20
-5.205765
 11
-24.825705
 21
-5.205765
  0
LINE
  8
ボルト／ビス
  6
CONTINUOUS
 62
    64
 10
-24.325708
 20
3.544235
 11
-24.325708
 21
-5.205765
  0
LINE
  8
ボルト／ビス
  6
CONTINUOUS
 62
    64
 10
-24.825705
 20
3.544235
 11
-24.825705
 21
-5.205765
  0
LINE
  8
ボルト／ビス
  6
CONTINUOUS
 62
    64
 10
-23.425708
 20
-0.830768
 11
-24.325708
 21
-0.830768
  0
LINE
  8
ボルト／ビス
  6
CONTINUOUS
 62
    64
 10
-23.425708
 20
-4.780765
 11
-24.325708
 21
-4.780765
  0
LINE
  8
ボルト／ビス
  6
CONTINUOUS
 62
    64
 10
-23.425708
 20
3.119235
 11
-24.325708
 21
3.119235
  0
LINE
  8
ボルト／ビス
  6
CONTINUOUS
 62
    64
 10
-23.425708
 20
-4.780765
 11
-23.425708
 21
3.119235
  0
ENDBLK
  0
BLOCK
  2
*GRP_0060
 70
    65
 10
0.0
 20
0.0
  0
POLYLINE
  8
寸法
  6
BYBLOCK
 62
     0
 66
     1
  0
VERTEX
  8
寸法
 10
-56.703017
 20
21.394985
  0
VERTEX
  8
寸法
 10
-61.471595
 20
26.163563
  0
VERTEX
  8
寸法
 10
-70.684375
 20
26.163563
  0
SEQEND
  0
ENDBLK
  0
BLOCK
  2
*GRP_0061
 70
    65
 10
0.0
 20
0.0
  0
POLYLINE
  8
寸法
  6
BYBLOCK
 62
     0
 66
     1
  0
VERTEX
  8
寸法
 10
-59.825705
 20
6.669242
  0
VERTEX
  8
寸法
 10
-66.109192
 20
0.385755
  0
VERTEX
  8
寸法
 10
-71.46328
 20
0.385755
  0
SEQEND
  0
ENDBLK
  0
BLOCK
  2
*GRP_0062
 70
    65
 10
0.0
 20
0.0
  0
POLYLINE
  8
寸法
  6
BYBLOCK
 62
     0
 66
     1
  0
VERTEX
  8
寸法
 10
-44.825705
 20
-5.590625
  0
VERTEX
  8
寸法
 10
-48.960117
 20
-9.725037
  0
VERTEX
  8
寸法
 10
-65.834375
 20
-9.725037
  0
SEQEND
  0
ENDBLK
  0
BLOCK
  2
*GRP_0063
 70
    65
 10
0.0
 20
0.0
  0
ARC
  8
型材断面
  6
CONTINUOUS
 62
    47
 10
-27.670864
 20
-27.751741
 40
0.375
 50
47.457603
 51
227.457661
  0
ARC
  8
型材断面
  6
CONTINUOUS
 62
    47
 10
-27.670864
 20
4.84021
 40
0.375
 50
132.542339
 51
312.542397
  0
ARC
  8
型材断面
  6
CONTINUOUS
 62
    47
 10
-27.825704
 20
-24.680764
 40
0.25
 50
90.0
 51
180.0
  0
LINE
  8
型材断面
  6
CONTINUOUS
 62
    47
 10
-27.825702
 20
-24.430765
 11
-27.575705
 21
-24.430765
  0
ARC
  8
型材断面
  6
CONTINUOUS
 62
    47
 10
-27.575704
 20
-24.680764
 40
0.25
 50
0.0
 51
90.0
  0
LINE
  8
型材断面
  6
CONTINUOUS
 62
    47
 10
-27.325705
 20
-24.972512
 11
-27.325705
 21
-24.680763
  0
ARC
  8
型材断面
  6
CONTINUOUS
 62
    47
 10
-27.075704
 20
-24.972512
 40
0.25
 50
180.0
 51
277.662549
  0
LINE
  8
型材断面
  6
CONTINUOUS
 62
    47
 10
-28.075705
 20
-24.680763
 11
-28.075705
 21
-25.877327
  0
ARC
  8
型材断面
  6
CONTINUOUS
 62
    47
 10
-27.674307
 20
-25.877329
 40
0.401398
 50
180.0
 51
311.670799
  0
ARC
  8
型材断面
  6
CONTINUOUS
 62
    47
 10
-26.825695
 20
-26.83077
 40
0.875
 50
227.457588
 51
491.670746
  0
ARC
  8
型材断面
  6
CONTINUOUS
 62
    47
 10
-27.075704
 20
2.060982
 40
0.25
 50
82.337451
 51
180.0
  0
LINE
  8
型材断面
  6
CONTINUOUS
 62
    47
 10
-27.325705
 20
2.06098
 11
-27.325705
 21
1.769235
  0
ARC
  8
型材断面
  6
CONTINUOUS
 62
    47
 10
-27.575704
 20
1.769237
 40
0.25
 50
270.0
 51
360.0
  0
LINE
  8
型材断面
  6
CONTINUOUS
 62
    47
 10
-27.825702
 20
1.519238
 11
-27.575705
 21
1.519238
  0
ARC
  8
型材断面
  6
CONTINUOUS
 62
    47
 10
-27.825704
 20
1.769237
 40
0.25
 50
180.0
 51
270.0
  0
LINE
  8
型材断面
  6
CONTINUOUS
 62
    47
 10
-28.075705
 20
1.769235
 11
-28.075705
 21
2.965798
  0
ARC
  8
型材断面
  6
CONTINUOUS
 62
    47
 10
-27.674307
 20
2.965799
 40
0.401398
 50
48.329208
 51
180.0
  0
ARC
  8
型材断面
  6
CONTINUOUS
 62
    47
 10
-26.825695
 20
3.919239
 40
0.875
 50
228.329251
 51
492.542412
  0
LINE
  8
型材断面
  6
CONTINUOUS
 62
    47
 10
-4.325702
 20
-34.480765
 11
-4.325702
 21
-37.330765
  0
LINE
  8
型材断面
  6
CONTINUOUS
 62
    47
 10
-8.3257
 20
-37.330765
 11
-4.325702
 21
-37.330765
  0
LINE
  8
型材断面
  6
CONTINUOUS
 62
    47
 10
-8.3257
 20
-38.330768
 11
-8.3257
 21
-37.330765
  0
LINE
  8
型材断面
  6
CONTINUOUS
 62
    47
 10
-3.3257
 20
-38.330768
 11
-8.3257
 21
-38.330768
  0
LINE
  8
型材断面
  6
CONTINUOUS
 62
    47
 10
-3.3257
 20
-34.480765
 11
-3.3257
 21
-38.330768
  0
LINE
  8
型材断面
  6
CONTINUOUS
 62
    47
 10
11.424293
 20
-26.080765
 11
13.924295
 21
-26.080765
  0
LINE
  8
型材断面
  6
CONTINUOUS
 62
    47
 10
-24.975702
 20
-31.480763
 11
-24.825702
 21
-31.630763
  0
LINE
  8
型材断面
  6
CONTINUOUS
 62
    47
 10
-24.975702
 20
-31.480763
 11
-24.825702
 21
-31.330763
  0
LINE
  8
型材断面
  6
CONTINUOUS
 62
    47
 10
-25.575702
 20
-33.480765
 11
-37.8257
 21
-33.480765
  0
ARC
  8
型材断面
  6
CONTINUOUS
 62
    47
 10
-37.8257
 20
-33.730762
 40
0.25
 50
90.0
 51
180.0
  0
LINE
  8
型材断面
  6
CONTINUOUS
 62
    47
 10
-38.075698
 20
-33.730763
 11
-38.075698
 21
-33.980763
  0
ARC
  8
型材断面
  6
CONTINUOUS
 62
    47
 10
-37.8257
 20
-33.980762
 40
0.25
 50
180.0
 51
270.0
  0
LINE
  8
型材断面
  6
CONTINUOUS
 62
    47
 10
-37.8257
 20
-34.230765
 11
-37.0757
 21
-34.230765
  0
LINE
  8
型材断面
  6
CONTINUOUS
 62
    47
 10
-36.3257
 20
-34.480765
 11
-4.325702
 21
-34.480765
  0
LINE
  8
型材断面
  6
CONTINUOUS
 62
    47
 10
-36.3257
 20
-34.480765
 11
-36.3257
 21
-37.330765
  0
LINE
  8
型材断面
  6
CONTINUOUS
 62
    47
 10
-37.0757
 20
-37.580768
 11
-37.0757
 21
-34.230765
  0
LINE
  8
型材断面
  6
CONTINUOUS
 62
    47
 10
-36.3257
 20
-37.330765
 11
-30.3257
 21
-37.330765
  0
LINE
  8
型材断面
  6
CONTINUOUS
 62
    47
 10
-30.3257
 20
-38.330768
 11
-30.3257
 21
-37.330765
  0
LINE
  8
型材断面
  6
CONTINUOUS
 62
    47
 10
-36.3257
 20
-38.330768
 11
-30.3257
 21
-38.330768
  0
LINE
  8
型材断面
  6
CONTINUOUS
 62
    47
 10
-36.3257
 20
-45.830768
 11
-36.3257
 21
-38.330768
  0
LINE
  8
型材断面
  6
CONTINUOUS
 62
    47
 10
-37.0757
 20
-45.830768
 11
-36.3257
 21
-45.830768
  0
LINE
  8
型材断面
  6
CONTINUOUS
 62
    47
 10
-37.0757
 20
-45.830768
 11
-37.0757
 21
-41.230765
  0
LINE
  8
型材断面
  6
CONTINUOUS
 62
    47
 10
-36.9257
 20
-41.080765
 11
-37.0757
 21
-41.230765
  0
LINE
  8
型材断面
  6
CONTINUOUS
 62
    47
 10
-36.9257
 20
-41.080765
 11
-37.0757
 21
-40.930765
  0
LINE
  8
型材断面
  6
CONTINUOUS
 62
    47
 10
-37.0757
 20
-40.930765
 11
-37.0757
 21
-38.330768
  0
LINE
  8
型材断面
  6
CONTINUOUS
 62
    47
 10
-44.5757
 20
-38.330768
 11
-37.0757
 21
-38.330768
  0
LINE
  8
型材断面
  6
CONTINUOUS
 62
    47
 10
-44.5757
 20
-35.730765
 11
-44.5757
 21
-38.330768
  0
LINE
  8
型材断面
  6
CONTINUOUS
 62
    47
 10
-44.5757
 20
-35.730765
 11
-44.4257
 21
-35.580765
  0
LINE
  8
型材断面
  6
CONTINUOUS
 62
    47
 10
-44.4257
 20
-35.580765
 11
-44.5757
 21
-35.430765
  0
LINE
  8
型材断面
  6
CONTINUOUS
 62
    47
 10
-37.0757
 20
-37.580768
 11
-43.5757
 21
-37.580768
  0
LINE
  8
型材断面
  6
CONTINUOUS
 62
    47
 10
-44.4257
 20
-26.830765
 11
-44.5757
 21
-26.680765
  0
LINE
  8
型材断面
  6
CONTINUOUS
 62
    47
 10
-44.4257
 20
-26.830765
 11
-44.5757
 21
-26.980765
  0
LINE
  8
型材断面
  6
CONTINUOUS
 62
    47
 10
-44.5757
 20
-26.980765
 11
-44.5757
 21
-35.430765
  0
LINE
  8
型材断面
  6
CONTINUOUS
 62
    47
 10
-44.4257
 20
3.919238
 11
-44.5757
 21
4.069238
  0
LINE
  8
型材断面
  6
CONTINUOUS
 62
    47
 10
-44.4257
 20
3.919238
 11
-44.5757
 21
3.769238
  0
LINE
  8
型材断面
  6
CONTINUOUS
 62
    47
 10
-43.5757
 20
-37.580768
 11
-43.5757
 21
10.669238
  0
ARC
  8
型材断面
  6
CONTINUOUS
 62
    47
 10
-44.075701
 20
10.919236
 40
0.5
 50
90.0
 51
179.918972
  0
LINE
  8
型材断面
  6
CONTINUOUS
 62
    47
 10
-44.5757
 20
10.919945
 11
-44.5757
 21
4.069238
  0
LINE
  8
型材断面
  6
CONTINUOUS
 62
    47
 10
-33.073498
 20
15.519238
 11
-33.073498
 21
12.769238
  0
LINE
  8
型材断面
  6
CONTINUOUS
 62
    47
 10
-33.073498
 20
15.519238
 11
-31.3235
 21
15.519238
  0
LINE
  8
型材断面
  6
CONTINUOUS
 62
    47
 10
-31.3235
 20
15.519238
 11
-31.3235
 21
14.919238
  0
LINE
  8
型材断面
  6
CONTINUOUS
 62
    47
 10
-32.323498
 20
14.919238
 11
-31.3235
 21
14.919238
  0
LINE
  8
型材断面
  6
CONTINUOUS
 62
    47
 10
-32.323498
 20
14.919238
 11
-32.323498
 21
13.519238
  0
LINE
  8
型材断面
  6
CONTINUOUS
 62
    47
 10
-25.575702
 20
16.919977
 11
-25.575702
 21
15.519238
  0
LINE
  8
型材断面
  6
CONTINUOUS
 62
    47
 10
-24.825702
 20
16.919977
 11
-25.575702
 21
16.919977
  0
LINE
  8
型材断面
  6
CONTINUOUS
 62
    47
 10
-24.825702
 20
-31.330763
 11
-24.825702
 21
16.919977
  0
LINE
  8
型材断面
  6
CONTINUOUS
 62
    47
 10
-25.575702
 20
10.669238
 11
-43.5757
 21
10.669238
  0
LINE
  8
型材断面
  6
CONTINUOUS
 62
    47
 10
-24.825702
 20
-33.480765
 11
-24.825702
 21
-31.630763
  0
LINE
  8
型材断面
  6
CONTINUOUS
 62
    47
 10
-24.825702
 20
-33.480765
 11
13.174295
 21
-33.480765
  0
LINE
  8
型材断面
  6
CONTINUOUS
 62
    47
 10
13.174295
 20
-33.480765
 11
13.174295
 21
-26.830765
  0
LINE
  8
型材断面
  6
CONTINUOUS
 62
    47
 10
11.424293
 20
-26.830765
 11
13.174295
 21
-26.830765
  0
LINE
  8
型材断面
  6
CONTINUOUS
 62
    47
 10
11.424293
 20
-26.080765
 11
11.424293
 21
-26.830765
  0
LINE
  8
型材断面
  6
CONTINUOUS
 62
    47
 10
13.924295
 20
-34.480765
 11
13.924295
 21
-26.080765
  0
LINE
  8
型材断面
  6
CONTINUOUS
 62
    47
 10
-3.3257
 20
-34.480765
 11
13.924295
 21
-34.480765
  0
ARC
  8
型材断面
  6
CONTINUOUS
 62
    47
 10
-26.825695
 20
-26.83077
 40
1.625
 50
57.769336
 51
97.662541
  0
ARC
  8
型材断面
  6
CONTINUOUS
 62
    47
 10
-25.825703
 20
-25.244692
 40
0.25
 50
237.769336
 51
360.0
  0
ARC
  8
型材断面
  6
CONTINUOUS
 62
    47
 10
-26.825695
 20
-26.83077
 40
1.625
 50
227.457616
 51
302.230664
  0
LINE
  8
型材断面
  6
CONTINUOUS
 62
    47
 10
-25.575702
 20
-33.480765
 11
-25.575702
 21
-28.416848
  0
ARC
  8
型材断面
  6
CONTINUOUS
 62
    47
 10
-25.825703
 20
-28.416847
 40
0.25
 50
0.0
 51
122.230664
  0
LINE
  8
型材断面
  6
CONTINUOUS
 62
    47
 10
-25.575702
 20
5.505315
 11
-25.575702
 21
10.669238
  0
ARC
  8
型材断面
  6
CONTINUOUS
 62
    47
 10
-26.825695
 20
3.919239
 40
1.625
 50
57.769336
 51
132.542384
  0
ARC
  8
型材断面
  6
CONTINUOUS
 62
    47
 10
-25.825703
 20
5.505316
 40
0.25
 50
237.769336
 51
360.0
  0
ARC
  8
型材断面
  6
CONTINUOUS
 62
    47
 10
-26.825695
 20
3.919239
 40
1.625
 50
262.337459
 51
302.230664
  0
LINE
  8
型材断面
  6
CONTINUOUS
 62
    47
 10
-25.575702
 20
-25.244693
 11
-25.575702
 21
2.33316
  0
ARC
  8
型材断面
  6
CONTINUOUS
 62
    47
 10
-25.825703
 20
2.333162
 40
0.25
 50
0.0
 51
122.230664
  0
LINE
  8
型材断面
  6
CONTINUOUS
 62
    47
 10
-25.575702
 20
11.419238
 11
-25.575702
 21
14.919238
  0
LINE
  8
型材断面
  6
CONTINUOUS
 62
    47
 10
-44.5757
 20
-26.680765
 11
-44.5757
 21
3.769238
  0
LINE
  8
型材断面
  6
CONTINUOUS
 62
    47
 10
-25.575702
 20
14.919238
 11
-28.7735
 21
14.919238
  0
LINE
  8
型材断面
  6
CONTINUOUS
 62
    47
 10
-28.7735
 20
15.519238
 11
-28.7735
 21
14.919238
  0
LINE
  8
型材断面
  6
CONTINUOUS
 62
    47
 10
-25.575702
 20
15.519238
 11
-28.7735
 21
15.519238
  0
LINE
  8
型材断面
  6
CONTINUOUS
 62
    47
 10
-31.323498
 20
11.419238
 11
-31.323498
 21
12.769238
  0
LINE
  8
型材断面
  6
CONTINUOUS
 62
    47
 10
-33.073498
 20
12.769238
 11
-31.323498
 21
12.769238
  0
LINE
  8
型材断面
  6
CONTINUOUS
 62
    47
 10
-30.573498
 20
13.519238
 11
-32.323498
 21
13.519238
  0
LINE
  8
型材断面
  6
CONTINUOUS
 62
    47
 10
-30.573498
 20
11.419238
 11
-30.573498
 21
13.519238
  0
LINE
  8
型材断面
  6
CONTINUOUS
 62
    47
 10
-44.075702
 20
11.419235
 11
-31.323498
 21
11.419238
  0
LINE
  8
型材断面
  6
CONTINUOUS
 62
    47
 10
-30.573498
 20
11.419238
 11
-25.575702
 21
11.419238
  0
LINE
  8
型材断面
  6
CONTINUOUS
 62
    47
 10
-31.073495
 20
11.419238
 11
-30.823498
 21
11.419238
  0
ENDBLK
  0
BLOCK
  2
*GRP_0064
 70
    65
 10
0.0
 20
0.0
  0
ARC
  8
型材断面
  6
CONTINUOUS
 62
    47
 10
-38.495577
 20
42.674816
 40
0.375
 50
222.542768
 51
402.542424
  0
ARC
  8
型材断面
  6
CONTINUOUS
 62
    47
 10
-36.653634
 20
42.674816
 40
0.375
 50
137.457603
 51
317.457636
  0
ARC
  8
型材断面
  6
CONTINUOUS
 62
    47
 10
-37.574605
 20
43.519986
 40
0.875
 50
317.457593
 51
582.542385
  0
ARC
  8
型材断面
  6
CONTINUOUS
 62
    47
 10
-17.670877
 20
59.09095
 40
0.375
 50
132.542768
 51
312.542424
  0
ARC
  8
型材断面
  6
CONTINUOUS
 62
    47
 10
-17.670877
 20
57.249007
 40
0.375
 50
47.457603
 51
227.457636
  0
ARC
  8
型材断面
  6
CONTINUOUS
 62
    47
 10
-16.825707
 20
58.169978
 40
0.875
 50
227.457593
 51
492.542385
  0
ARC
  8
型材断面
  6
CONTINUOUS
 62
    47
 10
-17.670877
 20
52.19095
 40
0.375
 50
132.542768
 51
312.542424
  0
ARC
  8
型材断面
  6
CONTINUOUS
 62
    47
 10
-17.670877
 20
50.349007
 40
0.375
 50
47.457603
 51
227.457636
  0
ARC
  8
型材断面
  6
CONTINUOUS
 62
    47
 10
-16.825707
 20
51.269978
 40
0.875
 50
227.457593
 51
492.542385
  0
ARC
  8
型材断面
  6
CONTINUOUS
 62
    47
 10
-16.825707
 20
51.269978
 40
1.625
 50
57.768998
 51
132.542482
  0
ARC
  8
型材断面
  6
CONTINUOUS
 62
    47
 10
-16.825707
 20
51.269978
 40
1.625
 50
227.457611
 51
302.231002
  0
ARC
  8
型材断面
  6
CONTINUOUS
 62
    47
 10
-16.825707
 20
58.169978
 40
1.625
 50
227.457611
 51
302.231002
  0
ARC
  8
型材断面
  6
CONTINUOUS
 62
    47
 10
-16.825707
 20
58.169978
 40
1.625
 50
57.768998
 51
132.542482
  0
ARC
  8
型材断面
  6
CONTINUOUS
 62
    47
 10
-15.825706
 20
52.85605
 40
0.25
 50
237.768998
 51
360.0
  0
ARC
  8
型材断面
  6
CONTINUOUS
 62
    47
 10
-15.825706
 20
49.683907
 40
0.25
 50
0.0
 51
122.231002
  0
LINE
  8
型材断面
  6
CONTINUOUS
 62
    47
 10
-15.57571
 20
56.583913
 11
-15.57571
 21
52.856055
  0
ARC
  8
型材断面
  6
CONTINUOUS
 62
    47
 10
-15.825706
 20
56.583907
 40
0.25
 50
0.0
 51
122.231002
  0
ARC
  8
型材断面
  6
CONTINUOUS
 62
    47
 10
-15.825706
 20
59.75605
 40
0.25
 50
237.768998
 51
360.0
  0
ARC
  8
型材断面
  6
CONTINUOUS
 62
    47
 10
-38.495577
 20
21.015146
 40
0.375
 50
317.457576
 51
497.457232
  0
ARC
  8
型材断面
  6
CONTINUOUS
 62
    47
 10
-36.653634
 20
21.015146
 40
0.375
 50
42.542364
 51
222.542397
  0
ARC
  8
型材断面
  6
CONTINUOUS
 62
    47
 10
-37.574605
 20
20.169976
 40
0.875
 50
137.457615
 51
402.542407
  0
ARC
  8
型材断面
  6
CONTINUOUS
 62
    47
 10
-37.574605
 20
20.169976
 40
1.625
 50
137.457518
 51
203.578078
  0
ARC
  8
型材断面
  6
CONTINUOUS
 62
    47
 10
-39.293073
 20
19.419979
 40
0.25
 50
270.0
 51
383.578078
  0
ARC
  8
型材断面
  6
CONTINUOUS
 62
    47
 10
-37.574605
 20
20.169976
 40
1.625
 50
336.421922
 51
402.542389
  0
ARC
  8
型材断面
  6
CONTINUOUS
 62
    47
 10
-35.856138
 20
19.419979
 40
0.25
 50
156.421922
 51
270.0
  0
ARC
  8
型材断面
  6
CONTINUOUS
 62
    47
 10
-27.925712
 20
21.019979
 40
0.25
 50
90.0
 51
180.0
  0
LINE
  8
型材断面
  6
CONTINUOUS
 62
    47
 10
-27.925713
 20
21.269977
 11
-27.67571
 21
21.269977
  0
ARC
  8
型材断面
  6
CONTINUOUS
 62
    47
 10
-27.675712
 20
21.019979
 40
0.25
 50
0.0
 51
90.0
  0
ARC
  8
型材断面
  6
CONTINUOUS
 62
    47
 10
-27.675712
 20
43.519983
 40
0.25
 50
270.0
 51
360.0
  0
LINE
  8
型材断面
  6
CONTINUOUS
 62
    47
 10
-27.925713
 20
43.269982
 11
-27.67571
 21
43.269982
  0
ARC
  8
型材断面
  6
CONTINUOUS
 62
    47
 10
-27.925712
 20
43.519983
 40
0.25
 50
180.0
 51
270.0
  0
ARC
  8
型材断面
  6
CONTINUOUS
 62
    47
 10
-37.574605
 20
43.519986
 40
1.625
 50
317.457611
 51
430.528817
  0
ARC
  8
型材断面
  6
CONTINUOUS
 62
    47
 10
-36.949607
 20
45.287753
 40
0.25
 50
180.0
 51
250.528828
  0
LINE
  8
型材断面
  6
CONTINUOUS
 62
    47
 10
-37.199607
 20
45.519982
 11
-37.199607
 21
45.287752
  0
ARC
  8
型材断面
  6
CONTINUOUS
 62
    47
 10
-36.949607
 20
45.519983
 40
0.25
 50
90.0
 51
180.0
  0
LINE
  8
型材断面
  6
CONTINUOUS
 62
    47
 10
-38.199605
 20
45.769985
 11
-43.5757
 21
45.769985
  0
ARC
  8
型材断面
  6
CONTINUOUS
 62
    47
 10
-38.199607
 20
45.519983
 40
0.25
 50
0.0
 51
90.0
  0
LINE
  8
型材断面
  6
CONTINUOUS
 62
    47
 10
-37.949607
 20
45.519982
 11
-37.949607
 21
45.287752
  0
ARC
  8
型材断面
  6
CONTINUOUS
 62
    47
 10
-37.574605
 20
43.519986
 40
1.625
 50
109.471258
 51
222.542482
  0
ARC
  8
型材断面
  6
CONTINUOUS
 62
    47
 10
-38.199607
 20
45.287752
 40
0.25
 50
289.471269
 51
360.0
  0
LINE
  8
型材断面
  6
CONTINUOUS
 62
    47
 10
-27.425713
 20
19.41998
 11
-25.57571
 21
19.41998
  0
LINE
  8
型材断面
  6
CONTINUOUS
 62
    47
 10
-28.175713
 20
21.01998
 11
-28.175713
 21
19.41998
  0
LINE
  8
型材断面
  6
CONTINUOUS
 62
    47
 10
-27.425713
 20
20.519977
 11
-27.425713
 21
21.01998
  0
LINE
  8
型材断面
  6
CONTINUOUS
 62
    47
 10
-27.425713
 20
20.519977
 11
-27.175003
 21
20.519977
  0
ARC
  8
型材断面
  6
CONTINUOUS
 62
    47
 10
-27.175711
 20
20.26998
 40
0.249999
 50
270.0
 51
449.837943
  0
LINE
  8
型材断面
  6
CONTINUOUS
 62
    47
 10
-27.175713
 20
20.01998
 11
-27.425713
 21
20.01998
  0
LINE
  8
型材断面
  6
CONTINUOUS
 62
    47
 10
-27.425713
 20
20.01998
 11
-27.425713
 21
19.41998
  0
LINE
  8
型材断面
  6
CONTINUOUS
 62
    47
 10
-30.325705
 20
19.41998
 11
-28.175713
 21
19.41998
  0
LINE
  8
型材断面
  6
CONTINUOUS
 62
    47
 10
-31.075705
 20
19.169977
 11
-35.856138
 21
19.169977
  0
LINE
  8
型材断面
  6
CONTINUOUS
 62
    47
 10
-43.5757
 20
19.169977
 11
-39.293073
 21
19.169977
  0
LINE
  8
型材断面
  6
CONTINUOUS
 62
    47
 10
-36.949607
 20
45.769985
 11
-31.075705
 21
45.769985
  0
LINE
  8
型材断面
  6
CONTINUOUS
 62
    47
 10
-31.075705
 20
19.169977
 11
-31.075705
 21
45.769985
  0
LINE
  8
型材断面
  6
CONTINUOUS
 62
    47
 10
-30.325705
 20
19.41998
 11
-30.325705
 21
45.769985
  0
LINE
  8
型材断面
  6
CONTINUOUS
 62
    47
 10
-30.325705
 20
45.769985
 11
-28.175713
 21
45.769985
  0
LINE
  8
型材断面
  6
CONTINUOUS
 62
    47
 10
-28.175713
 20
45.769985
 11
-28.175713
 21
43.519985
  0
LINE
  8
型材断面
  6
CONTINUOUS
 62
    47
 10
-27.425713
 20
45.769985
 11
-27.425713
 21
43.519985
  0
LINE
  8
型材断面
  6
CONTINUOUS
 62
    47
 10
-27.425713
 20
45.769985
 11
-25.57571
 21
45.769985
  0
LINE
  8
型材断面
  6
CONTINUOUS
 62
    47
 10
-25.57571
 20
19.41998
 11
-25.57571
 21
45.769985
  0
LINE
  8
型材断面
  6
CONTINUOUS
 62
    47
 10
-15.57571
 20
46.519985
 11
-15.57571
 21
49.683907
  0
LINE
  8
型材断面
  6
CONTINUOUS
 62
    47
 10
-15.57571
 20
46.519985
 11
-30.325705
 21
46.519985
  0
LINE
  8
型材断面
  6
CONTINUOUS
 62
    47
 10
-30.325705
 20
46.519985
 11
-30.325705
 21
63.419982
  0
LINE
  8
型材断面
  6
CONTINUOUS
 62
    47
 10
-27.57571
 20
63.419982
 11
-30.325705
 21
63.419982
  0
LINE
  8
型材断面
  6
CONTINUOUS
 62
    47
 10
-27.22571
 20
62.669982
 11
-27.57571
 21
63.419982
  0
LINE
  8
型材断面
  6
CONTINUOUS
 62
    47
 10
-27.22571
 20
62.669982
 11
-22.42571
 21
62.669982
  0
LINE
  8
型材断面
  6
CONTINUOUS
 62
    47
 10
-22.42571
 20
62.669982
 11
-22.075713
 21
63.419982
  0
LINE
  8
型材断面
  6
CONTINUOUS
 62
    47
 10
-15.57571
 20
63.419982
 11
-22.075713
 21
63.419982
  0
LINE
  8
型材断面
  6
CONTINUOUS
 62
    47
 10
-15.57571
 20
63.419982
 11
-15.57571
 21
59.756053
  0
ARC
  8
型材断面
  6
CONTINUOUS
 62
    47
 10
-44.075707
 20
46.019983
 40
0.5
 50
90.0
 51
180.0
  0
ARC
  8
型材断面
  6
CONTINUOUS
 62
    47
 10
-14.975713
 20
64.019982
 40
0.15
 50
0.0
 51
90.0
  0
ARC
  8
型材断面
  6
CONTINUOUS
 62
    47
 10
-13.875713
 20
63.119982
 40
0.15
 50
0.0
 51
90.0
  0
LINE
  8
型材断面
  6
CONTINUOUS
 62
    47
 10
-13.72571
 20
62.419982
 11
-13.72571
 21
63.119982
  0
ARC
  8
型材断面
  6
CONTINUOUS
 62
    47
 10
-13.875713
 20
62.419982
 40
0.15
 50
270.0
 51
360.0
  0
ARC
  8
型材断面
  6
CONTINUOUS
 62
    47
 10
-0.775713
 20
55.119982
 40
0.15
 50
90.0
 51
180.0
  0
LINE
  8
型材断面
  6
CONTINUOUS
 62
    47
 10
-0.775705
 20
55.269982
 11
-0.475705
 21
55.269982
  0
ARC
  8
型材断面
  6
CONTINUOUS
 62
    47
 10
-0.475713
 20
55.119982
 40
0.15
 50
0.0
 51
90.0
  0
LINE
  8
型材断面
  6
CONTINUOUS
 62
    47
 10
-0.325705
 20
53.419985
 11
-0.325705
 21
55.119982
  0
ARC
  8
型材断面
  6
CONTINUOUS
 62
    47
 10
-0.475713
 20
53.419982
 40
0.15
 50
270.0
 51
360.0
  0
ARC
  8
型材断面
  6
CONTINUOUS
 62
    47
 10
-12.325713
 20
56.019982
 40
0.15
 50
90.0
 51
180.0
  0
LINE
  8
型材断面
  6
CONTINUOUS
 62
    47
 10
-12.475705
 20
55.569982
 11
-12.475705
 21
56.019982
  0
ARC
  8
型材断面
  6
CONTINUOUS
 62
    47
 10
-12.325713
 20
55.569982
 40
0.15
 50
180.0
 51
270.0
  0
LINE
  8
型材断面
  6
CONTINUOUS
 62
    47
 10
-12.325705
 20
56.169982
 11
-10.62571
 21
56.169982
  0
ARC
  8
型材断面
  6
CONTINUOUS
 62
    47
 10
-10.625713
 20
56.019982
 40
0.15
 50
0.0
 51
90.0
  0
LINE
  8
型材断面
  6
CONTINUOUS
 62
    47
 10
-44.425705
 20
20.16998
 11
-44.575705
 21
20.31998
  0
LINE
  8
型材断面
  6
CONTINUOUS
 62
    47
 10
-44.425705
 20
20.16998
 11
-44.575705
 21
20.01998
  0
LINE
  8
型材断面
  6
CONTINUOUS
 62
    47
 10
-24.825708
 20
18.419977
 11
-43.5757
 21
18.419977
  0
LINE
  8
型材断面
  6
CONTINUOUS
 62
    47
 10
-43.575702
 20
14.069977
 11
-43.5757
 21
18.419977
  0
ARC
  8
型材断面
  6
CONTINUOUS
 62
    47
 10
-43.725702
 20
14.069979
 40
0.15
 50
270.0
 51
360.0
  0
ARC
  8
型材断面
  6
CONTINUOUS
 62
    47
 10
-44.675704
 20
14.069979
 40
0.15
 50
180.0
 51
270.0
  0
LINE
  8
型材断面
  6
CONTINUOUS
 62
    47
 10
-44.675705
 20
13.919977
 11
-43.725702
 21
13.919977
  0
LINE
  8
型材断面
  6
CONTINUOUS
 62
    47
 10
-44.825705
 20
14.069977
 11
-44.825705
 21
14.669977
  0
LINE
  8
型材断面
  6
CONTINUOUS
 62
    47
 10
-44.575705
 20
14.91998
 11
-44.575705
 21
20.01998
  0
ARC
  8
型材断面
  6
CONTINUOUS
 62
    47
 10
-44.575704
 20
14.669979
 40
0.25
 50
89.999656
 51
180.0
  0
LINE
  8
型材断面
  6
CONTINUOUS
 62
    47
 10
-44.575705
 20
43.669985
 11
-44.575705
 21
46.019985
  0
LINE
  8
型材断面
  6
CONTINUOUS
 62
    47
 10
-44.425705
 20
43.519985
 11
-44.575705
 21
43.669985
  0
LINE
  8
型材断面
  6
CONTINUOUS
 62
    47
 10
-44.425705
 20
43.519985
 11
-44.575705
 21
43.369985
  0
LINE
  8
型材断面
  6
CONTINUOUS
 62
    47
 10
-44.575705
 20
39.16998
 11
-44.575705
 21
43.369985
  0
LINE
  8
型材断面
  6
CONTINUOUS
 62
    47
 10
-44.425705
 20
39.01998
 11
-44.575705
 21
39.16998
  0
LINE
  8
型材断面
  6
CONTINUOUS
 62
    47
 10
-44.425705
 20
39.01998
 11
-44.575705
 21
38.86998
  0
LINE
  8
型材断面
  6
CONTINUOUS
 62
    47
 10
-44.575705
 20
38.86998
 11
-44.575705
 21
20.31998
  0
LINE
  8
型材断面
  6
CONTINUOUS
 62
    47
 10
-31.17571
 20
51.269985
 11
-31.32571
 21
51.419985
  0
LINE
  8
型材断面
  6
CONTINUOUS
 62
    47
 10
-31.17571
 20
51.269985
 11
-31.32571
 21
51.119985
  0
LINE
  8
型材断面
  6
CONTINUOUS
 62
    47
 10
-31.32571
 20
51.119985
 11
-31.32571
 21
46.519985
  0
LINE
  8
型材断面
  6
CONTINUOUS
 62
    47
 10
-31.32571
 20
46.519985
 11
-44.075705
 21
46.519985
  0
LINE
  8
型材断面
  6
CONTINUOUS
 62
    47
 10
-24.825708
 20
18.419977
 11
-24.825708
 21
45.769985
  0
LINE
  8
型材断面
  6
CONTINUOUS
 62
    47
 10
-14.82571
 20
45.769985
 11
-24.825708
 21
45.769985
  0
LINE
  8
型材断面
  6
CONTINUOUS
 62
    47
 10
-14.82571
 20
45.769985
 11
-14.82571
 21
53.269985
  0
LINE
  8
型材断面
  6
CONTINUOUS
 62
    47
 10
-14.82571
 20
53.269985
 11
-0.475705
 21
53.269985
  0
LINE
  8
型材断面
  6
CONTINUOUS
 62
    47
 10
-14.82571
 20
54.269982
 11
-11.22571
 21
54.269982
  0
LINE
  8
型材断面
  6
CONTINUOUS
 62
    47
 10
-12.325705
 20
55.419982
 11
-11.22571
 21
55.419982
  0
LINE
  8
型材断面
  6
CONTINUOUS
 62
    47
 10
-11.22571
 20
54.269982
 11
-11.22571
 21
55.419982
  0
LINE
  8
型材断面
  6
CONTINUOUS
 62
    47
 10
-10.47571
 20
54.269982
 11
-10.47571
 21
56.019982
  0
LINE
  8
型材断面
  6
CONTINUOUS
 62
    47
 10
-0.925705
 20
54.269982
 11
-0.925705
 21
55.119982
  0
LINE
  8
型材断面
  6
CONTINUOUS
 62
    47
 10
-10.47571
 20
54.269982
 11
-0.925705
 21
54.269982
  0
LINE
  8
型材断面
  6
CONTINUOUS
 62
    47
 10
-14.82571
 20
54.269982
 11
-14.82571
 21
62.269982
  0
LINE
  8
型材断面
  6
CONTINUOUS
 62
    47
 10
-14.82571
 20
62.269982
 11
-13.87571
 21
62.269982
  0
LINE
  8
型材断面
  6
CONTINUOUS
 62
    47
 10
-14.82571
 20
63.269982
 11
-13.87571
 21
63.269982
  0
LINE
  8
型材断面
  6
CONTINUOUS
 62
    47
 10
-14.82571
 20
63.269982
 11
-14.82571
 21
64.019982
  0
LINE
  8
型材断面
  6
CONTINUOUS
 62
    47
 10
-19.675705
 20
64.169982
 11
-14.97571
 21
64.169982
  0
LINE
  8
型材断面
  6
CONTINUOUS
 62
    47
 10
-19.825705
 20
64.019982
 11
-19.675705
 21
64.169982
  0
LINE
  8
型材断面
  6
CONTINUOUS
 62
    47
 10
-19.975705
 20
64.169982
 11
-19.825705
 21
64.019982
  0
LINE
  8
型材断面
  6
CONTINUOUS
 62
    47
 10
-24.67571
 20
64.169982
 11
-19.975705
 21
64.169982
  0
LINE
  8
型材断面
  6
CONTINUOUS
 62
    47
 10
-24.82571
 20
64.019982
 11
-24.67571
 21
64.169982
  0
LINE
  8
型材断面
  6
CONTINUOUS
 62
    47
 10
-24.97571
 20
64.169982
 11
-24.82571
 21
64.019982
  0
LINE
  8
型材断面
  6
CONTINUOUS
 62
    47
 10
-24.97571
 20
64.169982
 11
-31.32571
 21
64.169982
  0
LINE
  8
型材断面
  6
CONTINUOUS
 62
    47
 10
-31.32571
 20
64.169982
 11
-31.32571
 21
58.319985
  0
LINE
  8
型材断面
  6
CONTINUOUS
 62
    47
 10
-31.17571
 20
58.169985
 11
-31.32571
 21
58.319985
  0
LINE
  8
型材断面
  6
CONTINUOUS
 62
    47
 10
-31.17571
 20
58.169985
 11
-31.32571
 21
58.019985
  0
LINE
  8
型材断面
  6
CONTINUOUS
 62
    47
 10
-31.32571
 20
58.019985
 11
-31.32571
 21
51.419985
  0
LINE
  8
型材断面
  6
CONTINUOUS
 62
    47
 10
-43.5757
 20
19.169977
 11
-43.5757
 21
45.769985
  0
LINE
  8
型材断面
  6
CONTINUOUS
 62
    47
 10
-44.580703
 20
14.91998
 11
-44.577905
 21
14.91998
  0
ENDBLK
  0
BLOCK
  2
*GRP_0065
 70
    65
 10
0.0
 20
0.0
  0
LINE
  8
ボルト／ビス
  6
CONTINUOUS
 62
    64
 10
-34.62571
 20
-59.208078
 11
-34.398057
 21
-59.83354
  0
ARC
  8
ボルト／ビス
  6
CONTINUOUS
 62
    64
 10
-32.578626
 20
-58.895344
 40
2.047085
 50
152.722034
 51
180.0
  0
LINE
  8
ボルト／ビス
  6
CONTINUOUS
 62
    64
 10
-34.62571
 20
-52.953448
 11
-34.398057
 21
-52.327985
  0
ARC
  8
ボルト／ビス
  6
CONTINUOUS
 62
    64
 10
-32.578626
 20
-53.266176
 40
2.047085
 50
180.0
 51
207.277966
  0
ARC
  8
ボルト／ビス
  6
CONTINUOUS
 62
    64
 10
-26.778845
 20
-56.08076
 40
7.846866
 50
166.165046
 51
193.834954
  0
LINE
  8
ボルト／ビス
  6
CONTINUOUS
 62
    64
 10
-32.050708
 20
-59.83354
 11
-34.398057
 21
-59.83354
  0
LINE
  8
ボルト／ビス
  6
CONTINUOUS
 62
    64
 10
-32.050708
 20
-52.327985
 11
-34.398057
 21
-52.327985
  0
LINE
  8
ボルト／ビス
  6
CONTINUOUS
 62
    64
 10
-34.62571
 20
-52.953448
 11
-34.62571
 21
-59.208078
  0
LINE
  8
ボルト／ビス
  6
CONTINUOUS
 62
    64
 10
-34.398057
 20
-54.204373
 11
-32.050708
 21
-54.204373
  0
LINE
  8
ボルト／ビス
  6
CONTINUOUS
 62
    64
 10
-34.398057
 20
-57.957153
 11
-32.050708
 21
-57.957153
  0
LINE
  8
ボルト／ビス
  6
CONTINUOUS
 62
    64
 10
-32.050708
 20
-52.327985
 11
-32.050708
 21
-59.83354
  0
LINE
  8
ボルト／ビス
  6
CONTINUOUS
 62
    64
 10
-31.150708
 20
-60.455763
 11
-30.65071
 21
-60.455763
  0
LINE
  8
ボルト／ビス
  6
CONTINUOUS
 62
    64
 10
-31.150708
 20
-51.705763
 11
-30.65071
 21
-51.705763
  0
LINE
  8
ボルト／ビス
  6
CONTINUOUS
 62
    64
 10
-31.150708
 20
-60.455763
 11
-31.150708
 21
-51.705763
  0
LINE
  8
ボルト／ビス
  6
CONTINUOUS
 62
    64
 10
-30.65071
 20
-60.455763
 11
-30.65071
 21
-51.705763
  0
LINE
  8
ボルト／ビス
  6
CONTINUOUS
 62
    64
 10
-32.050708
 20
-56.08076
 11
-31.150708
 21
-56.08076
  0
LINE
  8
ボルト／ビス
  6
CONTINUOUS
 62
    64
 10
-32.050708
 20
-52.130763
 11
-31.150708
 21
-52.130763
  0
LINE
  8
ボルト／ビス
  6
CONTINUOUS
 62
    64
 10
-32.050708
 20
-60.030763
 11
-31.150708
 21
-60.030763
  0
LINE
  8
ボルト／ビス
  6
CONTINUOUS
 62
    64
 10
-32.050708
 20
-52.130763
 11
-32.050708
 21
-60.030763
  0
LINE
  8
ボルト／ビス
  6
CONTINUOUS
 62
    64
 10
-37.125708
 20
-56.08076
 11
-17.050708
 21
-56.08076
  0
LINE
  8
ボルト／ビス
  6
CONTINUOUS
 62
    64
 10
-19.55071
 20
-54.480763
 11
-19.55071
 21
-57.680763
  0
LINE
  8
ボルト／ビス
  6
CONTINUOUS
 62
    64
 10
-20.15071
 20
-54.080763
 11
-19.55071
 21
-54.480763
  0
LINE
  8
ボルト／ビス
  6
CONTINUOUS
 62
    64
 10
-20.15071
 20
-58.080763
 11
-19.55071
 21
-57.680763
  0
LINE
  8
ボルト／ビス
  6
CONTINUOUS
 62
    64
 10
-19.55071
 20
-54.480763
 11
-19.55071
 21
-57.680763
  0
LINE
  8
ボルト／ビス
  6
CONTINUOUS
 62
    64
 10
-20.15071
 20
-54.080763
 11
-20.15071
 21
-58.080763
  0
LINE
  8
ボルト／ビス
  6
CONTINUOUS
 62
    64
 10
-30.65071
 20
-54.080763
 11
-20.15071
 21
-54.080763
  0
LINE
  8
ボルト／ビス
  6
CONTINUOUS
 62
    64
 10
-30.65071
 20
-58.080763
 11
-20.15071
 21
-58.080763
  0
LINE
  8
ボルト／ビス
  6
CONTINUOUS
 62
    64
 10
-30.65071
 20
-54.480763
 11
-19.55071
 21
-54.480763
  0
LINE
  8
ボルト／ビス
  6
CONTINUOUS
 62
    64
 10
-30.65071
 20
-57.680763
 11
-19.55071
 21
-57.680763
  0
ENDBLK
  0
BLOCK
  2
*GRP_0066
 70
    65
 10
0.0
 20
0.0
  0
LINE
  8
ボルト／ビス
  6
CONTINUOUS
 62
    64
 10
-23.475708
 20
-59.208072
 11
-23.703355
 21
-59.833535
  0
ARC
  8
ボルト／ビス
  6
CONTINUOUS
 62
    64
 10
-25.522792
 20
-58.895342
 40
2.047085
 50
0.0
 51
27.277966
  0
LINE
  8
ボルト／ビス
  6
CONTINUOUS
 62
    64
 10
-23.475708
 20
-52.953445
 11
-23.703355
 21
-52.327982
  0
ARC
  8
ボルト／ビス
  6
CONTINUOUS
 62
    64
 10
-25.522792
 20
-53.266175
 40
2.047085
 50
332.722034
 51
360.0
  0
ARC
  8
ボルト／ビス
  6
CONTINUOUS
 62
    64
 10
-31.322573
 20
-56.080758
 40
7.846866
 50
346.165046
 51
373.834954
  0
LINE
  8
ボルト／ビス
  6
CONTINUOUS
 62
    64
 10
-26.050708
 20
-59.833535
 11
-23.703355
 21
-59.833535
  0
LINE
  8
ボルト／ビス
  6
CONTINUOUS
 62
    64
 10
-26.050708
 20
-52.327982
 11
-23.703355
 21
-52.327982
  0
LINE
  8
ボルト／ビス
  6
CONTINUOUS
 62
    64
 10
-23.475708
 20
-52.953445
 11
-23.475708
 21
-59.208072
  0
LINE
  8
ボルト／ビス
  6
CONTINUOUS
 62
    64
 10
-23.703355
 20
-54.20437
 11
-26.050708
 21
-54.20437
  0
LINE
  8
ボルト／ビス
  6
CONTINUOUS
 62
    64
 10
-23.703355
 20
-57.957147
 11
-26.050708
 21
-57.957147
  0
LINE
  8
ボルト／ビス
  6
CONTINUOUS
 62
    64
 10
-26.050708
 20
-52.327982
 11
-26.050708
 21
-59.833535
  0
LINE
  8
ボルト／ビス
  6
CONTINUOUS
 62
    64
 10
-26.950708
 20
-60.455757
 11
-27.450708
 21
-60.455757
  0
LINE
  8
ボルト／ビス
  6
CONTINUOUS
 62
    64
 10
-26.950708
 20
-51.70576
 11
-27.450708
 21
-51.70576
  0
LINE
  8
ボルト／ビス
  6
CONTINUOUS
 62
    64
 10
-26.950708
 20
-60.455757
 11
-26.950708
 21
-51.70576
  0
LINE
  8
ボルト／ビス
  6
CONTINUOUS
 62
    64
 10
-27.450708
 20
-60.455757
 11
-27.450708
 21
-51.70576
  0
LINE
  8
ボルト／ビス
  6
CONTINUOUS
 62
    64
 10
-26.050708
 20
-56.080757
 11
-26.950708
 21
-56.080757
  0
LINE
  8
ボルト／ビス
  6
CONTINUOUS
 62
    64
 10
-26.050708
 20
-52.130757
 11
-26.950708
 21
-52.130757
  0
LINE
  8
ボルト／ビス
  6
CONTINUOUS
 62
    64
 10
-26.050708
 20
-60.03076
 11
-26.950708
 21
-60.03076
  0
LINE
  8
ボルト／ビス
  6
CONTINUOUS
 62
    64
 10
-26.050708
 20
-52.130757
 11
-26.050708
 21
-60.03076
  0
ENDBLK
  0
BLOCK
  2
*GRP_0067
 70
    65
 10
0.0
 20
0.0
  0
LINE
  8
ボルト／ビス
  6
CONTINUOUS
 62
    64
 10
-30.292263
 20
-40.530768
 11
-30.338112
 21
-41.054847
  0
ARC
  8
ボルト／ビス
  6
CONTINUOUS
 62
    64
 10
-31.184879
 20
-40.980763
 40
0.85
 50
270.0
 51
355.000011
  0
LINE
  8
ボルト／ビス
  6
CONTINUOUS
 62
    64
 10
-31.184878
 20
-41.830765
 11
-32.042263
 21
-41.830765
  0
LINE
  8
ボルト／ビス
  6
CONTINUOUS
 62
    64
 10
-33.792265
 20
-40.530768
 11
-33.746413
 21
-41.054847
  0
ARC
  8
ボルト／ビス
  6
CONTINUOUS
 62
    64
 10
-32.899646
 20
-40.980763
 40
0.85
 50
184.999989
 51
270.0
  0
LINE
  8
ボルト／ビス
  6
CONTINUOUS
 62
    64
 10
-32.899647
 20
-41.830765
 11
-32.042263
 21
-41.830765
  0
LINE
  8
ボルト／ビス
  6
CONTINUOUS
 62
    64
 10
-30.843942
 20
-41.638315
 11
-30.843942
 21
-41.759395
  0
LINE
  8
ボルト／ビス
  6
CONTINUOUS
 62
    64
 10
-31.692265
 20
-41.313273
 11
-32.042263
 21
-41.313273
  0
LINE
  8
ボルト／ビス
  6
CONTINUOUS
 62
    64
 10
-31.492263
 20
-41.638315
 11
-30.843942
 21
-41.638315
  0
LINE
  8
ボルト／ビス
  6
CONTINUOUS
 62
    64
 10
-31.692265
 20
-41.313273
 11
-31.692265
 21
-41.438313
  0
ARC
  8
ボルト／ビス
  6
CONTINUOUS
 62
    64
 10
-31.492263
 20
-41.438311
 40
0.2
 50
180.0
 51
270.0
  0
LINE
  8
ボルト／ビス
  6
CONTINUOUS
 62
    64
 10
-33.240582
 20
-41.638315
 11
-33.240582
 21
-41.759395
  0
LINE
  8
ボルト／ビス
  6
CONTINUOUS
 62
    64
 10
-32.392263
 20
-41.313273
 11
-32.042263
 21
-41.313273
  0
LINE
  8
ボルト／ビス
  6
CONTINUOUS
 62
    64
 10
-32.592265
 20
-41.638315
 11
-33.240582
 21
-41.638315
  0
LINE
  8
ボルト／ビス
  6
CONTINUOUS
 62
    64
 10
-32.392263
 20
-41.313273
 11
-32.392263
 21
-41.438313
  0
ARC
  8
ボルト／ビス
  6
CONTINUOUS
 62
    64
 10
-32.592263
 20
-41.438311
 40
0.2
 50
270.0
 51
360.0
  0
LINE
  8
ボルト／ビス
  6
CONTINUOUS
 62
    64
 10
-30.292263
 20
-40.530768
 11
-33.792265
 21
-40.530768
  0
LINE
  8
ボルト／ビス
  6
CONTINUOUS
 62
    64
 10
-31.042263
 20
-35.780765
 11
-31.292263
 21
-35.530765
  0
LINE
  8
ボルト／ビス
  6
CONTINUOUS
 62
    64
 10
-33.042265
 20
-35.780765
 11
-32.792263
 21
-35.530765
  0
LINE
  8
ボルト／ビス
  6
CONTINUOUS
 62
    64
 10
-31.042263
 20
-35.780765
 11
-33.042265
 21
-35.780765
  0
LINE
  8
ボルト／ビス
  6
CONTINUOUS
 62
    64
 10
-31.292263
 20
-35.530765
 11
-32.792263
 21
-35.530765
  0
LINE
  8
ボルト／ビス
  6
CONTINUOUS
 62
    64
 10
-32.042263
 20
-42.81646
 11
-32.042263
 21
-34.743328
  0
LINE
  8
ボルト／ビス
  6
CONTINUOUS
 62
    64
 10
-31.042263
 20
-40.530768
 11
-31.042263
 21
-35.780765
  0
LINE
  8
ボルト／ビス
  6
CONTINUOUS
 62
    64
 10
-33.042265
 20
-40.530768
 11
-33.042265
 21
-35.780765
  0
LINE
  8
ボルト／ビス
  6
CONTINUOUS
 62
    64
 10
-32.792263
 20
-40.530768
 11
-32.792263
 21
-35.530765
  0
LINE
  8
ボルト／ビス
  6
CONTINUOUS
 62
    64
 10
-31.292263
 20
-40.530768
 11
-31.292263
 21
-35.530765
  0
ENDBLK
  0
BLOCK
  2
*GRP_0068
 70
    65
 10
0.0
 20
0.0
  0
LINE
  8
ボルト／ビス
  6
CONTINUOUS
 62
    64
 10
-3.800698
 20
-39.930768
 11
-3.84655
 21
-40.454847
  0
ARC
  8
ボルト／ビス
  6
CONTINUOUS
 62
    64
 10
-4.693316
 20
-40.380763
 40
0.85
 50
270.0
 51
355.000011
  0
LINE
  8
ボルト／ビス
  6
CONTINUOUS
 62
    64
 10
-4.693315
 20
-41.230765
 11
-5.5507
 21
-41.230765
  0
LINE
  8
ボルト／ビス
  6
CONTINUOUS
 62
    64
 10
-7.3007
 20
-39.930768
 11
-7.25485
 21
-40.454847
  0
ARC
  8
ボルト／ビス
  6
CONTINUOUS
 62
    64
 10
-6.408082
 20
-40.380763
 40
0.85
 50
184.999989
 51
270.0
  0
LINE
  8
ボルト／ビス
  6
CONTINUOUS
 62
    64
 10
-6.408085
 20
-41.230765
 11
-5.5507
 21
-41.230765
  0
LINE
  8
ボルト／ビス
  6
CONTINUOUS
 62
    64
 10
-4.35238
 20
-41.038315
 11
-4.35238
 21
-41.159395
  0
LINE
  8
ボルト／ビス
  6
CONTINUOUS
 62
    64
 10
-5.2007
 20
-40.713273
 11
-5.5507
 21
-40.713273
  0
LINE
  8
ボルト／ビス
  6
CONTINUOUS
 62
    64
 10
-5.000698
 20
-41.038315
 11
-4.35238
 21
-41.038315
  0
LINE
  8
ボルト／ビス
  6
CONTINUOUS
 62
    64
 10
-5.2007
 20
-40.713273
 11
-5.2007
 21
-40.838313
  0
ARC
  8
ボルト／ビス
  6
CONTINUOUS
 62
    64
 10
-5.000699
 20
-40.838311
 40
0.2
 50
180.0
 51
270.0
  0
LINE
  8
ボルト／ビス
  6
CONTINUOUS
 62
    64
 10
-6.74902
 20
-41.038315
 11
-6.74902
 21
-41.159395
  0
LINE
  8
ボルト／ビス
  6
CONTINUOUS
 62
    64
 10
-5.900698
 20
-40.713273
 11
-5.5507
 21
-40.713273
  0
LINE
  8
ボルト／ビス
  6
CONTINUOUS
 62
    64
 10
-6.1007
 20
-41.038315
 11
-6.74902
 21
-41.038315
  0
LINE
  8
ボルト／ビス
  6
CONTINUOUS
 62
    64
 10
-5.900698
 20
-40.713273
 11
-5.900698
 21
-40.838313
  0
ARC
  8
ボルト／ビス
  6
CONTINUOUS
 62
    64
 10
-6.100699
 20
-40.838311
 40
0.2
 50
270.0
 51
360.0
  0
LINE
  8
ボルト／ビス
  6
CONTINUOUS
 62
    64
 10
-3.800698
 20
-39.930768
 11
-7.3007
 21
-39.930768
  0
LINE
  8
ボルト／ビス
  6
CONTINUOUS
 62
    64
 10
-4.550698
 20
-35.180765
 11
-4.8007
 21
-34.930765
  0
LINE
  8
ボルト／ビス
  6
CONTINUOUS
 62
    64
 10
-6.5507
 20
-35.180765
 11
-6.3007
 21
-34.930765
  0
LINE
  8
ボルト／ビス
  6
CONTINUOUS
 62
    64
 10
-4.550698
 20
-35.180765
 11
-6.5507
 21
-35.180765
  0
LINE
  8
ボルト／ビス
  6
CONTINUOUS
 62
    64
 10
-4.8007
 20
-34.930765
 11
-6.3007
 21
-34.930765
  0
LINE
  8
ボルト／ビス
  6
CONTINUOUS
 62
    64
 10
-5.5507
 20
-42.21646
 11
-5.5507
 21
-34.143328
  0
LINE
  8
ボルト／ビス
  6
CONTINUOUS
 62
    64
 10
-4.550698
 20
-39.930768
 11
-4.550698
 21
-35.180765
  0
LINE
  8
ボルト／ビス
  6
CONTINUOUS
 62
    64
 10
-6.5507
 20
-39.930768
 11
-6.5507
 21
-35.180765
  0
LINE
  8
ボルト／ビス
  6
CONTINUOUS
 62
    64
 10
-6.3007
 20
-39.930768
 11
-6.3007
 21
-34.930765
  0
LINE
  8
ボルト／ビス
  6
CONTINUOUS
 62
    64
 10
-4.8007
 20
-39.930768
 11
-4.8007
 21
-34.930765
  0
ENDBLK
  0
BLOCK
  2
*GRP_0069
 70
    65
 10
0.0
 20
0.0
  0
LINE
  8
St
  6
CONTINUOUS
 10
-27.450708
 20
-44.977285
 11
-29.050708
 21
-46.57729
  0
LINE
  8
St
  6
CONTINUOUS
 10
-27.450708
 20
-44.623728
 11
-29.050708
 21
-46.223733
  0
ARC
  8
St
  6
CONTINUOUS
 62
   127
 10
-27.450716
 20
-39.93077
 40
1.6
 50
90.0
 51
180.0
  0
LINE
  8
St
  6
CONTINUOUS
 10
-8.833465
 20
-38.330765
 11
-10.433463
 21
-39.930768
  0
LINE
  8
St
  6
CONTINUOUS
 10
-9.18702
 20
-38.330765
 11
-10.787015
 21
-39.930768
  0
LINE
  8
St
  6
CONTINUOUS
 10
-23.1542
 20
-38.330765
 11
-24.754198
 21
-39.930768
  0
LINE
  8
St
  6
CONTINUOUS
 10
-23.507755
 20
-38.330765
 11
-25.107752
 21
-39.930768
  0
LINE
  8
St
  6
CONTINUOUS
 10
-4.200695
 20
-38.330765
 11
-4.200695
 21
-39.930768
  0
LINE
  8
St
  6
CONTINUOUS
 62
   127
 10
-4.200695
 20
-38.330765
 11
-36.325698
 21
-38.330765
  0
LINE
  8
St
  6
CONTINUOUS
 10
-36.325698
 20
-38.330765
 11
-36.325698
 21
-39.930768
  0
LINE
  8
St
  6
CONTINUOUS
 62
   127
 10
-4.200695
 20
-39.930768
 11
-36.325698
 21
-39.930768
  0
LINE
  8
St
  6
CONTINUOUS
 10
-31.150698
 20
-38.330765
 11
-31.150698
 21
-39.930768
  0
LINE
  8
St
  6
CONTINUOUS
 10
-32.900695
 20
-38.330765
 11
-32.900695
 21
-39.930768
  0
LINE
  8
St
  6
CONTINUOUS
 10
-6.425698
 20
-38.330765
 11
-6.425698
 21
-39.930768
  0
LINE
  8
St
  6
CONTINUOUS
 10
-4.6757
 20
-38.330765
 11
-4.6757
 21
-39.930768
  0
LINE
  8
St
  6
CONTINUOUS
 10
-32.025695
 20
-40.844312
 11
-32.025695
 21
-37.515783
  0
LINE
  8
St
  6
CONTINUOUS
 10
-5.5507
 20
-40.844312
 11
-5.5507
 21
-37.515783
  0
LINE
  8
St
  6
CONTINUOUS
 10
-4.6757
 20
-38.730767
 11
-6.425698
 21
-38.730767
  0
LINE
  8
St
  6
CONTINUOUS
 10
-4.6757
 20
-39.130765
 11
-6.425698
 21
-39.130765
  0
LINE
  8
St
  6
CONTINUOUS
 10
-4.6757
 20
-39.530765
 11
-6.425698
 21
-39.530765
  0
LINE
  8
St
  6
CONTINUOUS
 10
-31.150698
 20
-38.730767
 11
-32.900695
 21
-38.730767
  0
LINE
  8
St
  6
CONTINUOUS
 10
-31.150698
 20
-39.130765
 11
-32.900695
 21
-39.130765
  0
LINE
  8
St
  6
CONTINUOUS
 10
-31.150698
 20
-39.530765
 11
-32.900695
 21
-39.530765
  0
LINE
  8
St
  6
CONTINUOUS
 10
-27.450708
 20
-58.580757
 11
-29.050708
 21
-58.580757
  0
LINE
  8
St
  6
CONTINUOUS
 10
-27.450708
 20
-53.580755
 11
-29.050708
 21
-53.580755
  0
LINE
  8
St
  6
CONTINUOUS
 62
   127
 10
-27.850708
 20
-53.580755
 11
-27.850708
 21
-58.580757
  0
LINE
  8
St
  6
CONTINUOUS
 62
   127
 10
-28.250705
 20
-53.580755
 11
-28.250705
 21
-58.580757
  0
LINE
  8
St
  6
CONTINUOUS
 62
   127
 10
-28.650708
 20
-53.580755
 11
-28.650708
 21
-58.580757
  0
LINE
  8
St
  6
CONTINUOUS
 10
-25.886585
 20
-56.080757
 11
-30.760502
 21
-56.080757
  0
LINE
  8
St
  6
CONTINUOUS
 10
-27.450708
 20
-63.730765
 11
-29.050708
 21
-63.730765
  0
LINE
  8
St
  6
CONTINUOUS
 62
   127
 10
-29.050708
 20
-39.930768
 11
-29.050708
 21
-63.730765
  0
LINE
  8
St
  6
CONTINUOUS
 62
   127
 10
-27.450708
 20
-39.930768
 11
-27.450708
 21
-63.730765
  0
ENDBLK
  0
BLOCK
  2
*GRP_0070
 70
    65
 10
0.0
 20
0.0
  0
LINE
  8
型材断面
  6
CONTINUOUS
 10
-37.825698
 20
-41.832802
 11
-37.975698
 21
-41.682802
  0
LINE
  8
型材断面
  6
CONTINUOUS
 10
-37.825698
 20
-41.832802
 11
-37.975698
 21
-41.982802
  0
LINE
  8
型材断面
  6
CONTINUOUS
 62
    47
 10
-102.075755
 20
-83.653892
 11
-101.175755
 21
-83.653892
  0
LINE
  8
型材断面
  6
CONTINUOUS
 10
-101.175748
 20
-79.653892
 11
-101.175755
 21
-83.653892
  0
LINE
  8
型材断面
  6
CONTINUOUS
 10
-101.175748
 20
-78.903892
 11
-101.1757
 21
-54.439735
  0
LINE
  8
型材断面
  6
CONTINUOUS
 62
    47
 10
-102.075755
 20
-83.653892
 11
-102.075695
 21
-53.653892
  0
LINE
  8
型材断面
  6
CONTINUOUS
 10
-95.61203
 20
-53.682773
 11
-101.1757
 21
-54.439735
  0
LINE
  8
型材断面
  6
CONTINUOUS
 10
-65.628815
 20
-49.603425
 11
-94.86887
 21
-53.581665
  0
LINE
  8
型材断面
  6
CONTINUOUS
 10
-64.88566
 20
-49.502318
 11
-37.825698
 21
-45.820687
  0
LINE
  8
型材断面
  6
CONTINUOUS
 10
-102.075695
 20
-53.653892
 11
-37.975698
 21
-44.932802
  0
LINE
  8
型材断面
  6
CONTINUOUS
 10
-37.075698
 20
-39.082802
 11
-37.975698
 21
-39.082802
  0
LINE
  8
型材断面
  6
CONTINUOUS
 10
-37.975698
 20
-44.932802
 11
-37.975698
 21
-41.982802
  0
LINE
  8
型材断面
  6
CONTINUOUS
 10
-37.975698
 20
-41.682802
 11
-37.975698
 21
-39.082802
  0
LINE
  8
型材断面
  6
CONTINUOUS
 10
-94.745057
 20
-54.47311
 11
-92.862395
 21
-54.216968
  0
LINE
  8
型材断面
  6
CONTINUOUS
 10
-92.862395
 20
-54.216968
 11
-92.759215
 21
-54.959843
  0
LINE
  8
型材断面
  6
CONTINUOUS
 10
-92.759215
 20
-54.959843
 11
-95.385035
 21
-55.317098
  0
LINE
  8
型材断面
  6
CONTINUOUS
 10
-65.510523
 20
-50.495612
 11
-67.393182
 21
-50.751757
  0
LINE
  8
型材断面
  6
CONTINUOUS
 10
-67.393182
 20
-50.751757
 11
-67.294145
 21
-51.495195
  0
LINE
  8
型材断面
  6
CONTINUOUS
 10
-67.294145
 20
-51.495195
 11
-64.668325
 21
-51.13794
  0
LINE
  8
型材断面
  6
CONTINUOUS
 10
-94.744228
 20
-54.472998
 11
-94.868045
 21
-53.581553
  0
LINE
  8
型材断面
  6
CONTINUOUS
 10
-95.384207
 20
-55.316985
 11
-95.611203
 21
-53.68266
  0
LINE
  8
型材断面
  6
CONTINUOUS
 10
-65.510523
 20
-50.495612
 11
-65.629367
 21
-49.6035
  0
LINE
  8
型材断面
  6
CONTINUOUS
 10
-64.668325
 20
-51.13794
 11
-64.88621
 21
-49.502393
  0
LINE
  8
型材断面
  6
CONTINUOUS
 10
-39.7154
 20
-47.742998
 11
-39.816507
 21
-46.99984
  0
LINE
  8
型材断面
  6
CONTINUOUS
 62
    47
 10
-37.075698
 20
-39.082802
 11
-37.075698
 21
-47.383853
  0
LINE
  8
型材断面
  6
CONTINUOUS
 10
-39.7154
 20
-47.742998
 11
-37.075698
 21
-47.383853
  0
LINE
  8
型材断面
  6
CONTINUOUS
 10
-39.816507
 20
-46.99984
 11
-37.825698
 21
-46.728982
  0
LINE
  8
型材断面
  6
CONTINUOUS
 10
-37.825698
 20
-45.820687
 11
-37.825698
 21
-46.728982
  0
LINE
  8
型材断面
  6
CONTINUOUS
 10
-99.525745
 20
-77.653892
 11
-100.275745
 21
-77.653892
  0
LINE
  8
型材断面
  6
CONTINUOUS
 10
-100.275745
 20
-78.903892
 11
-100.275745
 21
-77.653892
  0
LINE
  8
型材断面
  6
CONTINUOUS
 10
-99.525745
 20
-79.153892
 11
-99.525745
 21
-77.653892
  0
ARC
  8
型材断面
  6
CONTINUOUS
 10
-100.025753
 20
-79.153892
 40
0.5
 50
-90.0
 51
0.0
  0
LINE
  8
型材断面
  6
CONTINUOUS
 10
-100.275745
 20
-78.903892
 11
-101.175748
 21
-78.903892
  0
LINE
  8
型材断面
  6
CONTINUOUS
 10
-100.025742
 20
-79.653892
 11
-101.175748
 21
-79.653892
  0
ENDBLK
  0
BLOCK
  2
*GRP_0071
 70
    65
 10
0.0
 20
0.0
  0
POLYLINE
  8
寸法
  6
BYBLOCK
 62
     0
 66
     1
  0
VERTEX
  8
寸法
 10
-44.5757
 20
-21.830173
  0
VERTEX
  8
寸法
 10
-49.139142
 20
-17.26673
  0
VERTEX
  8
寸法
 10
-58.564655
 20
-17.26673
  0
SEQEND
  0
ENDBLK
  0
BLOCK
  2
*GRP_0072
 70
    65
 10
0.0
 20
0.0
  0
POLYLINE
  8
寸法
  6
BYBLOCK
 62
     0
 66
     1
  0
VERTEX
  8
寸法
 10
-13.575705
 20
-16.563375
  0
VERTEX
  8
寸法
 10
-7.242053
 20
-10.229723
  0
VERTEX
  8
寸法
 10
19.470912
 20
-10.229723
  0
SEQEND
  0
ENDBLK
  0
BLOCK
  2
*GRP_0073
 70
    65
 10
0.0
 20
0.0
  0
LINE
  8
寸法
  6
BYBLOCK
 62
     0
 10
-8.149777
 20
-21.230765
 11
2.851265
 21
-10.229723
  0
ENDBLK
  0
BLOCK
  2
*GRP_0074
 70
    65
 10
0.0
 20
0.0
  0
POLYLINE
  8
寸法
  6
BYBLOCK
 62
     0
 66
     1
  0
VERTEX
  8
寸法
 10
-20.260998
 20
-39.930765
  0
VERTEX
  8
寸法
 10
-12.251275
 20
-47.940488
  0
VERTEX
  8
寸法
 10
15.05455
 20
-47.940488
  0
SEQEND
  0
ENDBLK
  0
BLOCK
  2
*GRP_0075
 70
    65
 10
0.0
 20
0.0
  0
POLYLINE
  8
寸法
  6
BYBLOCK
 62
     0
 66
     1
  0
VERTEX
  8
寸法
 10
-28.093222
 20
-36.175072
  0
VERTEX
  8
寸法
 10
-5.112972
 20
-59.155322
  0
VERTEX
  8
寸法
 10
16.482503
 20
-59.155322
  0
SEQEND
  0
ENDBLK
  0
BLOCK
  2
*GRP_0076
 70
    65
 10
0.0
 20
0.0
  0
POLYLINE
  8
寸法
  6
BYBLOCK
 62
     0
 66
     1
  0
VERTEX
  8
寸法
 10
-3.486957
 20
54.99507
  0
VERTEX
  8
寸法
 10
3.100987
 20
48.407125
  0
VERTEX
  8
寸法
 10
17.905285
 20
48.407125
  0
SEQEND
  0
ENDBLK
  0
BLOCK
  2
*GRP_0077
 70
    65
 10
0.0
 20
0.0
  0
LINE
  8
型材断面
  6
CONTINUOUS
 10
-12.724022
 20
63.269985
 11
-12.724022
 21
55.269982
  0
LINE
  8
型材断面
  6
CONTINUOUS
 10
-0.924025
 20
63.269985
 11
-12.724022
 21
63.269985
  0
ARC
  8
型材断面
  6
CONTINUOUS
 10
-0.474016
 20
64.119989
 40
0.15
 50
0.0
 51
90.0
  0
LINE
  8
型材断面
  6
CONTINUOUS
 10
-0.924025
 20
63.269985
 11
-0.924025
 21
62.919985
  0
ARC
  8
型材断面
  6
CONTINUOUS
 10
-0.774016
 20
62.919989
 40
0.15
 50
180.0
 51
270.0
  0
LINE
  8
型材断面
  6
CONTINUOUS
 10
-0.474025
 20
62.769985
 11
-0.774025
 21
62.769985
  0
LINE
  8
型材断面
  6
CONTINUOUS
 10
-0.324025
 20
62.919985
 11
-0.324025
 21
64.119985
  0
ARC
  8
型材断面
  6
CONTINUOUS
 10
-0.474016
 20
62.919989
 40
0.15
 50
270.0
 51
360.0
  0
LINE
  8
型材断面
  6
CONTINUOUS
 10
-0.474025
 20
64.269985
 11
-13.574022
 21
64.269985
  0
LINE
  8
型材断面
  6
CONTINUOUS
 10
-13.724022
 20
64.119985
 11
-13.724022
 21
62.019982
  0
ARC
  8
型材断面
  6
CONTINUOUS
 10
-13.574016
 20
64.119989
 40
0.15
 50
90.0
 51
180.0
  0
LINE
  8
型材断面
  6
CONTINUOUS
 10
-13.724022
 20
61.269982
 11
-13.724022
 21
54.419985
  0
ARC
  8
型材断面
  6
CONTINUOUS
 10
-13.574016
 20
54.419989
 40
0.15
 50
180.0
 51
270.0
  0
LINE
  8
型材断面
  6
CONTINUOUS
 10
-11.524022
 20
54.269985
 11
-13.574022
 21
54.269985
  0
ARC
  8
型材断面
  6
CONTINUOUS
 10
-11.524016
 20
54.419989
 40
0.15
 50
270.0
 51
360.0
  0
LINE
  8
型材断面
  6
CONTINUOUS
 10
-11.374022
 20
55.119982
 11
-11.374022
 21
54.419985
  0
LINE
  8
型材断面
  6
CONTINUOUS
 10
-11.524022
 20
55.269982
 11
-12.724022
 21
55.269982
  0
ARC
  8
型材断面
  6
CONTINUOUS
 10
-11.524016
 20
55.119989
 40
0.15
 50
0.0
 51
90.0
  0
LINE
  8
型材断面
  6
CONTINUOUS
 10
-14.474022
 20
62.019982
 11
-13.724022
 21
62.019982
  0
ARC
  8
型材断面
  6
CONTINUOUS
 10
-14.474016
 20
61.869989
 40
0.15
 50
90.0
 51
180.0
  0
LINE
  8
型材断面
  6
CONTINUOUS
 10
-14.624022
 20
61.869982
 11
-14.624022
 21
61.419982
  0
LINE
  8
型材断面
  6
CONTINUOUS
 10
-14.474022
 20
61.269982
 11
-13.724022
 21
61.269982
  0
ARC
  8
型材断面
  6
CONTINUOUS
 10
-14.474016
 20
61.419989
 40
0.15
 50
180.0
 51
270.0
  0
ENDBLK
  0
BLOCK
  2
*GRP_0078
 70
    65
 10
0.0
 20
0.0
  0
LINE
  8
ゴム等
  6
CONTINUOUS
 10
-5.925702
 20
56.769988
 11
-0.925705
 21
56.769988
  0
LINE
  8
ゴム等
  6
CONTINUOUS
 10
-0.925705
 20
56.769988
 11
-0.925705
 21
54.269985
  0
LINE
  8
ゴム等
  6
CONTINUOUS
 10
-0.925705
 20
54.269985
 11
-5.925702
 21
54.269985
  0
LINE
  8
ゴム等
  6
CONTINUOUS
 10
-5.925702
 20
56.769988
 11
-5.925702
 21
54.269985
  0
INSERT
  2
*HAT_0002
  8
ゴム等
 10
0.0
 20
0.0
  0
ENDBLK
  0
BLOCK
  2
*GRP_0079
 70
    65
 10
0.0
 20
0.0
  0
LINE
  8
ゴム等
  6
CONTINUOUS
 10
-0.924025
 20
63.269985
 11
-0.924025
 21
60.169985
  0
LINE
  8
ゴム等
  6
CONTINUOUS
 10
-0.924025
 20
60.169985
 11
-5.924022
 21
60.169985
  0
LINE
  8
ゴム等
  6
CONTINUOUS
 10
-5.924022
 20
60.169985
 11
-5.924022
 21
63.269985
  0
LINE
  8
ゴム等
  6
CONTINUOUS
 10
-0.924025
 20
63.269985
 11
-5.924022
 21
63.269985
  0
INSERT
  2
*HAT_0003
  8
ゴム等
 10
0.0
 20
0.0
  0
ENDBLK
  0
BLOCK
  2
*GRP_0080
 70
    65
 10
0.0
 20
0.0
  0
LINE
  8
ボルト／ビス
  6
CONTINUOUS
 10
-30.325677
 20
67.171777
 11
-30.325677
 21
68.17178
  0
LINE
  8
ボルト／ビス
  6
CONTINUOUS
 10
-30.325677
 20
68.17178
 11
-19.325675
 21
68.17178
  0
LINE
  8
ボルト／ビス
  6
CONTINUOUS
 10
-19.325675
 20
68.17178
 11
-19.325675
 21
67.171777
  0
LINE
  8
ボルト／ビス
  6
CONTINUOUS
 10
-30.325677
 20
67.171777
 11
-19.325675
 21
67.171777
  0
LINE
  8
ボルト／ビス
  6
CONTINUOUS
 10
-29.325677
 20
68.671777
 11
-29.325677
 21
68.17178
  0
LINE
  8
ボルト／ビス
  6
CONTINUOUS
 10
-29.325677
 20
68.671777
 11
-20.325677
 21
68.671777
  0
LINE
  8
ボルト／ビス
  6
CONTINUOUS
 10
-20.325677
 20
68.671777
 11
-20.325677
 21
68.17178
  0
LINE
  8
ボルト／ビス
  6
CONTINUOUS
 62
    64
 10
-27.231303
 20
71.671777
 11
-27.712428
 21
71.496665
  0
ARC
  8
ボルト／ビス
  6
CONTINUOUS
 62
    64
 10
-26.990738
 20
70.097102
 40
1.574676
 50
62.721967
 51
90.0
  0
ARC
  8
ボルト／ビス
  6
CONTINUOUS
 62
    64
 10
-24.825674
 20
65.635744
 40
6.036034
 50
76.165002
 51
103.834985
  0
LINE
  8
ボルト／ビス
  6
CONTINUOUS
 62
    64
 10
-22.420053
 20
71.671777
 11
-21.938928
 21
71.496665
  0
ARC
  8
ボルト／ビス
  6
CONTINUOUS
 62
    64
 10
-22.66061
 20
70.097102
 40
1.574676
 50
90.0
 51
117.278033
  0
LINE
  8
ボルト／ビス
  6
CONTINUOUS
 62
    64
 10
-27.231303
 20
71.671777
 11
-22.420053
 21
71.671777
  0
LINE
  8
ボルト／ビス
  6
CONTINUOUS
 62
    64
 10
-21.938928
 20
71.496665
 11
-21.938928
 21
69.67178
  0
LINE
  8
ボルト／ビス
  6
CONTINUOUS
 62
    64
 10
-23.382302
 20
71.496665
 11
-23.382302
 21
69.67178
  0
LINE
  8
ボルト／ビス
  6
CONTINUOUS
 62
    64
 10
-27.712428
 20
71.496665
 11
-27.712428
 21
69.67178
  0
LINE
  8
ボルト／ビス
  6
CONTINUOUS
 62
    64
 10
-26.269052
 20
71.496665
 11
-26.269052
 21
69.67178
  0
LINE
  8
ボルト／ビス
  6
CONTINUOUS
 10
-27.712428
 20
69.67178
 11
-21.938928
 21
69.67178
  0
LINE
  8
ボルト／ビス
  6
CONTINUOUS
 10
-27.825677
 20
69.67178
 11
-27.825677
 21
68.671777
  0
LINE
  8
ボルト／ビス
  6
CONTINUOUS
 10
-27.825677
 20
69.67178
 11
-21.825677
 21
69.67178
  0
LINE
  8
ボルト／ビス
  6
CONTINUOUS
 10
-21.825677
 20
69.67178
 11
-21.825677
 21
68.671777
  0
LINE
  8
ボルト／ビス
  6
CONTINUOUS
 62
    64
 10
-25.975677
 20
67.171777
 11
-25.975677
 21
57.171782
  0
LINE
  8
ボルト／ビス
  6
CONTINUOUS
 62
    64
 10
-23.675675
 20
67.171777
 11
-23.675675
 21
57.171782
  0
LINE
  8
ボルト／ビス
  6
CONTINUOUS
 62
    64
 10
-25.975677
 20
57.171782
 11
-23.675675
 21
57.171782
  0
LINE
  8
ボルト／ビス
  6
CONTINUOUS
 62
    64
 10
-23.325677
 20
57.67178
 11
-23.675675
 21
57.171782
  0
LINE
  8
ボルト／ビス
  6
CONTINUOUS
 62
    64
 10
-26.325677
 20
57.67178
 11
-25.975677
 21
57.171782
  0
LINE
  8
ボルト／ビス
  6
CONTINUOUS
 62
    64
 10
-26.325677
 20
57.67178
 11
-23.325677
 21
57.67178
  0
LINE
  8
ボルト／ビス
  6
CONTINUOUS
 62
    64
 10
-25.975677
 20
57.171782
 11
-23.675675
 21
57.171782
  0
LINE
  8
ボルト／ビス
  6
CONTINUOUS
 62
    64
 10
-23.325677
 20
67.171777
 11
-23.325677
 21
57.67178
  0
LINE
  8
ボルト／ビス
  6
CONTINUOUS
 62
    64
 10
-26.325677
 20
67.171777
 11
-26.325677
 21
57.67178
  0
ENDBLK
  0
BLOCK
  2
*GRP_0081
 70
    65
 10
0.0
 20
0.0
  0
POLYLINE
  8
寸法
  6
BYBLOCK
 62
     0
 66
     1
  0
VERTEX
  8
寸法
 10
-7.024022
 20
64.269985
  0
VERTEX
  8
寸法
 10
0.318102
 20
71.612112
  0
VERTEX
  8
寸法
 10
18.123258
 20
71.612112
  0
SEQEND
  0
ENDBLK
  0
BLOCK
  2
*GRP_0082
 70
    65
 10
0.0
 20
0.0
  0
POLYLINE
  8
寸法
  6
BYBLOCK
 62
     0
 66
     1
  0
VERTEX
  8
寸法
 10
-0.800018
 20
61.37506
  0
VERTEX
  8
寸法
 10
4.571965
 20
66.747042
  0
VERTEX
  8
寸法
 10
17.99912
 20
66.747042
  0
SEQEND
  0
ENDBLK
  0
BLOCK
  2
*GRP_0083
 70
    65
 10
0.0
 20
0.0
  0
POLYLINE
  8
寸法
  6
BYBLOCK
 62
     0
 66
     1
  0
VERTEX
  8
寸法
 10
16.813775
 20
103.23799
  0
VERTEX
  8
寸法
 10
21.633603
 20
98.418162
  0
VERTEX
  8
寸法
 10
23.613775
 20
98.418162
  0
SEQEND
  0
ENDBLK
  0
BLOCK
  2
*DIM_0084
 70
    65
 10
0.0
 20
0.0
  0
LINE
  8
寸法
  6
BYBLOCK
 62
     0
 10
-39.825702
 20
70.17176
 11
-39.825702
 21
113.156773
  0
LINE
  8
寸法
  6
BYBLOCK
 62
     0
 10
-14.825725
 20
113.156773
 11
-39.825702
 21
113.156773
  0
POINT
  8
寸法
 62
     0
 10
-14.825725
 20
113.156773
  0
POINT
  8
寸法
 62
     0
 10
-39.825702
 20
113.156773
  0
TEXT
  7
TextStyle03
  8
寸法
  6
CONTINUOUS
 62
     0
 10
-28.94375
 20
113.525
  1
50
 40
3.0
 72
     5
 11
-25.75625
 21
113.525
  0
ENDBLK
  0
BLOCK
  2
*DIM_0085
 70
    65
 10
0.0
 20
0.0
  0
LINE
  8
寸法
  6
BYBLOCK
 62
     0
 10
-24.825675
 20
74.671777
 11
-24.825675
 21
108.57779
  0
LINE
  8
寸法
  6
BYBLOCK
 62
     0
 10
-14.825725
 20
108.57779
 11
-24.825675
 21
108.57779
  0
POINT
  8
寸法
 62
     0
 10
-14.825725
 20
108.57779
  0
POINT
  8
寸法
 62
     0
 10
-24.825675
 20
108.57779
  0
TEXT
  7
TextStyle03
  8
寸法
  6
CONTINUOUS
 62
     0
 10
-21.44375
 20
108.95
  1
20
 40
3.0
 72
     5
 11
-18.25625
 21
108.95
  0
ENDBLK
  0
BLOCK
  2
*DIM_0086
 70
    65
 10
0.0
 20
0.0
  0
LINE
  8
寸法
  6
BYBLOCK
 62
     0
 10
-39.825702
 20
73.17176
 11
-39.825702
 21
108.57779
  0
LINE
  8
寸法
  6
BYBLOCK
 62
     0
 10
-24.825675
 20
108.57779
 11
-39.825702
 21
108.57779
  0
POINT
  8
寸法
 62
     0
 10
-39.825702
 20
108.57779
  0
TEXT
  7
TextStyle03
  8
寸法
  6
CONTINUOUS
 62
     0
 10
-33.94375
 20
108.95
  1
30
 40
3.0
 72
     5
 11
-30.75625
 21
108.95
  0
ENDBLK
  0
BLOCK
  2
*DIM_0087
 70
    65
 10
0.0
 20
0.0
  0
LINE
  8
寸法
  6
BYBLOCK
 62
     0
 10
57.653147
 20
53.269985
 11
57.653147
 21
56.768297
  0
POINT
  8
寸法
 62
     0
 10
57.653147
 20
53.269985
  0
POINT
  8
寸法
 62
     0
 10
57.653147
 20
56.768297
  0
TEXT
  7
TextStyle03
  8
寸法
  6
CONTINUOUS
 62
     0
 10
57.275
 20
54.25
  1
7
 40
3.0
 50
90.0
 72
     5
 11
57.275
 21
55.75
  0
ENDBLK
  0
BLOCK
  2
*DIM_0088
 70
    65
 10
0.0
 20
0.0
  0
LINE
  8
寸法
  6
BYBLOCK
 62
     0
 10
57.653147
 20
56.768297
 11
57.653147
 21
60.1683
  0
POINT
  8
寸法
 62
     0
 10
57.653147
 20
60.1683
  0
TEXT
  7
TextStyle03
  8
寸法
  6
CONTINUOUS
 62
     0
 10
60.65
 20
56.0125
  1
6.8
 40
3.0
 50
90.0
 72
     5
 11
60.65
 21
60.8875
  0
ENDBLK
  0
BLOCK
  2
*GRP_0089
 70
    65
 10
0.0
 20
0.0
  0
POLYLINE
  8
寸法
  6
BYBLOCK
 62
     0
 66
     1
  0
VERTEX
  8
寸法
 10
43.257725
 20
58.905185
  0
VERTEX
  8
寸法
 10
48.26564
 20
63.913098
  0
VERTEX
  8
寸法
 10
50.928183
 20
63.913098
  0
SEQEND
  0
ENDBLK
  0
BLOCK
  2
*DIM_0090
 70
    65
 10
0.0
 20
0.0
  0
LINE
  8
寸法
  6
BYBLOCK
 62
     0
 10
-0.3257
 20
-38.330768
 11
57.653147
 21
-38.330768
  0
LINE
  8
寸法
  6
BYBLOCK
 62
     0
 10
-13.0757
 20
-68.330765
 11
57.653147
 21
-68.330765
  0
LINE
  8
寸法
  6
BYBLOCK
 62
     0
 10
57.653147
 20
-38.330768
 11
57.653147
 21
-68.330765
  0
POINT
  8
寸法
 62
     0
 10
57.653147
 20
-38.330768
  0
POINT
  8
寸法
 62
     0
 10
57.653147
 20
-68.330765
  0
TEXT
  7
TextStyle03
  8
寸法
  6
CONTINUOUS
 62
     0
 10
57.275
 20
-54.94375
  1
60
 40
3.0
 50
90.0
 72
     5
 11
57.275
 21
-51.75625
  0
ENDBLK
  0
BLOCK
  2
*GRP_0091
 70
    65
 10
0.0
 20
0.0
  0
LINE
  8
ボルト／ビス
  6
CONTINUOUS
 62
    64
 10
-49.050708
 20
-57.630002
 11
-49.050708
 21
-92.500353
  0
LINE
  8
ボルト／ビス
  6
CONTINUOUS
 62
    64
 10
-50.800633
 20
-61.58434
 11
-50.44712
 21
-61.230577
  0
LINE
  8
ボルト／ビス
  6
CONTINUOUS
 62
    64
 10
-50.800633
 20
-61.58434
 11
-50.800633
 21
-64.730565
  0
LINE
  8
ボルト／ビス
  6
CONTINUOUS
 62
    64
 10
-50.800633
 20
-61.58434
 11
-51.154145
 21
-61.230577
  0
LINE
  8
ボルト／ビス
  6
CONTINUOUS
 62
    64
 10
-50.697083
 20
-58.73069
 11
-50.697083
 21
-61.230577
  0
LINE
  8
ボルト／ビス
  6
CONTINUOUS
 62
    64
 10
-53.050658
 20
-64.730565
 11
-53.050658
 21
-65.980627
  0
LINE
  8
ボルト／ビス
  6
CONTINUOUS
 62
    64
 10
-51.050745
 20
-76.23064
 11
-50.697083
 21
-75.877128
  0
LINE
  8
ボルト／ビス
  6
CONTINUOUS
 62
    64
 10
-50.697083
 20
-66.730765
 11
-50.697083
 21
-75.877128
  0
LINE
  8
ボルト／ビス
  6
CONTINUOUS
 62
    64
 10
-51.050745
 20
-80.93029
 11
-52.991845
 21
-88.17479
  0
LINE
  8
ボルト／ビス
  6
CONTINUOUS
 62
    64
 10
-51.050745
 20
-66.730765
 11
-51.050745
 21
-80.93029
  0
LINE
  8
ボルト／ビス
  6
CONTINUOUS
 62
    64
 10
-50.800633
 20
-61.58434
 11
-50.44712
 21
-61.230577
  0
LINE
  8
ボルト／ビス
  6
CONTINUOUS
 62
    64
 10
-47.331008
 20
-61.58434
 11
-46.977495
 21
-61.230577
  0
LINE
  8
ボルト／ビス
  6
CONTINUOUS
 62
    64
 10
-47.331008
 20
-61.58434
 11
-47.331008
 21
-64.730565
  0
LINE
  8
ボルト／ビス
  6
CONTINUOUS
 62
    64
 10
-47.331008
 20
-61.58434
 11
-47.68452
 21
-61.230577
  0
LINE
  8
ボルト／ビス
  6
CONTINUOUS
 62
    64
 10
-47.404245
 20
-58.73069
 11
-47.404245
 21
-61.230577
  0
LINE
  8
ボルト／ビス
  6
CONTINUOUS
 62
    64
 10
-45.050608
 20
-64.730565
 11
-45.050608
 21
-65.980627
  0
LINE
  8
ボルト／ビス
  6
CONTINUOUS
 62
    64
 10
-47.05072
 20
-76.23064
 11
-47.404245
 21
-75.877128
  0
LINE
  8
ボルト／ビス
  6
CONTINUOUS
 62
    64
 10
-47.404245
 20
-66.730765
 11
-47.404245
 21
-75.877128
  0
LINE
  8
ボルト／ビス
  6
CONTINUOUS
 62
    64
 10
-47.05072
 20
-80.93029
 11
-45.10957
 21
-88.17479
  0
LINE
  8
ボルト／ビス
  6
CONTINUOUS
 62
    64
 10
-47.05072
 20
-66.730765
 11
-47.05072
 21
-80.93029
  0
LINE
  8
ボルト／ビス
  6
CONTINUOUS
 62
    64
 10
-47.05072
 20
-59.084202
 11
-47.404245
 21
-58.73069
  0
LINE
  8
ボルト／ビス
  6
CONTINUOUS
 62
    64
 10
-47.05072
 20
-61.230577
 11
-47.05072
 21
-59.084202
  0
LINE
  8
ボルト／ビス
  6
CONTINUOUS
 62
    64
 10
-47.404245
 20
-58.73069
 11
-50.697083
 21
-58.73069
  0
LINE
  8
ボルト／ビス
  6
CONTINUOUS
 62
    64
 10
-50.697083
 20
-58.73069
 11
-51.050745
 21
-59.084202
  0
LINE
  8
ボルト／ビス
  6
CONTINUOUS
 62
    64
 10
-47.05072
 20
-59.084202
 11
-51.050745
 21
-59.084202
  0
LINE
  8
ボルト／ビス
  6
CONTINUOUS
 62
    64
 10
-51.050745
 20
-61.230577
 11
-51.050745
 21
-59.084202
  0
LINE
  8
ボルト／ビス
  6
CONTINUOUS
 62
    64
 10
-53.450645
 20
-61.58434
 11
-53.097133
 21
-61.230577
  0
LINE
  8
ボルト／ビス
  6
CONTINUOUS
 62
    64
 10
-53.450645
 20
-61.58434
 11
-53.450645
 21
-64.730565
  0
LINE
  8
ボルト／ビス
  6
CONTINUOUS
 62
    64
 10
-53.097133
 20
-61.230577
 11
-45.004283
 21
-61.230577
  0
LINE
  8
ボルト／ビス
  6
CONTINUOUS
 62
    64
 10
-44.65077
 20
-61.58434
 11
-45.004283
 21
-61.230577
  0
LINE
  8
ボルト／ビス
  6
CONTINUOUS
 62
    64
 10
-44.65077
 20
-61.58434
 11
-44.65077
 21
-64.730565
  0
LINE
  8
ボルト／ビス
  6
CONTINUOUS
 62
    64
 10
-53.450645
 20
-64.730565
 11
-44.65077
 21
-64.730565
  0
LINE
  8
ボルト／ビス
  6
CONTINUOUS
 62
    64
 10
-44.17562
 20
-65.980627
 11
-44.17562
 21
-66.730765
  0
LINE
  8
ボルト／ビス
  6
CONTINUOUS
 62
    64
 10
-44.17562
 20
-65.980627
 11
-53.925708
 21
-65.980627
  0
LINE
  8
ボルト／ビス
  6
CONTINUOUS
 62
    64
 10
-53.925708
 20
-65.980627
 11
-53.925708
 21
-66.730765
  0
LINE
  8
ボルト／ビス
  6
CONTINUOUS
 62
    64
 10
-44.17562
 20
-66.730765
 11
-53.925708
 21
-66.730765
  0
LINE
  8
ボルト／ビス
  6
CONTINUOUS
 62
    64
 10
-49.050708
 20
-81.259527
 11
-47.057745
 21
-88.696865
  0
LINE
  8
ボルト／ビス
  6
CONTINUOUS
 62
    64
 10
-45.10957
 20
-88.17479
 11
-47.057745
 21
-88.696865
  0
LINE
  8
ボルト／ビス
  6
CONTINUOUS
 62
    64
 10
-49.050708
 20
-81.259527
 11
-51.043533
 21
-88.696865
  0
LINE
  8
ボルト／ビス
  6
CONTINUOUS
 62
    64
 10
-52.991845
 20
-88.17479
 11
-51.043533
 21
-88.696865
  0
LINE
  8
ボルト／ビス
  6
CONTINUOUS
 62
    64
 10
-51.050745
 20
-89.730565
 11
-50.405745
 21
-86.072515
  0
LINE
  8
ボルト／ビス
  6
CONTINUOUS
 62
    64
 10
-47.05072
 20
-89.730565
 11
-47.69567
 21
-86.072515
  0
LINE
  8
ボルト／ビス
  6
CONTINUOUS
 62
    64
 10
-51.050745
 20
-89.730565
 11
-47.05072
 21
-89.730565
  0
LINE
  8
ボルト／ビス
  6
CONTINUOUS
 62
    64
 10
-50.405745
 20
-86.072515
 11
-47.69567
 21
-86.072515
  0
ENDBLK
  0
BLOCK
  2
*GRP_0092
 70
    65
 10
0.0
 20
0.0
  0
LINE
  8
曲げ物
  6
CONTINUOUS
 10
-99.07571
 20
-75.013485
 11
-99.075785
 21
-105.013485
  0
LINE
  8
曲げ物
  6
DOT
 10
-98.575723
 20
-75.013487
 11
-98.575798
 21
-105.013487
  0
LINE
  8
曲げ物
  6
CONTINUOUS
 10
-94.0757
 20
-75.01351
 11
-94.075813
 21
-105.01351
  0
LINE
  8
曲げ物
  6
DOT
 10
-94.575725
 20
-75.013508
 11
-94.5758
 21
-105.013508
  0
LINE
  8
曲げ物
  6
CONTINUOUS
 10
-99.075785
 20
-105.013485
 11
-94.075813
 21
-105.01351
  0
LINE
  8
曲げ物
  6
CONTINUOUS
 10
-99.07571
 20
-75.013485
 11
-94.0757
 21
-75.01351
  0
ENDBLK
  0
BLOCK
  2
*GRP_0093
 70
    65
 10
0.0
 20
0.0
  0
POLYLINE
  8
寸法
  6
CONTINUOUS
 66
     1
  0
VERTEX
  8
寸法
 10
-97.191053
 20
-88.1984
  0
VERTEX
  8
寸法
 10
-110.163885
 20
-101.1711
  0
VERTEX
  8
寸法
 10
-118.56783
 20
-101.171058
  0
SEQEND
  0
ENDBLK
  0
BLOCK
  2
*GRP_0094
 70
    65
 10
0.0
 20
0.0
  0
ARC
  8
St
  6
CONTINUOUS
 62
   127
 10
-30.650719
 20
-66.730764
 40
1.6
 50
-90.0
 51
0.0
  0
LINE
  8
St
  6
CONTINUOUS
 10
-72.871515
 20
-66.730765
 11
-74.471512
 21
-68.330765
  0
LINE
  8
St
  6
CONTINUOUS
 10
-73.225072
 20
-66.730765
 11
-74.82507
 21
-68.330765
  0
LINE
  8
St
  6
CONTINUOUS
 62
   127
 10
-30.65071
 20
-66.730765
 11
-79.050708
 21
-66.730765
  0
LINE
  8
St
  6
CONTINUOUS
 10
-79.050708
 20
-66.730765
 11
-79.050708
 21
-68.330765
  0
LINE
  8
St
  6
CONTINUOUS
 62
   127
 10
-30.65071
 20
-68.330765
 11
-79.050708
 21
-68.330765
  0
LINE
  8
St
  6
CONTINUOUS
 10
-41.248225
 20
-68.330765
 11
-39.648228
 21
-66.730765
  0
LINE
  8
St
  6
CONTINUOUS
 10
-41.601782
 20
-68.330765
 11
-40.001785
 21
-66.730765
  0
LINE
  8
St
  6
CONTINUOUS
 10
-30.65071
 20
-51.206605
 11
-29.05071
 21
-49.6066
  0
LINE
  8
St
  6
CONTINUOUS
 10
-30.65071
 20
-50.853047
 11
-29.05071
 21
-49.253042
  0
LINE
  8
St
  6
CONTINUOUS
 10
-30.65071
 20
-48.330763
 11
-29.05071
 21
-48.330763
  0
LINE
  8
St
  6
CONTINUOUS
 62
   127
 10
-29.05071
 20
-66.730765
 11
-29.05071
 21
-48.330763
  0
LINE
  8
St
  6
CONTINUOUS
 62
   127
 10
-30.65071
 20
-66.730765
 11
-30.65071
 21
-48.330763
  0
LINE
  8
St
  6
DOT
 10
-26.627147
 20
-55.830763
 11
-32.95152
 21
-55.830763
  0
LINE
  8
St
  6
DOT
 62
   127
 10
-54.933307
 20
-69.628457
 11
-54.933307
 21
-69.628453
  0
LINE
  8
St
  6
DOT
 10
-44.05071
 20
-66.730765
 11
-44.05071
 21
-68.330765
  0
LINE
  8
St
  6
DOT
 10
-54.050708
 20
-66.730765
 11
-54.050708
 21
-68.330765
  0
LINE
  8
St
  6
DOT
 10
-61.550708
 20
-66.730765
 11
-61.550708
 21
-68.330765
  0
LINE
  8
St
  6
DOT
 10
-66.55071
 20
-66.730765
 11
-66.55071
 21
-68.330765
  0
LINE
  8
St
  6
DOT
 10
-49.050708
 20
-64.698797
 11
-49.050708
 21
-70.438097
  0
LINE
  8
St
  6
DOT
 62
   127
 10
-54.050708
 20
-67.130765
 11
-44.05071
 21
-67.130765
  0
LINE
  8
St
  6
DOT
 62
   127
 10
-54.050708
 20
-67.530763
 11
-44.05071
 21
-67.530763
  0
LINE
  8
St
  6
DOT
 62
   127
 10
-54.050708
 20
-67.930765
 11
-44.05071
 21
-67.930765
  0
LINE
  8
St
  6
DOT
 10
-61.550708
 20
-67.130765
 11
-66.55071
 21
-67.130765
  0
LINE
  8
St
  6
DOT
 10
-61.550708
 20
-67.530763
 11
-66.55071
 21
-67.530763
  0
LINE
  8
St
  6
DOT
 10
-61.550708
 20
-67.930765
 11
-66.55071
 21
-67.930765
  0
LINE
  8
St
  6
DOT
 10
-64.050708
 20
-64.698797
 11
-64.050708
 21
-70.438097
  0
LINE
  8
St
  6
DOT
 10
-29.05071
 20
-66.730765
 11
-30.65071
 21
-66.730765
  0
LINE
  8
St
  6
DOT
 10
-29.05071
 20
-50.83076
 11
-30.65071
 21
-50.83076
  0
LINE
  8
St
  6
DOT
 10
-30.65071
 20
-57.330763
 11
-29.05071
 21
-57.330763
  0
LINE
  8
St
  6
DOT
 10
-30.65071
 20
-54.330763
 11
-29.05071
 21
-54.330763
  0
LINE
  8
St
  6
DOT
 62
   127
 10
-30.25071
 20
-66.730765
 11
-30.25071
 21
-50.83076
  0
LINE
  8
St
  6
DOT
 62
   127
 10
-29.850713
 20
-66.730765
 11
-29.850713
 21
-50.83076
  0
LINE
  8
St
  6
DOT
 62
   127
 10
-29.45071
 20
-66.730765
 11
-29.45071
 21
-50.83076
  0
ENDBLK
  0
ENDSEC
  0
SECTION
  2
ENTITIES
  0
POLYLINE
  8
通り芯
  6
CONTINUOUS
 66
     1
 70
     1
  0
VERTEX
  8
通り芯
 10
-210.0
 20
-148.5
  0
VERTEX
  8
通り芯
 10
210.0
 20
-148.5
  0
VERTEX
  8
通り芯
 10
210.0
 20
148.5
  0
VERTEX
  8
通り芯
 10
-210.0
 20
148.5
  0
SEQEND
  0
INSERT
  2
*GRP_0002
  8
通り芯
  6
CONTINUOUS
 10
0.0
 20
0.0
  0
LINE
  8
通り芯
  6
CONTINUOUS
 10
-27.175705
 20
-25.205768
 11
-25.575705
 21
-25.205768
  0
LINE
  8
通り芯
  6
CONTINUOUS
 10
-27.175705
 20
2.044952
 11
-25.575705
 21
2.044952
  0
LINE
  8
通り芯
  6
CONTINUOUS
 10
-27.175705
 20
-25.205768
 11
-27.175705
 21
2.044952
  0
INSERT
  2
*GRP_0092
  8
型材
  6
DOT
 10
0.0
 20
0.0
  0
INSERT
  2
*GRP_0001
  8
型材断面
  6
CONTINUOUS
 10
0.0
 20
0.0
  0
LINE
  8
型材断面
  6
DOT
 10
-43.5757
 20
-37.580765
 11
-44.575702
 21
-37.580765
  0
LINE
  8
型材断面
  6
DOT
 10
-43.5757
 20
-33.580765
 11
-44.575702
 21
-33.580765
  0
LINE
  8
型材断面
  6
DOT
 10
-44.325702
 20
-37.580765
 11
-44.325702
 21
-33.580765
  0
LINE
  8
型材断面
  6
DOT
 10
-44.0757
 20
-37.580765
 11
-44.0757
 21
-33.580765
  0
LINE
  8
型材断面
  6
DOT
 10
-43.8257
 20
-37.580765
 11
-43.8257
 21
-33.580765
  0
LINE
  8
型材断面
  6
DOT
 10
-43.5757
 20
-32.580765
 11
-38.5757
 21
-32.580765
  0
LINE
  8
型材断面
  6
DOT
 10
-38.5757
 20
-37.580765
 11
-38.5757
 21
-32.580765
  0
INSERT
  2
*HAT_0004
  8
型材断面
 10
0.0
 20
0.0
  0
LINE
  8
型材断面
  6
DOT
 10
-25.575705
 20
-33.480763
 11
-24.825705
 21
-33.480763
  0
LINE
  8
型材断面
  6
DOT
 10
-25.575705
 20
-29.480763
 11
-24.825705
 21
-29.480763
  0
LINE
  8
型材断面
  6
DOT
 10
-25.013205
 20
-33.480763
 11
-25.013205
 21
-29.480763
  0
LINE
  8
型材断面
  6
DOT
 10
-25.200705
 20
-33.480763
 11
-25.200705
 21
-29.480763
  0
LINE
  8
型材断面
  6
DOT
 10
-25.388205
 20
-33.480763
 11
-25.388205
 21
-29.480763
  0
POLYLINE
  8
型材断面
  6
CONTINUOUS
 66
     1
  0
VERTEX
  8
型材断面
 10
81.524505
 20
124.462565
  0
VERTEX
  8
型材断面
 10
71.245058
 20
127.604005
  0
VERTEX
  8
型材断面
 10
71.245058
 20
124.462565
  0
SEQEND
  0
POLYLINE
  8
型材断面
  6
CONTINUOUS
 66
     1
  0
VERTEX
  8
型材断面
 10
77.090998
 20
124.462565
  0
VERTEX
  8
型材断面
 10
66.81155
 20
127.604005
  0
VERTEX
  8
型材断面
 10
66.81155
 20
124.462565
  0
SEQEND
  0
POLYLINE
  8
型材断面
  6
CONTINUOUS
 66
     1
  0
VERTEX
  8
型材断面
 10
81.524505
 20
118.155853
  0
VERTEX
  8
型材断面
 10
71.245058
 20
121.297293
  0
VERTEX
  8
型材断面
 10
71.245058
 20
118.155853
  0
SEQEND
  0
POLYLINE
  8
型材断面
  6
CONTINUOUS
 66
     1
  0
VERTEX
  8
型材断面
 10
77.090998
 20
118.155853
  0
VERTEX
  8
型材断面
 10
66.81155
 20
121.297293
  0
VERTEX
  8
型材断面
 10
66.81155
 20
118.155853
  0
SEQEND
  0
LINE
  8
型材断面
  6
DOT
 10
-30.325705
 20
46.519985
 11
-31.325708
 21
46.519985
  0
LINE
  8
型材断面
  6
DOT
 10
-30.325705
 20
50.519985
 11
-31.325708
 21
50.519985
  0
LINE
  8
型材断面
  6
DOT
 10
-31.075708
 20
46.519985
 11
-31.075708
 21
50.519985
  0
LINE
  8
型材断面
  6
DOT
 10
-30.825705
 20
46.519985
 11
-30.825705
 21
50.519985
  0
LINE
  8
型材断面
  6
DOT
 10
-30.575705
 20
46.519985
 11
-30.575705
 21
50.519985
  0
LINE
  8
型材断面
  6
DOT
 10
-30.325705
 20
51.519985
 11
-25.325705
 21
51.519985
  0
LINE
  8
型材断面
  6
DOT
 10
-25.325705
 20
46.519985
 11
-25.325705
 21
51.519985
  0
INSERT
  2
*HAT_0005
  8
型材断面
 10
0.0
 20
0.0
  0
LINE
  8
型材断面
  6
DOT
 10
-14.825708
 20
54.269982
 11
-15.575708
 21
54.269982
  0
LINE
  8
型材断面
  6
DOT
 10
-14.825708
 20
58.269982
 11
-15.575708
 21
58.269982
  0
LINE
  8
型材断面
  6
DOT
 10
-15.575708
 20
56.583913
 11
-15.575708
 21
58.269982
  0
LINE
  8
型材断面
  6
DOT
 10
-15.388208
 20
54.269982
 11
-15.388208
 21
58.269982
  0
LINE
  8
型材断面
  6
DOT
 10
-15.200708
 20
54.269982
 11
-15.200708
 21
58.269982
  0
LINE
  8
型材断面
  6
DOT
 10
-15.013208
 20
54.269982
 11
-15.013208
 21
58.269982
  0
INSERT
  2
*GRP_0063
  8
型材断面
  6
CONTINUOUS
 62
    47
 10
0.0
 20
0.0
  0
INSERT
  2
*GRP_0064
  8
型材断面
  6
CONTINUOUS
 62
    47
 10
0.0
 20
0.0
  0
LINE
  8
型材断面
  6
CONTINUOUS
 10
-16.0757
 20
-116.349853
 11
-16.0757
 21
-68.330765
  0
LINE
  8
型材断面
  6
CONTINUOUS
 10
-16.0757
 20
-71.330765
 11
-91.0757
 21
-71.330765
  0
LINE
  8
型材断面
  6
CONTINUOUS
 10
-16.0757
 20
-68.330765
 11
-91.0757
 21
-68.330765
  0
ARC
  8
型材断面
  6
CONTINUOUS
 10
-91.075704
 20
-71.330764
 40
3.0
 50
90.0
 51
180.0
  0
LINE
  8
型材断面
  6
CONTINUOUS
 10
-91.0757
 20
-116.349853
 11
-91.0757
 21
-71.330765
  0
LINE
  8
型材断面
  6
CONTINUOUS
 10
-94.0757
 20
-116.349853
 11
-94.0757
 21
-71.330765
  0
LINE
  8
型材断面
  6
CONTINUOUS
 10
-91.0757
 20
-102.667278
 11
-59.73919
 21
-71.330765
  0
LINE
  8
型材断面
  6
CONTINUOUS
 10
-91.0757
 20
-99.131747
 11
-63.27472
 21
-71.330765
  0
LINE
  8
型材断面
  6
CONTINUOUS
 10
-91.0757
 20
-95.59621
 11
-66.810257
 21
-71.330765
  0
LINE
  8
型材断面
  6
CONTINUOUS
 10
-35.536203
 20
-116.349853
 11
-16.0757
 21
-96.889353
  0
LINE
  8
型材断面
  6
CONTINUOUS
 10
-39.071732
 20
-116.349853
 11
-16.0757
 21
-93.353823
  0
LINE
  8
型材断面
  6
CONTINUOUS
 10
-32.000665
 20
-116.349853
 11
-16.0757
 21
-100.42489
  0
LINE
  8
型材断面
  6
CONTINUOUS
 10
5.424297
 20
-116.349853
 11
5.424297
 21
-34.480765
  0
LINE
  8
型材断面
  6
CONTINUOUS
 10
5.924297
 20
-116.349853
 11
5.924297
 21
-34.480765
  0
LINE
  8
型材断面
  6
CONTINUOUS
 10
11.424297
 20
-116.349853
 11
11.424297
 21
-34.480765
  0
LINE
  8
型材断面
  6
CONTINUOUS
 10
10.9243
 20
-116.349853
 11
10.9243
 21
-34.480765
  0
INSERT
  2
*GRP_0070
  8
型材断面
  6
CONTINUOUS
 10
0.0
 20
0.0
  0
INSERT
  2
*GRP_0077
  8
型材断面
  6
CONTINUOUS
 10
0.0
 20
0.0
  0
INSERT
  2
*GRP_0026
  8
ガラス
  6
CONTINUOUS
 10
0.0
 20
0.0
  0
INSERT
  2
*GRP_0027
  8
ガラス
  6
CONTINUOUS
 10
0.0
 20
0.0
  0
INSERT
  2
*GRP_0028
  8
ガラス
  6
CONTINUOUS
 10
0.0
 20
0.0
  0
INSERT
  2
*GRP_0029
  8
ガラス
  6
CONTINUOUS
 10
0.0
 20
0.0
  0
INSERT
  2
*GRP_0030
  8
ガラス
  6
CONTINUOUS
 10
0.0
 20
0.0
  0
INSERT
  2
*GRP_0031
  8
ガラス
  6
CONTINUOUS
 10
0.0
 20
0.0
  0
INSERT
  2
*GRP_0032
  8
ガラス
  6
CONTINUOUS
 10
0.0
 20
0.0
  0
INSERT
  2
*GRP_0033
  8
ガラス
  6
CONTINUOUS
 10
0.0
 20
0.0
  0
INSERT
  2
*GRP_0034
  8
ガラス
  6
CONTINUOUS
 10
0.0
 20
0.0
  0
INSERT
  2
*GRP_0035
  8
ガラス
  6
CONTINUOUS
 10
0.0
 20
0.0
  0
INSERT
  2
*GRP_0036
  8
ガラス
  6
CONTINUOUS
 10
0.0
 20
0.0
  0
INSERT
  2
*GRP_0037
  8
ガラス
  6
CONTINUOUS
 10
0.0
 20
0.0
  0
INSERT
  2
*GRP_0038
  8
ガラス
  6
CONTINUOUS
 10
0.0
 20
0.0
  0
INSERT
  2
*GRP_0039
  8
ガラス
  6
CONTINUOUS
 10
0.0
 20
0.0
  0
LINE
  8
ガラス
  6
CONTINUOUS
 10
-9.825708
 20
60.16999
 11
-9.825708
 21
56.769988
  0
LINE
  8
ガラス
  6
CONTINUOUS
 10
-9.825708
 20
56.769988
 11
57.653147
 21
56.769988
  0
LINE
  8
ガラス
  6
CONTINUOUS
 10
-9.825708
 20
57.01999
 11
57.653147
 21
57.01999
  0
LINE
  8
ガラス
  6
CONTINUOUS
 10
-9.825708
 20
60.16999
 11
57.653147
 21
60.16999
  0
LINE
  8
ガラス
  6
CONTINUOUS
 10
-9.825708
 20
59.919988
 11
57.653147
 21
59.919988
  0
INSERT
  2
*GRP_0003
  8
ゴム等
  6
CONTINUOUS
 10
0.0
 20
0.0
  0
INSERT
  2
*GRP_0078
  8
ゴム等
  6
CONTINUOUS
 10
0.0
 20
0.0
  0
INSERT
  2
*GRP_0079
  8
ゴム等
  6
CONTINUOUS
 10
0.0
 20
0.0
  0
INSERT
  2
*GRP_0004
  8
ボルト／ビス
  6
CONTINUOUS
 10
0.0
 20
0.0
  0
INSERT
  2
*GRP_0005
  8
ボルト／ビス
  6
CONTINUOUS
 10
0.0
 20
0.0
  0
INSERT
  2
*GRP_0006
  8
ボルト／ビス
  6
CONTINUOUS
 10
0.0
 20
0.0
  0
INSERT
  2
*GRP_0007
  8
ボルト／ビス
  6
CONTINUOUS
 10
0.0
 20
0.0
  0
INSERT
  2
*GRP_0008
  8
ボルト／ビス
  6
CONTINUOUS
 10
0.0
 20
0.0
  0
INSERT
  2
*GRP_0009
  8
ボルト／ビス
  6
CONTINUOUS
 62
    64
 10
0.0
 20
0.0
  0
INSERT
  2
*GRP_0052
  8
ボルト／ビス
  6
CONTINUOUS
 62
    64
 10
0.0
 20
0.0
  0
INSERT
  2
*GRP_0054
  8
ボルト／ビス
  6
CONTINUOUS
 62
    64
 10
0.0
 20
0.0
  0
INSERT
  2
*GRP_0055
  8
ボルト／ビス
  6
CONTINUOUS
 62
    64
 10
0.0
 20
0.0
  0
INSERT
  2
*GRP_0057
  8
ボルト／ビス
  6
CONTINUOUS
 62
    64
 10
0.0
 20
0.0
  0
INSERT
  2
*GRP_0058
  8
ボルト／ビス
  6
CONTINUOUS
 62
    64
 10
0.0
 20
0.0
  0
INSERT
  2
*GRP_0059
  8
ボルト／ビス
  6
CONTINUOUS
 62
    64
 10
0.0
 20
0.0
  0
INSERT
  2
*GRP_0065
  8
ボルト／ビス
  6
CONTINUOUS
 62
    64
 10
0.0
 20
0.0
  0
INSERT
  2
*GRP_0066
  8
ボルト／ビス
  6
CONTINUOUS
 62
    64
 10
0.0
 20
0.0
  0
INSERT
  2
*GRP_0067
  8
ボルト／ビス
  6
CONTINUOUS
 62
    64
 10
0.0
 20
0.0
  0
INSERT
  2
*GRP_0068
  8
ボルト／ビス
  6
CONTINUOUS
 62
    64
 10
0.0
 20
0.0
  0
INSERT
  2
*GRP_0080
  8
ボルト／ビス
  6
CONTINUOUS
 10
0.0
 20
0.0
  0
TEXT
  7
TextStyle03
  8
文字
  6
CONTINUOUS
 10
-61.725
 20
32.475
  1
TK-1156
 40
3.0
 72
     5
 11
-50.1
 21
32.475
  0
TEXT
  7
TextStyle03
  8
文字
  6
CONTINUOUS
 10
-139.925
 20
-71.375
  1
TKM-0001～0005
 40
3.0
 72
     5
 11
-116.4875
 21
-71.375
  0
TEXT
  7
TextStyle03
  8
文字
  6
CONTINUOUS
 10
-89.025
 20
-25.45
  1
φ8穴加工
 40
3.0
 72
     5
 11
-74.2125
 21
-25.45
  0
TEXT
  7
TextStyle03
  8
文字
  6
CONTINUOUS
 10
-89.025
 20
-28.825
  1
裏面バッフル材付き
 40
3.0
 72
     5
 11
-59.025
 21
-28.825
  0
TEXT
  7
TextStyle03
  8
文字
  6
CONTINUOUS
 10
-15.9
 20
9.525
  1
TKR-1301
 40
3.0
 72
     5
 11
-2.5875
 21
9.525
  0
TEXT
  7
TextStyle03
  8
文字
  6
CONTINUOUS
 10
19.275
 20
125.325
  1
呼称寸法
 40
3.0
 72
     5
 11
32.4
 21
125.325
  0
TEXT
  7
TextStyle03
  8
文字
  6
CONTINUOUS
 10
32.2
 20
119.0
  1
有効開口寸法
 40
3.0
 72
     5
 11
52.075
 21
119.0
  0
TEXT
  7
TextStyle03
  8
文字
  6
CONTINUOUS
 10
-65.625
 20
75.85
  1
TKR-1701
 40
3.0
 72
     5
 11
-52.3125
 21
75.85
  0
TEXT
  7
TextStyle03
  8
文字
  6
CONTINUOUS
 10
-86.775
 20
63.425
  1
φ8穴加工
 40
3.0
 72
     5
 11
-71.9625
 21
63.425
  0
TEXT
  7
TextStyle03
  8
文字
  6
CONTINUOUS
 10
-86.775
 20
60.05
  1
裏面バッフル材付き
 40
3.0
 72
     5
 11
-56.775
 21
60.05
  0
TEXT
  7
TextStyle03
  8
文字
  6
CONTINUOUS
 10
-101.75
 20
24.675
  1
M8×40ボルト(SUS）
 40
3.0
 72
     5
 11
-71.75
 21
24.675
  0
TEXT
  7
TextStyle03
  8
文字
  6
CONTINUOUS
 10
-86.6
 20
-11.025
  1
ブチルシート
 40
3.0
 72
     5
 11
-66.725
 21
-11.025
  0
TEXT
  7
TextStyle03
  8
文字
  6
CONTINUOUS
 10
-100.85
 20
2.4
  1
出荷固定金物
 40
3.0
 72
     5
 11
-80.975
 21
2.4
  0
TEXT
  7
TextStyle03
  8
文字
  6
CONTINUOUS
 10
-100.85
 20
-0.975
  1
L-30×30×5（AL）
 40
3.0
 72
     5
 11
-72.5375
 21
-0.975
  0
TEXT
  7
TextStyle03
  8
文字
  6
CONTINUOUS
 10
-71.5
 20
-18.325
  1
TK-1155
 40
3.0
 72
     5
 11
-59.875
 21
-18.325
  0
TEXT
  7
TextStyle03
  8
文字
  6
CONTINUOUS
 10
20.6
 20
-11.725
  1
滑車(ZDC)
 40
3.0
 72
     5
 11
35.6
 21
-11.725
  0
TEXT
  7
TextStyle03
  8
文字
  6
CONTINUOUS
 10
16.6
 20
-49.25
  1
アンカー：St-3.2t
 40
3.0
 72
     5
 11
45.1
 21
-49.25
  0
TEXT
  7
TextStyle03
  8
文字
  6
CONTINUOUS
 10
17.25
 20
-60.475
  1
コーナーシール（工場）
 40
3.0
 72
     5
 11
54.0
 21
-60.475
  0
TEXT
  7
TextStyle03
  8
文字
  6
CONTINUOUS
 10
19.425
 20
70.2
  1
TK-0009
 40
3.0
 72
     5
 11
31.05
 21
70.2
  0
TEXT
  7
TextStyle03
  8
文字
  6
CONTINUOUS
 10
19.3
 20
64.925
  1
TKR-1303
 40
3.0
 72
     5
 11
32.6125
 21
64.925
  0
TEXT
  7
TextStyle03
  8
文字
  6
CONTINUOUS
 10
24.725
 20
97.15
  1
アクリルドーム
 40
3.0
 72
     5
 11
47.975
 21
97.15
  0
TEXT
  7
TextStyle03
  8
文字
  6
CONTINUOUS
 10
24.725
 20
93.775
  1
ポリカドーム
 40
3.0
 72
     5
 11
44.6
 21
93.775
  0
TEXT
  7
TextStyle03
  8
文字
  6
CONTINUOUS
 10
80.5
 20
84.125
  1
ＮＳコード：ＮＳＤＺ
 40
5.0
 72
     5
 11
136.125
 21
84.125
  0
TEXT
  7
TextStyle03
  8
文字
  6
CONTINUOUS
 10
19.55
 20
46.975
  1
TKR-1107
 40
3.0
 72
     5
 11
32.8625
 21
46.975
  0
TEXT
  7
TextStyle03
  8
文字
  6
CONTINUOUS
 10
52.25
 20
62.6
  1
網入りガラス6.8t
 40
3.0
 72
     5
 11
79.0625
 21
62.6
  0
TEXT
  7
TextStyle03
  8
文字
  6
CONTINUOUS
 10
-157.1375
 20
-99.775
  1
排水パイプ(オプション)
 40
3.0
 50
360.0
 72
     5
 11
-120.2
 21
-99.775
  0
TEXT
  7
TextStyle03
  8
文字
  6
CONTINUOUS
 10
-147.0125
 20
-103.15
  1
□10×10×1 L=60
 40
3.0
 50
360.0
 72
     5
 11
-120.2
 21
-103.15
  0
TEXT
  7
TextStyle03
  8
文字
  6
CONTINUOUS
 10
80.75
 20
108.975
  1
シリーズ：ＴＤ２
 40
5.0
 72
     5
 11
125.125
 21
108.975
  0
TEXT
  7
TextStyle03
  8
文字
  6
CONTINUOUS
 10
80.75
 20
103.35
  1
　　　　　（上下可動）
 40
5.0
 72
     5
 11
142.0
 21
103.35
  0
TEXT
  7
TextStyle03
  8
文字
  6
CONTINUOUS
 10
80.75
 20
97.725
  1

 40
5.0
 41
1.125
  0
TEXT
  7
TextStyle03
  8
文字
  6
CONTINUOUS
 10
80.75
 20
92.1
  1
図面名　：下枠断面詳細図（滑車側）
 40
5.0
 72
     5
 11
175.75
 21
92.1
  0
INSERT
  2
*DIM_0010
  8
寸法
  6
CONTINUOUS
 10
0.0
 20
0.0
  0
INSERT
  2
*DIM_0011
  8
寸法
  6
CONTINUOUS
 10
0.0
 20
0.0
  0
INSERT
  2
*DIM_0012
  8
寸法
  6
CONTINUOUS
 10
0.0
 20
0.0
  0
INSERT
  2
*DIM_0013
  8
寸法
  6
CONTINUOUS
 10
0.0
 20
0.0
  0
INSERT
  2
*DIM_0014
  8
寸法
  6
CONTINUOUS
 10
0.0
 20
0.0
  0
INSERT
  2
*DIM_0018
  8
寸法
  6
CONTINUOUS
 10
0.0
 20
0.0
  0
INSERT
  2
*DIM_0019
  8
寸法
  6
CONTINUOUS
 10
0.0
 20
0.0
  0
INSERT
  2
*DIM_0020
  8
寸法
  6
CONTINUOUS
 10
0.0
 20
0.0
  0
INSERT
  2
*DIM_0021
  8
寸法
  6
CONTINUOUS
 10
0.0
 20
0.0
  0
INSERT
  2
*GRP_0022
  8
寸法
  6
CONTINUOUS
 10
0.0
 20
0.0
  0
INSERT
  2
*GRP_0023
  8
寸法
  6
CONTINUOUS
 10
0.0
 20
0.0
  0
INSERT
  2
*GRP_0024
  8
寸法
  6
CONTINUOUS
 10
0.0
 20
0.0
  0
INSERT
  2
*GRP_0025
  8
寸法
  6
CONTINUOUS
 10
0.0
 20
0.0
  0
POLYLINE
  8
寸法
  6
CONTINUOUS
 66
     1
  0
VERTEX
  8
寸法
 10
-14.825708
 20
67.171755
  0
VERTEX
  8
寸法
 10
-14.825708
 20
124.462565
  0
VERTEX
  8
寸法
 10
81.524505
 20
124.462565
  0
SEQEND
  0
INSERT
  2
*DIM_0040
  8
寸法
  6
CONTINUOUS
 10
0.0
 20
0.0
  0
LINE
  8
寸法
  6
CONTINUOUS
 10
81.524505
 20
118.155853
 11
13.924295
 21
118.155853
  0
INSERT
  2
*DIM_0041
  8
寸法
  6
CONTINUOUS
 10
0.0
 20
0.0
  0
INSERT
  2
*DIM_0042
  8
寸法
  6
CONTINUOUS
 10
0.0
 20
0.0
  0
INSERT
  2
*DIM_0043
  8
寸法
  6
CONTINUOUS
 10
0.0
 20
0.0
  0
INSERT
  2
*GRP_0044
  8
寸法
  6
CONTINUOUS
 10
0.0
 20
0.0
  0
INSERT
  2
*DIM_0045
  8
寸法
  6
CONTINUOUS
 10
0.0
 20
0.0
  0
INSERT
  2
*DIM_0046
  8
寸法
  6
CONTINUOUS
 10
0.0
 20
0.0
  0
INSERT
  2
*GRP_0047
  8
寸法
  6
CONTINUOUS
 10
0.0
 20
0.0
  0
INSERT
  2
*DIM_0049
  8
寸法
  6
CONTINUOUS
 10
0.0
 20
0.0
  0
INSERT
  2
*DIM_0050
  8
寸法
  6
CONTINUOUS
 10
0.0
 20
0.0
  0
INSERT
  2
*DIM_0051
  8
寸法
  6
CONTINUOUS
 10
0.0
 20
0.0
  0
INSERT
  2
*GRP_0060
  8
寸法
  6
CONTINUOUS
 10
0.0
 20
0.0
  0
INSERT
  2
*GRP_0061
  8
寸法
  6
CONTINUOUS
 10
0.0
 20
0.0
  0
INSERT
  2
*GRP_0062
  8
寸法
  6
CONTINUOUS
 10
0.0
 20
0.0
  0
INSERT
  2
*GRP_0071
  8
寸法
  6
CONTINUOUS
 10
0.0
 20
0.0
  0
INSERT
  2
*GRP_0072
  8
寸法
  6
CONTINUOUS
 10
0.0
 20
0.0
  0
INSERT
  2
*GRP_0073
  8
寸法
  6
CONTINUOUS
 10
0.0
 20
0.0
  0
INSERT
  2
*GRP_0074
  8
寸法
  6
CONTINUOUS
 10
0.0
 20
0.0
  0
INSERT
  2
*GRP_0075
  8
寸法
  6
CONTINUOUS
 10
0.0
 20
0.0
  0
INSERT
  2
*GRP_0076
  8
寸法
  6
CONTINUOUS
 10
0.0
 20
0.0
  0
INSERT
  2
*GRP_0081
  8
寸法
  6
CONTINUOUS
 10
0.0
 20
0.0
  0
INSERT
  2
*GRP_0082
  8
寸法
  6
CONTINUOUS
 10
0.0
 20
0.0
  0
INSERT
  2
*GRP_0083
  8
寸法
  6
CONTINUOUS
 10
0.0
 20
0.0
  0
INSERT
  2
*DIM_0084
  8
寸法
  6
CONTINUOUS
 10
0.0
 20
0.0
  0
INSERT
  2
*DIM_0085
  8
寸法
  6
CONTINUOUS
 10
0.0
 20
0.0
  0
INSERT
  2
*DIM_0086
  8
寸法
  6
CONTINUOUS
 10
0.0
 20
0.0
  0
INSERT
  2
*DIM_0087
  8
寸法
  6
CONTINUOUS
 10
0.0
 20
0.0
  0
INSERT
  2
*DIM_0088
  8
寸法
  6
CONTINUOUS
 10
0.0
 20
0.0
  0
INSERT
  2
*GRP_0089
  8
寸法
  6
CONTINUOUS
 10
0.0
 20
0.0
  0
INSERT
  2
*DIM_0090
  8
寸法
  6
CONTINUOUS
 10
0.0
 20
0.0
  0
INSERT
  2
*GRP_0093
  8
寸法
  6
CONTINUOUS
 10
0.0
 20
0.0
  0
INSERT
  2
*GRP_0015
  8
別途部材
  6
CONTINUOUS
 10
0.0
 20
0.0
  0
INSERT
  2
*GRP_0016
  8
別途部材
  6
CONTINUOUS
 10
0.0
 20
0.0
  0
INSERT
  2
*GRP_0017
  8
別途部材
  6
CONTINUOUS
 10
0.0
 20
0.0
  0
ARC
  8
別途部材
  6
CONTINUOUS
 62
    96
 10
-37.114326
 20
63.167005
 40
2.502976
 50
90.001373
 51
158.200992
  0
LINE
  8
別途部材
  6
CONTINUOUS
 62
    96
 10
-39.825702
 20
67.17176
 11
-14.825705
 21
67.17176
  0
LINE
  8
別途部材
  6
CONTINUOUS
 62
    96
 10
-37.114325
 20
65.669967
 11
-13.993422
 21
65.669967
  0
LINE
  8
別途部材
  6
CONTINUOUS
 10
-45.825692
 20
52.17176
 11
-44.20822
 21
52.17176
  0
LINE
  8
別途部材
  6
CONTINUOUS
 62
    96
 10
-39.825702
 20
67.17176
 11
-45.825692
 21
52.17176
  0
LINE
  8
別途部材
  6
CONTINUOUS
 62
    96
 10
-39.438298
 20
64.09657
 11
-44.20822
 21
52.17176
  0
ARC
  8
別途部材
  6
CONTINUOUS
 10
81.052186
 20
17.202856
 40
108.117814
 50
117.674727
 51
152.472719
  0
ARC
  8
別途部材
  6
CONTINUOUS
 10
81.052186
 20
17.202856
 40
106.689874
 50
117.674727
 51
152.981359
  0
INSERT
  2
*GRP_0091
  8
別途部材
  6
CONTINUOUS
 10
0.0
 20
0.0
  0
INSERT
  2
*GRP_0053
  8
曲げ物
  6
CONTINUOUS
 10
0.0
 20
0.0
  0
INSERT
  2
*GRP_0056
  8
曲げ物
  6
CONTINUOUS
 10
0.0
 20
0.0
  0
LINE
  8
曲げ物
  6
CONTINUOUS
 10
-44.825705
 20
14.919982
 11
-44.580705
 21
14.919982
  0
LINE
  8
曲げ物
  6
CONTINUOUS
 10
-44.825705
 20
29.919982
 11
-44.575702
 21
29.919982
  0
INSERT
  2
*HAT_0006
  8
曲げ物
 10
0.0
 20
0.0
  0
LINE
  8
曲げ物
  6
CONTINUOUS
 10
-44.825705
 20
7.919242
 11
-44.575702
 21
7.919242
  0
LINE
  8
曲げ物
  6
CONTINUOUS
 10
-44.825705
 20
-7.080757
 11
-44.575702
 21
-7.080757
  0
INSERT
  2
*HAT_0007
  8
曲げ物
 10
0.0
 20
0.0
  0
INSERT
  2
*GRP_0048
  8
St
  6
CONTINUOUS
 62
   127
 10
0.0
 20
0.0
  0
INSERT
  2
*HAT_0008
  8
St
 10
0.0
 20
0.0
  0
INSERT
  2
*GRP_0069
  8
St
  6
CONTINUOUS
 10
0.0
 20
0.0
  0
INSERT
  2
*GRP_0094
  8
St
  6
DOT
 10
0.0
 20
0.0
  0
LINE
  8
その他部品等
  6
CONTINUOUS
 10
-44.575702
 20
-38.330765
 11
-44.575702
 21
-45.830765
  0
LINE
  8
その他部品等
  6
CONTINUOUS
 10
-40.369538
 20
-38.330765
 11
-40.369538
 21
-45.258495
  0
LINE
  8
その他部品等
  6
CONTINUOUS
 10
-37.975702
 20
-38.330765
 11
-37.975702
 21
-44.932805
  0
LINE
  8
その他部品等
  6
CONTINUOUS
 10
-37.975702
 20
-38.330765
 11
-40.369538
 21
-45.258495
  0
INSERT
  2
*HAT_0009
  8
その他部品等
 10
0.0
 20
0.0
  0
LINE
  8
その他部品等
  6
CONTINUOUS
 10
-30.325702
 20
-37.330763
 11
-24.825705
 21
-34.480763
  0
INSERT
  2
*HAT_0010
  8
その他部品等
 10
0.0
 20
0.0
  0
LINE
  8
その他部品等
  6
CONTINUOUS
 10
-101.175755
 20
-83.653895
 11
-94.0757
 21
-83.653895
  0
LINE
  8
その他部品等
  6
CONTINUOUS
 10
-101.175755
 20
-79.653895
 11
-94.0757
 21
-79.653895
  0
LINE
  8
その他部品等
  6
CONTINUOUS
 10
-99.525745
 20
-77.653895
 11
-99.525745
 21
-76.51351
  0
LINE
  8
その他部品等
  6
CONTINUOUS
 10
-94.0757
 20
-76.51351
 11
-99.525745
 21
-76.51351
  0
LINE
  8
その他部品等
  6
CONTINUOUS
 10
-99.525745
 20
-76.51351
 11
-94.0757
 21
-79.653895
  0
INSERT
  2
*HAT_0011
  8
その他部品等
 10
0.0
 20
0.0
  0
ENDSEC
  0
EOF
