  0
SECTION
  2
HEADER
  9
$EXTMIN
 10
-210.0
 20
-148.5
  9
$EXTMAX
 10
210.0
 20
148.5
  9
$PDMODE
 70
    32
  9
$PDSIZE
 40
1.5
  9
$LTSCALE
 40
10.0
  0
ENDSEC
  0
SECTION
  2
TABLES
  0
TABLE
  2
LTYPE
 70
    15
  0
LTYPE
  2
CONTINUOUS
 70
    64
  3
実線
 72
    65
 73
     0
 40
0.0
  0
LTYPE
  2
DASHED
 70
    64
  3
破線A
 72
    65
 73
     2
 40
0.6
 49
0.4
 49
-0.2
  0
LTYPE
  2
DASHEDX2
 70
    64
  3
破線B
 72
    65
 73
     2
 40
1.3
 49
0.9
 49
-0.4
  0
LTYPE
  2
DASHDOT
 70
    64
  3
１点鎖線A
 72
    65
 73
     4
 40
0.5375
 49
0.375
 49
-0.05
 49
0.0625
 49
-0.05
  0
LTYPE
  2
DASHDOTX2
 70
    64
  3
１点鎖線B
 72
    65
 73
     4
 40
1.075
 49
0.75
 49
-0.1
 49
0.125
 49
-0.1
  0
LTYPE
  2
DIVIDE2
 70
    64
  3
２点鎖線A
 72
    65
 73
     6
 40
0.5125
 49
0.3
 49
-0.0375
 49
0.05
 49
-0.0375
 49
0.05
 49
-0.0375
  0
LTYPE
  2
DIVIDE
 70
    64
  3
２点鎖線B
 72
    65
 73
     6
 40
1.05
 49
0.55
 49
-0.1
 49
0.1
 49
-0.1
 49
0.1
 49
-0.1
  0
LTYPE
  2
DOT
 70
    64
  3
点線A
 72
    65
 73
     2
 40
0.1125
 49
0.0625
 49
-0.05
  0
LTYPE
  2
DOTX2
 70
    64
  3
点線B
 72
    65
 73
     2
 40
0.275
 49
0.15
 49
-0.125
  0
LTYPE
  2
CONTINUOUS
 70
    64
  3
実線
 72
    65
 73
     0
 40
0.0
  0
LTYPE
  2
CONTINUOUS
 70
    64
  3
実線
 72
    65
 73
     0
 40
0.0
  0
LTYPE
  2
CONTINUOUS
 70
    64
  3
実線
 72
    65
 73
     0
 40
0.0
  0
LTYPE
  2
CONTINUOUS
 70
    64
  3
実線
 72
    65
 73
     0
 40
0.0
  0
LTYPE
  2
CONTINUOUS
 70
    64
  3
実線
 72
    65
 73
     0
 40
0.0
  0
LTYPE
  2
CONTINUOUS
 70
    64
  3
実線
 72
    65
 73
     0
 40
0.0
  0
ENDTAB
  0
TABLE
  2
LAYER
 70
    34
  0
LAYER
  2
通り芯
 70
     0
 62
    15
  6
CONTINUOUS
  0
LAYER
  2
補助線
 70
     0
 62
    16
  6
DOT
  0
LAYER
  2
躯体
 70
     0
 62
    31
  6
CONTINUOUS
  0
LAYER
  2
型材
 70
     0
 62
    32
  6
CONTINUOUS
  0
LAYER
  2
型材断面
 70
     0
 62
    47
  6
CONTINUOUS
  0
LAYER
  2
ガラス
 70
     0
 62
    48
  6
CONTINUOUS
  0
LAYER
  2
ゴム等
 70
     0
 62
    63
  6
CONTINUOUS
  0
LAYER
  2
ボルト／ビス
 70
     0
 62
    64
  6
CONTINUOUS
  0
LAYER
  2
文字
 70
     0
 62
    79
  6
CONTINUOUS
  0
LAYER
  2
寸法
 70
     0
 62
    80
  6
CONTINUOUS
  0
LAYER
  2
ﾊｯﾁﾝｸﾞ
 70
     0
 62
    95
  6
CONTINUOUS
  0
LAYER
  2
別途部材
 70
     0
 62
    96
  6
CONTINUOUS
  0
LAYER
  2
曲げ物
 70
     0
 62
   111
  6
CONTINUOUS
  0
LAYER
  2
鉄骨等
 70
     0
 62
   112
  6
CONTINUOUS
  0
LAYER
  2
St
 70
     0
 62
   127
  6
CONTINUOUS
  0
LAYER
  2
その他部品等
 70
     0
 62
   128
  6
CONTINUOUS
  0
LAYER
  2
ｶﾞｽｹｯﾄ
 70
     0
 62
   143
  6
CONTINUOUS
  0
LAYER
  2
ｽｹｯﾁ
 70
     0
 62
    14
  6
CONTINUOUS
  0
LAYER
  2
0
 70
     0
 62
    17
  6
CONTINUOUS
  0
LAYER
  2
1
 70
     0
 62
    30
  6
CONTINUOUS
  0
LAYER
  2
4
 70
     0
 62
    33
  6
CONTINUOUS
  0
LAYER
  2
ﾚｲﾔ3
 70
     0
 62
    46
  6
CONTINUOUS
  0
LAYER
  2
外形線
 70
     0
 62
    49
  6
CONTINUOUS
  0
LAYER
  2
部品
 70
     0
 62
    14
  6
CONTINUOUS
  0
LAYER
  2
サッシ芯
 70
     0
 62
    17
  6
DASHDOTX2
  0
LAYER
  2
寸法線
 70
     0
 62
    62
  6
CONTINUOUS
  0
LAYER
  2
姿図外形線
 70
     0
 62
    65
  6
CONTINUOUS
  0
LAYER
  2
姿補助線
 70
     0
 62
    30
  6
CONTINUOUS
  0
LAYER
  2
透視線
 70
     0
 62
    78
  6
DOT
  0
LAYER
  2
用紙
 70
     0
 62
    81
  6
CONTINUOUS
  0
LAYER
  2
実線図枠
 70
     0
 62
    94
  6
CONTINUOUS
  0
LAYER
  2
補助図枠
 70
     0
 62
    97
  6
CONTINUOUS
  0
LAYER
  2
建具記号
 70
     0
 62
   110
  6
CONTINUOUS
  0
LAYER
  2
補助文字
 70
     0
 62
   113
  6
CONTINUOUS
  0
ENDTAB
  0
TABLE
  2
STYLE
 70
    10
  0
STYLE
  2
STANDARD
 70
     0
 40
1.0
 41
1.0
 42
1.0
 50
0.0
 71
     0
  3
TXT
  4
BIGFONT
  0
STYLE
  2
TATE
 70
     4
 40
1.0
 41
1.0
 42
1.0
 50
0.0
 71
     0
  3
TXT
  4
BIGFONT
  0
STYLE
  2
TextStyle03
 70
     0
 40
1.0
 41
1.0
 42
1.0
 50
0.0
 71
     0
  3
MONOTXT
  4
BIGFONT
  0
STYLE
  2
TextStyle04
 70
     0
 40
1.0
 41
1.0
 42
1.0
 50
0.0
 71
     0
  3
MONOTXT
  4
BIGFONT
  0
STYLE
  2
TextStyle05
 70
     0
 40
1.0
 41
1.0
 42
1.0
 50
0.0
 71
     0
  3
MONOTXT
  4
BIGFONT
  0
STYLE
  2
TextStyle06
 70
     0
 40
1.0
 41
1.0
 42
1.0
 50
0.0
 71
     0
  3
MONOTXT
  4
BIGFONT
  0
STYLE
  2
TextStyle07
 70
     0
 40
1.0
 41
1.0
 42
1.0
 50
0.0
 71
     0
  3
MONOTXT
  4
BIGFONT
  0
STYLE
  2
TextStyle08
 70
     0
 40
1.0
 41
1.0
 42
1.0
 50
0.0
 71
     0
  3
MONOTXT
  4
BIGFONT
  0
STYLE
  2
TextStyle09
 70
     0
 40
1.0
 41
1.0
 42
1.0
 50
0.0
 71
     0
  3
MONOTXT
  4
BIGFONT
  0
STYLE
  2
TextStyle10
 70
     0
 40
1.0
 41
1.0
 42
1.0
 50
0.0
 71
     0
  3
MONOTXT
  4
BIGFONT
  0
ENDTAB
  0
ENDSEC
  0
SECTION
  2
BLOCKS
  0
BLOCK
  2
*HAT_0001
 70
    65
 10
0.0
 20
0.0
  0
LINE
  8
ゴム等
 10
-26.45
 20
15.5
 11
-25.975
 21
16.025
  0
LINE
  8
ゴム等
 10
-24.95
 20
17.0
 11
-24.95
 21
17.0
  0
LINE
  8
ゴム等
 10
-29.15
 20
13.75
 11
-28.475
 21
14.45
  0
LINE
  8
ゴム等
 10
-27.425
 20
15.5
 11
-25.975
 21
16.925
  0
LINE
  8
ゴム等
 10
-25.925
 20
17.0
 11
-24.95
 21
17.95
  0
LINE
  8
ゴム等
 10
-30.125
 20
13.75
 11
-28.975
 21
14.9
  0
LINE
  8
ゴム等
 10
-28.375
 20
15.5
 11
-25.625
 21
18.25
  0
LINE
  8
ゴム等
 10
-31.025
 20
13.75
 11
-26.525
 21
18.25
  0
LINE
  8
ゴム等
 10
-31.7
 20
14.05
 11
-27.5
 21
18.275
  0
LINE
  8
ゴム等
 10
-31.475
 20
15.2
 11
-28.1
 21
18.55
  0
LINE
  8
ゴム等
 10
-32.125
 20
15.5
 11
-28.85
 21
18.8
  0
LINE
  8
ゴム等
 10
-33.05
 20
15.5
 11
-29.6
 21
18.95
  0
LINE
  8
ゴム等
 10
-33.475
 20
16.025
 11
-30.5
 21
19.0
  0
LINE
  8
ゴム等
 10
-33.475
 20
17.0
 11
-31.55
 21
18.875
  0
LINE
  8
ゴム等
 10
-33.475
 20
17.95
 11
-32.875
 21
18.5
  0
ENDBLK
  0
BLOCK
  2
*HAT_0002
 70
    65
 10
0.0
 20
0.0
  0
LINE
  8
ゴム等
 10
-1.3
 20
54.3
 11
-0.95
 21
54.625
  0
LINE
  8
ゴム等
 10
-2.0
 20
54.3
 11
-0.95
 21
55.35
  0
LINE
  8
ゴム等
 10
-2.725
 20
54.3
 11
-0.95
 21
56.025
  0
LINE
  8
ゴム等
 10
-3.4
 20
54.3
 11
-0.95
 21
56.725
  0
LINE
  8
ゴム等
 10
-4.1
 20
54.3
 11
-1.625
 21
56.8
  0
LINE
  8
ゴム等
 10
-4.825
 20
54.3
 11
-2.3
 21
56.8
  0
LINE
  8
ゴム等
 10
-5.525
 20
54.3
 11
-3.025
 21
56.8
  0
LINE
  8
ゴム等
 10
-5.95
 20
54.55
 11
-3.725
 21
56.8
  0
LINE
  8
ゴム等
 10
-5.95
 20
55.275
 11
-4.45
 21
56.8
  0
LINE
  8
ゴム等
 10
-5.95
 20
55.975
 11
-5.15
 21
56.8
  0
LINE
  8
ゴム等
 10
-5.95
 20
56.7
 11
-5.875
 21
56.8
  0
ENDBLK
  0
BLOCK
  2
*HAT_0003
 70
    65
 10
0.0
 20
0.0
  0
LINE
  8
ゴム等
 10
-4.7
 20
60.175
 11
-5.8
 21
61.3
  0
LINE
  8
ゴム等
 10
-3.425
 20
60.175
 11
-5.8
 21
62.575
  0
LINE
  8
ゴム等
 10
-2.15
 20
60.175
 11
-5.275
 21
63.3
  0
LINE
  8
ゴム等
 10
-0.875
 20
60.175
 11
-4.0
 21
63.3
  0
LINE
  8
ゴム等
 10
-0.8
 20
61.375
 11
-2.725
 21
63.3
  0
LINE
  8
ゴム等
 10
-0.8
 20
62.65
 11
-1.45
 21
63.3
  0
ENDBLK
  0
BLOCK
  2
*HAT_0004
 70
    65
 10
0.0
 20
0.0
  0
LINE
  8
型材断面
  6
DOT
 10
-39.0
 20
-37.6
 11
-38.575
 21
-37.175
  0
LINE
  8
型材断面
  6
DOT
 10
-40.425
 20
-37.6
 11
-38.575
 21
-35.775
  0
LINE
  8
型材断面
  6
DOT
 10
-41.825
 20
-37.6
 11
-38.575
 21
-34.35
  0
LINE
  8
型材断面
  6
DOT
 10
-43.25
 20
-37.6
 11
-38.575
 21
-32.95
  0
LINE
  8
型材断面
  6
DOT
 10
-43.575
 20
-36.525
 11
-39.65
 21
-32.6
  0
LINE
  8
型材断面
  6
DOT
 10
-43.575
 20
-35.125
 11
-41.075
 21
-32.6
  0
LINE
  8
型材断面
  6
DOT
 10
-43.575
 20
-33.7
 11
-42.475
 21
-32.6
  0
ENDBLK
  0
BLOCK
  2
*HAT_0005
 70
    65
 10
0.0
 20
0.0
  0
LINE
  8
型材断面
  6
DOT
 10
-25.35
 20
46.5
 11
-25.35
 21
46.5
  0
LINE
  8
型材断面
  6
DOT
 10
-26.75
 20
46.5
 11
-25.35
 21
47.925
  0
LINE
  8
型材断面
  6
DOT
 10
-28.175
 20
46.5
 11
-25.35
 21
49.325
  0
LINE
  8
型材断面
  6
DOT
 10
-29.575
 20
46.5
 11
-25.35
 21
50.75
  0
LINE
  8
型材断面
  6
DOT
 10
-30.35
 20
47.15
 11
-26.0
 21
51.5
  0
LINE
  8
型材断面
  6
DOT
 10
-30.35
 20
48.575
 11
-27.4
 21
51.5
  0
LINE
  8
型材断面
  6
DOT
 10
-30.35
 20
49.975
 11
-28.825
 21
51.5
  0
LINE
  8
型材断面
  6
DOT
 10
-30.35
 20
51.4
 11
-30.225
 21
51.5
  0
ENDBLK
  0
BLOCK
  2
*HAT_0006
 70
    65
 10
0.0
 20
0.0
  0
LINE
  8
St
 10
-16.525
 20
64.225
 11
-15.575
 21
65.175
  0
LINE
  8
St
 10
-17.2
 20
64.225
 11
-15.875
 21
65.575
  0
LINE
  8
St
 10
-17.9
 20
64.225
 11
-16.4
 21
65.725
  0
LINE
  8
St
 10
-18.625
 20
64.225
 11
-17.125
 21
65.725
  0
LINE
  8
St
 10
-19.325
 20
64.225
 11
-17.825
 21
65.725
  0
LINE
  8
St
 10
-20.05
 20
64.225
 11
-18.55
 21
65.725
  0
LINE
  8
St
 10
-20.75
 20
64.225
 11
-19.25
 21
65.725
  0
LINE
  8
St
 10
-21.425
 20
64.225
 11
-19.925
 21
65.725
  0
LINE
  8
St
 10
-22.15
 20
64.225
 11
-20.65
 21
65.725
  0
LINE
  8
St
 10
-22.85
 20
64.225
 11
-21.35
 21
65.725
  0
LINE
  8
St
 10
-23.575
 20
64.225
 11
-22.075
 21
65.725
  0
LINE
  8
St
 10
-24.275
 20
64.225
 11
-22.775
 21
65.725
  0
LINE
  8
St
 10
-25.0
 20
64.225
 11
-23.5
 21
65.725
  0
LINE
  8
St
 10
-25.675
 20
64.225
 11
-24.175
 21
65.725
  0
LINE
  8
St
 10
-26.375
 20
64.225
 11
-24.875
 21
65.725
  0
LINE
  8
St
 10
-27.1
 20
64.225
 11
-25.6
 21
65.725
  0
LINE
  8
St
 10
-27.8
 20
64.225
 11
-26.3
 21
65.725
  0
LINE
  8
St
 10
-28.525
 20
64.225
 11
-27.025
 21
65.725
  0
LINE
  8
St
 10
-29.225
 20
64.225
 11
-27.725
 21
65.725
  0
LINE
  8
St
 10
-29.9
 20
64.225
 11
-28.4
 21
65.725
  0
LINE
  8
St
 10
-30.4
 20
64.5
 11
-29.125
 21
65.725
  0
LINE
  8
St
 10
-30.575
 20
65.025
 11
-29.825
 21
65.725
  0
ENDBLK
  0
BLOCK
  2
*HAT_0007
 70
    65
 10
0.0
 20
0.0
  0
LINE
  8
その他部品等
 10
-95.075
 20
-83.675
 11
-94.15
 21
-82.7
  0
LINE
  8
その他部品等
 10
-97.225
 20
-83.675
 11
-94.15
 21
-80.6
  0
LINE
  8
その他部品等
 10
-99.325
 20
-83.65
 11
-95.3
 21
-79.675
  0
LINE
  8
その他部品等
 10
-101.225
 20
-83.45
 11
-97.45
 21
-79.675
  0
LINE
  8
その他部品等
 10
-101.225
 20
-81.35
 11
-99.55
 21
-79.675
  0
LINE
  8
その他部品等
 10
-101.225
 20
-81.925
 11
-99.5
 21
-83.65
  0
LINE
  8
その他部品等
 10
-101.225
 20
-79.825
 11
-97.4
 21
-83.65
  0
LINE
  8
その他部品等
 10
-99.275
 20
-79.675
 11
-95.275
 21
-83.65
  0
LINE
  8
その他部品等
 10
-97.15
 20
-79.675
 11
-94.15
 21
-82.675
  0
LINE
  8
その他部品等
 10
-95.05
 20
-79.675
 11
-94.15
 21
-80.575
  0
ENDBLK
  0
BLOCK
  2
*HAT_0008
 70
    65
 10
0.0
 20
0.0
  0
LINE
  8
その他部品等
 10
-42.1
 20
-45.5
 11
-40.45
 21
-43.825
  0
LINE
  8
その他部品等
 10
-44.525
 20
-45.85
 11
-40.45
 21
-41.725
  0
LINE
  8
その他部品等
 10
-44.65
 20
-43.825
 11
-40.45
 21
-39.625
  0
LINE
  8
その他部品等
 10
-44.65
 20
-41.675
 11
-41.3
 21
-38.35
  0
LINE
  8
その他部品等
 10
-44.65
 20
-39.575
 11
-43.4
 21
-38.35
  0
LINE
  8
その他部品等
 10
-44.65
 20
-45.35
 11
-44.2
 21
-45.775
  0
LINE
  8
その他部品等
 10
-44.65
 20
-43.225
 11
-42.35
 21
-45.5
  0
LINE
  8
その他部品等
 10
-44.65
 20
-41.125
 11
-40.475
 21
-45.275
  0
LINE
  8
その他部品等
 10
-44.65
 20
-38.975
 11
-40.45
 21
-43.175
  0
LINE
  8
その他部品等
 10
-43.175
 20
-38.35
 11
-40.45
 21
-41.075
  0
LINE
  8
その他部品等
 10
-41.05
 20
-38.35
 11
-40.45
 21
-38.95
  0
ENDBLK
  0
BLOCK
  2
*HAT_0009
 70
    65
 10
0.0
 20
0.0
  0
LINE
  8
その他部品等
 10
-27.3
 20
-35.775
 11
-26.025
 21
-34.5
  0
LINE
  8
その他部品等
 10
-30.225
 20
-37.3
 11
-27.45
 21
-34.5
  0
LINE
  8
その他部品等
 10
-31.7
 20
-37.35
 11
-28.85
 21
-34.5
  0
LINE
  8
その他部品等
 10
-33.1
 20
-37.35
 11
-30.25
 21
-34.5
  0
LINE
  8
その他部品等
 10
-34.525
 20
-37.35
 11
-31.675
 21
-34.5
  0
LINE
  8
その他部品等
 10
-35.925
 20
-37.35
 11
-33.075
 21
-34.5
  0
LINE
  8
その他部品等
 10
-36.325
 20
-36.325
 11
-34.5
 21
-34.5
  0
LINE
  8
その他部品等
 10
-36.325
 20
-34.925
 11
-35.9
 21
-34.5
  0
LINE
  8
その他部品等
 10
-36.35
 20
-37.1
 11
-36.1
 21
-37.35
  0
LINE
  8
その他部品等
 10
-36.35
 20
-35.7
 11
-34.7
 21
-37.35
  0
LINE
  8
その他部品等
 10
-36.125
 20
-34.5
 11
-33.275
 21
-37.35
  0
LINE
  8
その他部品等
 10
-34.725
 20
-34.5
 11
-31.875
 21
-37.35
  0
LINE
  8
その他部品等
 10
-33.3
 20
-34.5
 11
-30.45
 21
-37.35
  0
LINE
  8
その他部品等
 10
-31.9
 20
-34.5
 11
-29.5
 21
-36.9
  0
LINE
  8
その他部品等
 10
-30.475
 20
-34.5
 11
-28.55
 21
-36.425
  0
LINE
  8
その他部品等
 10
-29.075
 20
-34.5
 11
-27.625
 21
-35.95
  0
LINE
  8
その他部品等
 10
-27.65
 20
-34.5
 11
-26.7
 21
-35.45
  0
LINE
  8
その他部品等
 10
-26.25
 20
-34.5
 11
-25.775
 21
-34.975
  0
ENDBLK
  0
BLOCK
  2
*GRP_0001
 70
    65
 10
0.0
 20
0.0
  0
LINE
  8
型材断面
  6
CONTINUOUS
 10
195.0
 20
133.5
 11
195.0
 21
-133.5
  0
LINE
  8
型材断面
  6
CONTINUOUS
 10
195.0
 20
-133.5
 11
-185.0
 21
-133.5
  0
LINE
  8
型材断面
  6
CONTINUOUS
 10
-185.0
 20
-133.5
 11
-185.0
 21
133.5
  0
LINE
  8
型材断面
  6
CONTINUOUS
 10
195.0
 20
133.5
 11
-185.0
 21
133.5
  0
LINE
  8
型材断面
  6
CONTINUOUS
 10
145.0
 20
-133.5
 11
145.0
 21
-118.5
  0
LINE
  8
型材断面
  6
CONTINUOUS
 10
195.0
 20
-118.5
 11
145.0
 21
-118.5
  0
ENDBLK
  0
BLOCK
  2
*GRP_0002
 70
    65
 10
0.0
 20
0.0
  0
ARC
  8
型材断面
  6
CONTINUOUS
 62
    47
 10
-22.675707
 20
19.144984
 40
0.15
 50
90.0
 51
180.0
  0
LINE
  8
型材断面
  6
CONTINUOUS
 62
    47
 10
-22.82571
 20
19.144982
 11
-22.82571
 21
18.44498
  0
LINE
  8
型材断面
  6
CONTINUOUS
 62
    47
 10
-22.67571
 20
18.29498
 11
-14.075708
 21
18.29498
  0
ARC
  8
型材断面
  6
CONTINUOUS
 62
    47
 10
-22.675707
 20
18.444984
 40
0.15
 50
180.0
 51
270.0
  0
ARC
  8
型材断面
  6
CONTINUOUS
 62
    47
 10
-14.075707
 20
42.044984
 40
0.5
 50
0.0
 51
90.0
  0
ARC
  8
型材断面
  6
CONTINUOUS
 62
    47
 10
-22.675707
 20
41.694984
 40
0.15
 50
180.0
 51
270.0
  0
LINE
  8
型材断面
  6
CONTINUOUS
 62
    47
 10
-22.82571
 20
41.69498
 11
-22.82571
 21
42.394982
  0
LINE
  8
型材断面
  6
CONTINUOUS
 62
    47
 10
-22.67571
 20
42.544982
 11
-14.075708
 21
42.544982
  0
ARC
  8
型材断面
  6
CONTINUOUS
 62
    47
 10
-22.675707
 20
42.394984
 40
0.15
 50
90.0
 51
180.0
  0
LINE
  8
型材断面
  6
CONTINUOUS
 62
    47
 10
-14.57571
 20
19.294982
 11
-14.57571
 21
41.54498
  0
LINE
  8
型材断面
  6
CONTINUOUS
 62
    47
 10
-13.575708
 20
18.79498
 11
-13.575708
 21
42.04498
  0
ARC
  8
型材断面
  6
CONTINUOUS
 62
    47
 10
-14.075707
 20
18.794984
 40
0.5
 50
270.0
 51
360.0
  0
LINE
  8
型材断面
  6
CONTINUOUS
 62
    47
 10
-18.075708
 20
19.294982
 11
-14.57571
 21
19.294982
  0
LINE
  8
型材断面
  6
CONTINUOUS
 62
    47
 10
-18.075708
 20
41.54498
 11
-14.57571
 21
41.54498
  0
ARC
  8
型材断面
  6
CONTINUOUS
 62
    47
 10
-18.175707
 20
41.444984
 40
0.1
 50
233.914192
 51
360.0
  0
LINE
  8
型材断面
  6
CONTINUOUS
 62
    47
 10
-18.075708
 20
41.444982
 11
-18.075708
 21
41.54498
  0
LINE
  8
型材断面
  6
CONTINUOUS
 62
    47
 10
-22.67571
 20
41.54498
 11
-18.482693
 21
41.54498
  0
LINE
  8
型材断面
  6
CONTINUOUS
 62
    47
 10
-18.234608
 20
41.364168
 11
-18.482693
 21
41.54498
  0
ARC
  8
型材断面
  6
CONTINUOUS
 62
    47
 10
-18.175707
 20
19.394986
 40
0.1
 50
0.0
 51
126.085808
  0
LINE
  8
型材断面
  6
CONTINUOUS
 62
    47
 10
-18.075708
 20
19.394982
 11
-18.075708
 21
19.294985
  0
LINE
  8
型材断面
  6
CONTINUOUS
 62
    47
 10
-18.234608
 20
19.4758
 11
-18.482693
 21
19.294985
  0
LINE
  8
型材断面
  6
CONTINUOUS
 62
    47
 10
-22.67571
 20
19.294982
 11
-18.482695
 21
19.294982
  0
ENDBLK
  0
BLOCK
  2
*GRP_0003
 70
    65
 10
0.0
 20
0.0
  0
ARC
  8
型材断面
  6
CONTINUOUS
 62
    47
 10
-22.675707
 20
-20.355765
 40
0.15
 50
90.0
 51
180.0
  0
LINE
  8
型材断面
  6
CONTINUOUS
 62
    47
 10
-22.82571
 20
-20.355768
 11
-22.82571
 21
-21.055768
  0
LINE
  8
型材断面
  6
CONTINUOUS
 62
    47
 10
-22.67571
 20
-21.205768
 11
-14.075708
 21
-21.205768
  0
ARC
  8
型材断面
  6
CONTINUOUS
 62
    47
 10
-22.675707
 20
-21.055765
 40
0.15
 50
180.0
 51
270.0
  0
ARC
  8
型材断面
  6
CONTINUOUS
 62
    47
 10
-14.075707
 20
2.544235
 40
0.5
 50
0.0
 51
90.0
  0
ARC
  8
型材断面
  6
CONTINUOUS
 62
    47
 10
-22.675707
 20
2.194235
 40
0.15
 50
180.0
 51
270.0
  0
LINE
  8
型材断面
  6
CONTINUOUS
 62
    47
 10
-22.82571
 20
2.194232
 11
-22.82571
 21
2.894232
  0
LINE
  8
型材断面
  6
CONTINUOUS
 62
    47
 10
-22.67571
 20
3.044232
 11
-14.075708
 21
3.044232
  0
ARC
  8
型材断面
  6
CONTINUOUS
 62
    47
 10
-22.675707
 20
2.894235
 40
0.15
 50
90.0
 51
180.0
  0
LINE
  8
型材断面
  6
CONTINUOUS
 62
    47
 10
-14.57571
 20
-20.205768
 11
-14.57571
 21
2.044232
  0
LINE
  8
型材断面
  6
CONTINUOUS
 62
    47
 10
-13.575708
 20
-20.70577
 11
-13.575708
 21
2.54423
  0
ARC
  8
型材断面
  6
CONTINUOUS
 62
    47
 10
-14.075707
 20
-20.705765
 40
0.5
 50
270.0
 51
360.0
  0
LINE
  8
型材断面
  6
CONTINUOUS
 62
    47
 10
-18.075708
 20
-20.205768
 11
-14.57571
 21
-20.205768
  0
LINE
  8
型材断面
  6
CONTINUOUS
 62
    47
 10
-18.075708
 20
2.044232
 11
-14.57571
 21
2.044232
  0
ARC
  8
型材断面
  6
CONTINUOUS
 62
    47
 10
-18.175707
 20
1.944235
 40
0.1
 50
233.914192
 51
360.0
  0
LINE
  8
型材断面
  6
CONTINUOUS
 62
    47
 10
-18.075708
 20
1.944235
 11
-18.075708
 21
2.044232
  0
LINE
  8
型材断面
  6
CONTINUOUS
 62
    47
 10
-22.67571
 20
2.044232
 11
-18.482693
 21
2.044232
  0
LINE
  8
型材断面
  6
CONTINUOUS
 62
    47
 10
-18.234608
 20
1.863417
 11
-18.482693
 21
2.044232
  0
ARC
  8
型材断面
  6
CONTINUOUS
 62
    47
 10
-18.175707
 20
-20.105763
 40
0.1
 50
0.0
 51
126.085808
  0
LINE
  8
型材断面
  6
CONTINUOUS
 62
    47
 10
-18.075708
 20
-20.105765
 11
-18.075708
 21
-20.205763
  0
LINE
  8
型材断面
  6
CONTINUOUS
 62
    47
 10
-18.234608
 20
-20.02495
 11
-18.482693
 21
-20.205763
  0
LINE
  8
型材断面
  6
CONTINUOUS
 62
    47
 10
-22.67571
 20
-20.205768
 11
-18.482695
 21
-20.205768
  0
ENDBLK
  0
BLOCK
  2
*GRP_0004
 70
    65
 10
0.0
 20
0.0
  0
LINE
  8
型材断面
  6
CONTINUOUS
 10
-37.825702
 20
-41.832805
 11
-37.975702
 21
-41.682805
  0
LINE
  8
型材断面
  6
CONTINUOUS
 10
-37.825702
 20
-41.832805
 11
-37.975702
 21
-41.982805
  0
LINE
  8
型材断面
  6
CONTINUOUS
 62
    47
 10
-102.07576
 20
-83.653895
 11
-101.17576
 21
-83.653895
  0
LINE
  8
型材断面
  6
CONTINUOUS
 10
-101.175753
 20
-79.653895
 11
-101.17576
 21
-83.653895
  0
LINE
  8
型材断面
  6
CONTINUOUS
 10
-101.175753
 20
-78.903895
 11
-101.175705
 21
-54.439737
  0
LINE
  8
型材断面
  6
CONTINUOUS
 62
    47
 10
-102.07576
 20
-83.653895
 11
-102.0757
 21
-53.653895
  0
LINE
  8
型材断面
  6
CONTINUOUS
 10
-95.612035
 20
-53.682775
 11
-101.175705
 21
-54.439737
  0
LINE
  8
型材断面
  6
CONTINUOUS
 10
-65.62882
 20
-49.603427
 11
-94.868875
 21
-53.581668
  0
LINE
  8
型材断面
  6
CONTINUOUS
 10
-64.885665
 20
-49.50232
 11
-37.825702
 21
-45.82069
  0
LINE
  8
型材断面
  6
CONTINUOUS
 10
-102.0757
 20
-53.653895
 11
-37.975702
 21
-44.932805
  0
LINE
  8
型材断面
  6
CONTINUOUS
 10
-37.075702
 20
-39.082805
 11
-37.975702
 21
-39.082805
  0
LINE
  8
型材断面
  6
CONTINUOUS
 10
-37.975702
 20
-44.932805
 11
-37.975702
 21
-41.982805
  0
LINE
  8
型材断面
  6
CONTINUOUS
 10
-37.975702
 20
-41.682805
 11
-37.975702
 21
-39.082805
  0
LINE
  8
型材断面
  6
CONTINUOUS
 10
-94.745063
 20
-54.473113
 11
-92.8624
 21
-54.21697
  0
LINE
  8
型材断面
  6
CONTINUOUS
 10
-92.8624
 20
-54.21697
 11
-92.75922
 21
-54.959845
  0
LINE
  8
型材断面
  6
CONTINUOUS
 10
-92.75922
 20
-54.959845
 11
-95.38504
 21
-55.3171
  0
LINE
  8
型材断面
  6
CONTINUOUS
 10
-65.510527
 20
-50.495615
 11
-67.393188
 21
-50.75176
  0
LINE
  8
型材断面
  6
CONTINUOUS
 10
-67.393188
 20
-50.75176
 11
-67.29415
 21
-51.495197
  0
LINE
  8
型材断面
  6
CONTINUOUS
 10
-67.29415
 20
-51.495197
 11
-64.66833
 21
-51.137943
  0
LINE
  8
型材断面
  6
CONTINUOUS
 10
-94.744232
 20
-54.473
 11
-94.86805
 21
-53.581555
  0
LINE
  8
型材断面
  6
CONTINUOUS
 10
-95.384213
 20
-55.316987
 11
-95.611208
 21
-53.682662
  0
LINE
  8
型材断面
  6
CONTINUOUS
 10
-65.510527
 20
-50.495615
 11
-65.629373
 21
-49.603503
  0
LINE
  8
型材断面
  6
CONTINUOUS
 10
-64.66833
 20
-51.137943
 11
-64.886215
 21
-49.502395
  0
LINE
  8
型材断面
  6
CONTINUOUS
 10
-39.715405
 20
-47.743
 11
-39.816513
 21
-46.999842
  0
LINE
  8
型材断面
  6
CONTINUOUS
 62
    47
 10
-37.075702
 20
-39.082805
 11
-37.075702
 21
-47.383855
  0
LINE
  8
型材断面
  6
CONTINUOUS
 10
-39.715405
 20
-47.743
 11
-37.075702
 21
-47.383855
  0
LINE
  8
型材断面
  6
CONTINUOUS
 10
-39.816513
 20
-46.999842
 11
-37.825702
 21
-46.728985
  0
LINE
  8
型材断面
  6
CONTINUOUS
 10
-37.825702
 20
-45.82069
 11
-37.825702
 21
-46.728985
  0
LINE
  8
型材断面
  6
CONTINUOUS
 10
-99.52575
 20
-77.653895
 11
-100.27575
 21
-77.653895
  0
LINE
  8
型材断面
  6
CONTINUOUS
 10
-100.27575
 20
-78.903895
 11
-100.27575
 21
-77.653895
  0
LINE
  8
型材断面
  6
CONTINUOUS
 10
-99.52575
 20
-79.153895
 11
-99.52575
 21
-77.653895
  0
ARC
  8
型材断面
  6
CONTINUOUS
 10
-100.025756
 20
-79.153896
 40
0.5
 50
-90.0
 51
0.0
  0
LINE
  8
型材断面
  6
CONTINUOUS
 10
-100.27575
 20
-78.903895
 11
-101.175753
 21
-78.903895
  0
LINE
  8
型材断面
  6
CONTINUOUS
 10
-100.025748
 20
-79.653895
 11
-101.175753
 21
-79.653895
  0
ENDBLK
  0
BLOCK
  2
*GRP_0005
 70
    65
 10
0.0
 20
0.0
  0
LINE
  8
ゴム等
  6
CONTINUOUS
 10
-31.2985
 20
13.769238
 11
-28.7985
 21
13.769238
  0
LINE
  8
ゴム等
  6
CONTINUOUS
 10
-28.7985
 20
14.769238
 11
-28.7985
 21
15.519238
  0
LINE
  8
ゴム等
  6
CONTINUOUS
 10
-31.2985
 20
14.769238
 11
-31.2985
 21
15.519238
  0
LINE
  8
ゴム等
  6
CONTINUOUS
 10
-33.2985
 20
15.519238
 11
-31.2985
 21
15.519238
  0
LINE
  8
ゴム等
  6
CONTINUOUS
 10
-28.7985
 20
15.519238
 11
-25.7985
 21
15.519238
  0
LINE
  8
ゴム等
  6
CONTINUOUS
 10
-25.7985
 20
15.519238
 11
-25.7985
 21
17.019238
  0
LINE
  8
ゴム等
  6
CONTINUOUS
 10
-24.798502
 20
17.019238
 11
-25.7985
 21
17.019238
  0
LINE
  8
ゴム等
  6
CONTINUOUS
 10
-24.798502
 20
17.019238
 11
-24.798502
 21
18.269238
  0
ARC
  8
ゴム等
  6
CONTINUOUS
 10
-30.298496
 20
12.644236
 40
6.375
 50
61.927513
 51
118.072487
  0
LINE
  8
ゴム等
  6
CONTINUOUS
 10
-24.798502
 20
18.269238
 11
-27.2985
 21
18.269238
  0
LINE
  8
ゴム等
  6
CONTINUOUS
 10
-33.2985
 20
15.519238
 11
-33.2985
 21
18.269238
  0
LINE
  8
ゴム等
  6
CONTINUOUS
 10
-28.7985
 20
13.769238
 11
-28.34847
 21
14.367385
  0
ARC
  8
ゴム等
  6
CONTINUOUS
 10
-28.548496
 20
14.519236
 40
0.25
 50
322.618449
 51
450.0
  0
LINE
  8
ゴム等
  6
CONTINUOUS
 10
-28.7985
 20
14.769238
 11
-28.548502
 21
14.769238
  0
LINE
  8
ゴム等
  6
CONTINUOUS
 10
-31.2985
 20
13.769238
 11
-31.74853
 21
14.367385
  0
ARC
  8
ゴム等
  6
CONTINUOUS
 10
-31.548496
 20
14.519236
 40
0.25
 50
90.0
 51
217.381551
  0
LINE
  8
ゴム等
  6
CONTINUOUS
 10
-31.2985
 20
14.769238
 11
-31.548502
 21
14.769238
  0
INSERT
  2
*HAT_0001
  8
ゴム等
 10
0.0
 20
0.0
  0
ENDBLK
  0
BLOCK
  2
*GRP_0006
 70
    65
 10
0.0
 20
0.0
  0
LINE
  8
ボルト／ビス
  6
CONTINUOUS
 62
    64
 10
-37.975702
 20
-40.082802
 11
-38.499788
 21
-40.128655
  0
ARC
  8
ボルト／ビス
  6
CONTINUOUS
 62
    64
 10
-38.425705
 20
-40.975421
 40
0.85
 50
94.999989
 51
180.0
  0
LINE
  8
ボルト／ビス
  6
CONTINUOUS
 62
    64
 10
-39.275702
 20
-40.97542
 11
-39.275702
 21
-41.832805
  0
LINE
  8
ボルト／ビス
  6
CONTINUOUS
 62
    64
 10
-37.975702
 20
-43.582805
 11
-38.499788
 21
-43.536955
  0
ARC
  8
ボルト／ビス
  6
CONTINUOUS
 62
    64
 10
-38.425705
 20
-42.690188
 40
0.85
 50
180.0
 51
265.000011
  0
LINE
  8
ボルト／ビス
  6
CONTINUOUS
 62
    64
 10
-39.275702
 20
-42.69019
 11
-39.275702
 21
-41.832805
  0
LINE
  8
ボルト／ビス
  6
CONTINUOUS
 62
    64
 10
-39.08325
 20
-40.634485
 11
-39.204332
 21
-40.634485
  0
LINE
  8
ボルト／ビス
  6
CONTINUOUS
 62
    64
 10
-38.75821
 20
-41.482805
 11
-38.75821
 21
-41.832805
  0
LINE
  8
ボルト／ビス
  6
CONTINUOUS
 62
    64
 10
-39.08325
 20
-41.282802
 11
-39.08325
 21
-40.634485
  0
LINE
  8
ボルト／ビス
  6
CONTINUOUS
 62
    64
 10
-38.75821
 20
-41.482805
 11
-38.88325
 21
-41.482805
  0
ARC
  8
ボルト／ビス
  6
CONTINUOUS
 62
    64
 10
-38.883252
 20
-41.282804
 40
0.2
 50
180.0
 51
270.0
  0
LINE
  8
ボルト／ビス
  6
CONTINUOUS
 62
    64
 10
-39.08325
 20
-43.031125
 11
-39.204332
 21
-43.031125
  0
LINE
  8
ボルト／ビス
  6
CONTINUOUS
 62
    64
 10
-38.75821
 20
-42.182802
 11
-38.75821
 21
-41.832805
  0
LINE
  8
ボルト／ビス
  6
CONTINUOUS
 62
    64
 10
-39.08325
 20
-42.382805
 11
-39.08325
 21
-43.031125
  0
LINE
  8
ボルト／ビス
  6
CONTINUOUS
 62
    64
 10
-38.75821
 20
-42.182802
 11
-38.88325
 21
-42.182802
  0
ARC
  8
ボルト／ビス
  6
CONTINUOUS
 62
    64
 10
-38.883252
 20
-42.382804
 40
0.2
 50
90.0
 51
180.0
  0
LINE
  8
ボルト／ビス
  6
CONTINUOUS
 62
    64
 10
-37.975702
 20
-40.082802
 11
-37.975702
 21
-43.582805
  0
LINE
  8
ボルト／ビス
  6
CONTINUOUS
 62
    64
 10
-40.261398
 20
-41.832805
 11
-32.850457
 21
-41.832805
  0
LINE
  8
ボルト／ビス
  6
CONTINUOUS
 62
    64
 10
-35.225702
 20
-40.832802
 11
-34.975702
 21
-41.082805
  0
LINE
  8
ボルト／ビス
  6
CONTINUOUS
 62
    64
 10
-35.225702
 20
-42.832805
 11
-34.975702
 21
-42.582805
  0
LINE
  8
ボルト／ビス
  6
CONTINUOUS
 62
    64
 10
-35.225702
 20
-40.832802
 11
-35.225702
 21
-42.832805
  0
LINE
  8
ボルト／ビス
  6
CONTINUOUS
 62
    64
 10
-34.975702
 20
-41.082805
 11
-34.975702
 21
-42.582805
  0
LINE
  8
ボルト／ビス
  6
CONTINUOUS
 62
    64
 10
-37.975702
 20
-41.082805
 11
-34.975702
 21
-41.082805
  0
LINE
  8
ボルト／ビス
  6
CONTINUOUS
 62
    64
 10
-37.975702
 20
-42.582805
 11
-34.975702
 21
-42.582805
  0
LINE
  8
ボルト／ビス
  6
CONTINUOUS
 62
    64
 10
-37.975702
 20
-42.832805
 11
-35.225702
 21
-42.832805
  0
LINE
  8
ボルト／ビス
  6
CONTINUOUS
 62
    64
 10
-37.975702
 20
-40.832802
 11
-35.225702
 21
-40.832802
  0
ENDBLK
  0
BLOCK
  2
*GRP_0007
 70
    65
 10
0.0
 20
0.0
  0
LINE
  8
ボルト／ビス
  6
CONTINUOUS
 62
    64
 10
-34.625715
 20
-59.208078
 11
-34.398063
 21
-59.83354
  0
ARC
  8
ボルト／ビス
  6
CONTINUOUS
 62
    64
 10
-32.578629
 20
-58.895345
 40
2.047085
 50
152.722034
 51
180.0
  0
LINE
  8
ボルト／ビス
  6
CONTINUOUS
 62
    64
 10
-34.625715
 20
-52.953448
 11
-34.398063
 21
-52.327985
  0
ARC
  8
ボルト／ビス
  6
CONTINUOUS
 62
    64
 10
-32.578629
 20
-53.266178
 40
2.047085
 50
180.0
 51
207.277966
  0
ARC
  8
ボルト／ビス
  6
CONTINUOUS
 62
    64
 10
-26.778848
 20
-56.080762
 40
7.846866
 50
166.165046
 51
193.834954
  0
LINE
  8
ボルト／ビス
  6
CONTINUOUS
 62
    64
 10
-32.050713
 20
-59.83354
 11
-34.398063
 21
-59.83354
  0
LINE
  8
ボルト／ビス
  6
CONTINUOUS
 62
    64
 10
-32.050713
 20
-52.327985
 11
-34.398063
 21
-52.327985
  0
LINE
  8
ボルト／ビス
  6
CONTINUOUS
 62
    64
 10
-34.625715
 20
-52.953448
 11
-34.625715
 21
-59.208078
  0
LINE
  8
ボルト／ビス
  6
CONTINUOUS
 62
    64
 10
-34.398063
 20
-54.204373
 11
-32.050713
 21
-54.204373
  0
LINE
  8
ボルト／ビス
  6
CONTINUOUS
 62
    64
 10
-34.398063
 20
-57.957153
 11
-32.050713
 21
-57.957153
  0
LINE
  8
ボルト／ビス
  6
CONTINUOUS
 62
    64
 10
-32.050713
 20
-52.327985
 11
-32.050713
 21
-59.83354
  0
LINE
  8
ボルト／ビス
  6
CONTINUOUS
 62
    64
 10
-31.150713
 20
-60.455763
 11
-30.650715
 21
-60.455763
  0
LINE
  8
ボルト／ビス
  6
CONTINUOUS
 62
    64
 10
-31.150713
 20
-51.705763
 11
-30.650715
 21
-51.705763
  0
LINE
  8
ボルト／ビス
  6
CONTINUOUS
 62
    64
 10
-31.150713
 20
-60.455763
 11
-31.150713
 21
-51.705763
  0
LINE
  8
ボルト／ビス
  6
CONTINUOUS
 62
    64
 10
-30.650715
 20
-60.455763
 11
-30.650715
 21
-51.705763
  0
LINE
  8
ボルト／ビス
  6
CONTINUOUS
 62
    64
 10
-32.050713
 20
-56.08076
 11
-31.150713
 21
-56.08076
  0
LINE
  8
ボルト／ビス
  6
CONTINUOUS
 62
    64
 10
-32.050713
 20
-52.130763
 11
-31.150713
 21
-52.130763
  0
LINE
  8
ボルト／ビス
  6
CONTINUOUS
 62
    64
 10
-32.050713
 20
-60.030763
 11
-31.150713
 21
-60.030763
  0
LINE
  8
ボルト／ビス
  6
CONTINUOUS
 62
    64
 10
-32.050713
 20
-52.130763
 11
-32.050713
 21
-60.030763
  0
LINE
  8
ボルト／ビス
  6
CONTINUOUS
 62
    64
 10
-37.125713
 20
-56.08076
 11
-17.050713
 21
-56.08076
  0
LINE
  8
ボルト／ビス
  6
CONTINUOUS
 62
    64
 10
-19.550715
 20
-54.480763
 11
-19.550715
 21
-57.680763
  0
LINE
  8
ボルト／ビス
  6
CONTINUOUS
 62
    64
 10
-20.150715
 20
-54.080763
 11
-19.550715
 21
-54.480763
  0
LINE
  8
ボルト／ビス
  6
CONTINUOUS
 62
    64
 10
-20.150715
 20
-58.080763
 11
-19.550715
 21
-57.680763
  0
LINE
  8
ボルト／ビス
  6
CONTINUOUS
 62
    64
 10
-19.550715
 20
-54.480763
 11
-19.550715
 21
-57.680763
  0
LINE
  8
ボルト／ビス
  6
CONTINUOUS
 62
    64
 10
-20.150715
 20
-54.080763
 11
-20.150715
 21
-58.080763
  0
LINE
  8
ボルト／ビス
  6
CONTINUOUS
 62
    64
 10
-30.650715
 20
-54.080763
 11
-20.150715
 21
-54.080763
  0
LINE
  8
ボルト／ビス
  6
CONTINUOUS
 62
    64
 10
-30.650715
 20
-58.080763
 11
-20.150715
 21
-58.080763
  0
LINE
  8
ボルト／ビス
  6
CONTINUOUS
 62
    64
 10
-30.650715
 20
-54.480763
 11
-19.550715
 21
-54.480763
  0
LINE
  8
ボルト／ビス
  6
CONTINUOUS
 62
    64
 10
-30.650715
 20
-57.680763
 11
-19.550715
 21
-57.680763
  0
ENDBLK
  0
BLOCK
  2
*GRP_0008
 70
    65
 10
0.0
 20
0.0
  0
LINE
  8
ボルト／ビス
  6
CONTINUOUS
 62
    64
 10
-23.475713
 20
-59.208072
 11
-23.70336
 21
-59.833535
  0
ARC
  8
ボルト／ビス
  6
CONTINUOUS
 62
    64
 10
-25.522795
 20
-58.895344
 40
2.047085
 50
0.0
 51
27.277966
  0
LINE
  8
ボルト／ビス
  6
CONTINUOUS
 62
    64
 10
-23.475713
 20
-52.953445
 11
-23.70336
 21
-52.327982
  0
ARC
  8
ボルト／ビス
  6
CONTINUOUS
 62
    64
 10
-25.522795
 20
-53.266176
 40
2.047085
 50
332.722034
 51
360.0
  0
ARC
  8
ボルト／ビス
  6
CONTINUOUS
 62
    64
 10
-31.322576
 20
-56.08076
 40
7.846866
 50
346.165046
 51
373.834954
  0
LINE
  8
ボルト／ビス
  6
CONTINUOUS
 62
    64
 10
-26.050713
 20
-59.833535
 11
-23.70336
 21
-59.833535
  0
LINE
  8
ボルト／ビス
  6
CONTINUOUS
 62
    64
 10
-26.050713
 20
-52.327982
 11
-23.70336
 21
-52.327982
  0
LINE
  8
ボルト／ビス
  6
CONTINUOUS
 62
    64
 10
-23.475713
 20
-52.953445
 11
-23.475713
 21
-59.208072
  0
LINE
  8
ボルト／ビス
  6
CONTINUOUS
 62
    64
 10
-23.70336
 20
-54.20437
 11
-26.050713
 21
-54.20437
  0
LINE
  8
ボルト／ビス
  6
CONTINUOUS
 62
    64
 10
-23.70336
 20
-57.957147
 11
-26.050713
 21
-57.957147
  0
LINE
  8
ボルト／ビス
  6
CONTINUOUS
 62
    64
 10
-26.050713
 20
-52.327982
 11
-26.050713
 21
-59.833535
  0
LINE
  8
ボルト／ビス
  6
CONTINUOUS
 62
    64
 10
-26.950713
 20
-60.455757
 11
-27.450713
 21
-60.455757
  0
LINE
  8
ボルト／ビス
  6
CONTINUOUS
 62
    64
 10
-26.950713
 20
-51.70576
 11
-27.450713
 21
-51.70576
  0
LINE
  8
ボルト／ビス
  6
CONTINUOUS
 62
    64
 10
-26.950713
 20
-60.455757
 11
-26.950713
 21
-51.70576
  0
LINE
  8
ボルト／ビス
  6
CONTINUOUS
 62
    64
 10
-27.450713
 20
-60.455757
 11
-27.450713
 21
-51.70576
  0
LINE
  8
ボルト／ビス
  6
CONTINUOUS
 62
    64
 10
-26.050713
 20
-56.080757
 11
-26.950713
 21
-56.080757
  0
LINE
  8
ボルト／ビス
  6
CONTINUOUS
 62
    64
 10
-26.050713
 20
-52.130757
 11
-26.950713
 21
-52.130757
  0
LINE
  8
ボルト／ビス
  6
CONTINUOUS
 62
    64
 10
-26.050713
 20
-60.03076
 11
-26.950713
 21
-60.03076
  0
LINE
  8
ボルト／ビス
  6
CONTINUOUS
 62
    64
 10
-26.050713
 20
-52.130757
 11
-26.050713
 21
-60.03076
  0
ENDBLK
  0
BLOCK
  2
*GRP_0009
 70
    65
 10
0.0
 20
0.0
  0
LINE
  8
ボルト／ビス
  6
CONTINUOUS
 62
    64
 10
-30.292267
 20
-40.530768
 11
-30.338118
 21
-41.054847
  0
ARC
  8
ボルト／ビス
  6
CONTINUOUS
 62
    64
 10
-31.184882
 20
-40.980765
 40
0.85
 50
270.0
 51
355.000011
  0
LINE
  8
ボルト／ビス
  6
CONTINUOUS
 62
    64
 10
-31.184883
 20
-41.830765
 11
-32.042267
 21
-41.830765
  0
LINE
  8
ボルト／ビス
  6
CONTINUOUS
 62
    64
 10
-33.79227
 20
-40.530768
 11
-33.746418
 21
-41.054847
  0
ARC
  8
ボルト／ビス
  6
CONTINUOUS
 62
    64
 10
-32.899649
 20
-40.980765
 40
0.85
 50
184.999989
 51
270.0
  0
LINE
  8
ボルト／ビス
  6
CONTINUOUS
 62
    64
 10
-32.899652
 20
-41.830765
 11
-32.042267
 21
-41.830765
  0
LINE
  8
ボルト／ビス
  6
CONTINUOUS
 62
    64
 10
-30.843948
 20
-41.638315
 11
-30.843948
 21
-41.759395
  0
LINE
  8
ボルト／ビス
  6
CONTINUOUS
 62
    64
 10
-31.69227
 20
-41.313273
 11
-32.042267
 21
-41.313273
  0
LINE
  8
ボルト／ビス
  6
CONTINUOUS
 62
    64
 10
-31.492267
 20
-41.638315
 11
-30.843948
 21
-41.638315
  0
LINE
  8
ボルト／ビス
  6
CONTINUOUS
 62
    64
 10
-31.69227
 20
-41.313273
 11
-31.69227
 21
-41.438313
  0
ARC
  8
ボルト／ビス
  6
CONTINUOUS
 62
    64
 10
-31.492266
 20
-41.438312
 40
0.2
 50
180.0
 51
270.0
  0
LINE
  8
ボルト／ビス
  6
CONTINUOUS
 62
    64
 10
-33.240588
 20
-41.638315
 11
-33.240588
 21
-41.759395
  0
LINE
  8
ボルト／ビス
  6
CONTINUOUS
 62
    64
 10
-32.392267
 20
-41.313273
 11
-32.042267
 21
-41.313273
  0
LINE
  8
ボルト／ビス
  6
CONTINUOUS
 62
    64
 10
-32.59227
 20
-41.638315
 11
-33.240588
 21
-41.638315
  0
LINE
  8
ボルト／ビス
  6
CONTINUOUS
 62
    64
 10
-32.392267
 20
-41.313273
 11
-32.392267
 21
-41.438313
  0
ARC
  8
ボルト／ビス
  6
CONTINUOUS
 62
    64
 10
-32.592266
 20
-41.438312
 40
0.2
 50
270.0
 51
360.0
  0
LINE
  8
ボルト／ビス
  6
CONTINUOUS
 62
    64
 10
-30.292267
 20
-40.530768
 11
-33.79227
 21
-40.530768
  0
LINE
  8
ボルト／ビス
  6
CONTINUOUS
 62
    64
 10
-31.042267
 20
-35.780765
 11
-31.292267
 21
-35.530765
  0
LINE
  8
ボルト／ビス
  6
CONTINUOUS
 62
    64
 10
-33.04227
 20
-35.780765
 11
-32.792267
 21
-35.530765
  0
LINE
  8
ボルト／ビス
  6
CONTINUOUS
 62
    64
 10
-31.042267
 20
-35.780765
 11
-33.04227
 21
-35.780765
  0
LINE
  8
ボルト／ビス
  6
CONTINUOUS
 62
    64
 10
-31.292267
 20
-35.530765
 11
-32.792267
 21
-35.530765
  0
LINE
  8
ボルト／ビス
  6
CONTINUOUS
 62
    64
 10
-32.042267
 20
-42.81646
 11
-32.042267
 21
-34.743328
  0
LINE
  8
ボルト／ビス
  6
CONTINUOUS
 62
    64
 10
-31.042267
 20
-40.530768
 11
-31.042267
 21
-35.780765
  0
LINE
  8
ボルト／ビス
  6
CONTINUOUS
 62
    64
 10
-33.04227
 20
-40.530768
 11
-33.04227
 21
-35.780765
  0
LINE
  8
ボルト／ビス
  6
CONTINUOUS
 62
    64
 10
-32.792267
 20
-40.530768
 11
-32.792267
 21
-35.530765
  0
LINE
  8
ボルト／ビス
  6
CONTINUOUS
 62
    64
 10
-31.292267
 20
-40.530768
 11
-31.292267
 21
-35.530765
  0
ENDBLK
  0
BLOCK
  2
*GRP_0010
 70
    65
 10
0.0
 20
0.0
  0
LINE
  8
ボルト／ビス
  6
CONTINUOUS
 62
    64
 10
-3.800702
 20
-39.930768
 11
-3.846555
 21
-40.454847
  0
ARC
  8
ボルト／ビス
  6
CONTINUOUS
 62
    64
 10
-4.693319
 20
-40.380765
 40
0.85
 50
270.0
 51
355.000011
  0
LINE
  8
ボルト／ビス
  6
CONTINUOUS
 62
    64
 10
-4.69332
 20
-41.230765
 11
-5.550705
 21
-41.230765
  0
LINE
  8
ボルト／ビス
  6
CONTINUOUS
 62
    64
 10
-7.300705
 20
-39.930768
 11
-7.254855
 21
-40.454847
  0
ARC
  8
ボルト／ビス
  6
CONTINUOUS
 62
    64
 10
-6.408085
 20
-40.380765
 40
0.85
 50
184.999989
 51
270.0
  0
LINE
  8
ボルト／ビス
  6
CONTINUOUS
 62
    64
 10
-6.40809
 20
-41.230765
 11
-5.550705
 21
-41.230765
  0
LINE
  8
ボルト／ビス
  6
CONTINUOUS
 62
    64
 10
-4.352385
 20
-41.038315
 11
-4.352385
 21
-41.159395
  0
LINE
  8
ボルト／ビス
  6
CONTINUOUS
 62
    64
 10
-5.200705
 20
-40.713273
 11
-5.550705
 21
-40.713273
  0
LINE
  8
ボルト／ビス
  6
CONTINUOUS
 62
    64
 10
-5.000702
 20
-41.038315
 11
-4.352385
 21
-41.038315
  0
LINE
  8
ボルト／ビス
  6
CONTINUOUS
 62
    64
 10
-5.200705
 20
-40.713273
 11
-5.200705
 21
-40.838313
  0
ARC
  8
ボルト／ビス
  6
CONTINUOUS
 62
    64
 10
-5.000702
 20
-40.838312
 40
0.2
 50
180.0
 51
270.0
  0
LINE
  8
ボルト／ビス
  6
CONTINUOUS
 62
    64
 10
-6.749025
 20
-41.038315
 11
-6.749025
 21
-41.159395
  0
LINE
  8
ボルト／ビス
  6
CONTINUOUS
 62
    64
 10
-5.900702
 20
-40.713273
 11
-5.550705
 21
-40.713273
  0
LINE
  8
ボルト／ビス
  6
CONTINUOUS
 62
    64
 10
-6.100705
 20
-41.038315
 11
-6.749025
 21
-41.038315
  0
LINE
  8
ボルト／ビス
  6
CONTINUOUS
 62
    64
 10
-5.900702
 20
-40.713273
 11
-5.900702
 21
-40.838313
  0
ARC
  8
ボルト／ビス
  6
CONTINUOUS
 62
    64
 10
-6.100702
 20
-40.838312
 40
0.2
 50
270.0
 51
360.0
  0
LINE
  8
ボルト／ビス
  6
CONTINUOUS
 62
    64
 10
-3.800702
 20
-39.930768
 11
-7.300705
 21
-39.930768
  0
LINE
  8
ボルト／ビス
  6
CONTINUOUS
 62
    64
 10
-4.550702
 20
-35.180765
 11
-4.800705
 21
-34.930765
  0
LINE
  8
ボルト／ビス
  6
CONTINUOUS
 62
    64
 10
-6.550705
 20
-35.180765
 11
-6.300705
 21
-34.930765
  0
LINE
  8
ボルト／ビス
  6
CONTINUOUS
 62
    64
 10
-4.550702
 20
-35.180765
 11
-6.550705
 21
-35.180765
  0
LINE
  8
ボルト／ビス
  6
CONTINUOUS
 62
    64
 10
-4.800705
 20
-34.930765
 11
-6.300705
 21
-34.930765
  0
LINE
  8
ボルト／ビス
  6
CONTINUOUS
 62
    64
 10
-5.550705
 20
-42.21646
 11
-5.550705
 21
-34.143328
  0
LINE
  8
ボルト／ビス
  6
CONTINUOUS
 62
    64
 10
-4.550702
 20
-39.930768
 11
-4.550702
 21
-35.180765
  0
LINE
  8
ボルト／ビス
  6
CONTINUOUS
 62
    64
 10
-6.550705
 20
-39.930768
 11
-6.550705
 21
-35.180765
  0
LINE
  8
ボルト／ビス
  6
CONTINUOUS
 62
    64
 10
-6.300705
 20
-39.930768
 11
-6.300705
 21
-34.930765
  0
LINE
  8
ボルト／ビス
  6
CONTINUOUS
 62
    64
 10
-4.800705
 20
-39.930768
 11
-4.800705
 21
-34.930765
  0
ENDBLK
  0
BLOCK
  2
*GRP_0011
 70
    65
 10
0.0
 20
0.0
  0
LINE
  8
St
  6
CONTINUOUS
 10
-27.450713
 20
-44.977285
 11
-29.050713
 21
-46.57729
  0
LINE
  8
St
  6
CONTINUOUS
 10
-27.450713
 20
-44.623728
 11
-29.050713
 21
-46.223733
  0
ARC
  8
St
  6
CONTINUOUS
 62
   127
 10
-27.450719
 20
-39.930771
 40
1.6
 50
90.0
 51
180.0
  0
LINE
  8
St
  6
CONTINUOUS
 10
-8.83347
 20
-38.330765
 11
-10.433468
 21
-39.930768
  0
LINE
  8
St
  6
CONTINUOUS
 10
-9.187022
 20
-38.330765
 11
-10.78702
 21
-39.930768
  0
LINE
  8
St
  6
CONTINUOUS
 10
-23.154205
 20
-38.330765
 11
-24.754202
 21
-39.930768
  0
LINE
  8
St
  6
CONTINUOUS
 10
-23.50776
 20
-38.330765
 11
-25.107758
 21
-39.930768
  0
LINE
  8
St
  6
CONTINUOUS
 10
-4.2007
 20
-38.330765
 11
-4.2007
 21
-39.930768
  0
LINE
  8
St
  6
CONTINUOUS
 62
   127
 10
-4.2007
 20
-38.330765
 11
-36.325702
 21
-38.330765
  0
LINE
  8
St
  6
CONTINUOUS
 10
-36.325702
 20
-38.330765
 11
-36.325702
 21
-39.930768
  0
LINE
  8
St
  6
CONTINUOUS
 62
   127
 10
-4.2007
 20
-39.930768
 11
-36.325702
 21
-39.930768
  0
LINE
  8
St
  6
CONTINUOUS
 10
-31.150702
 20
-38.330765
 11
-31.150702
 21
-39.930768
  0
LINE
  8
St
  6
CONTINUOUS
 10
-32.9007
 20
-38.330765
 11
-32.9007
 21
-39.930768
  0
LINE
  8
St
  6
CONTINUOUS
 10
-6.425702
 20
-38.330765
 11
-6.425702
 21
-39.930768
  0
LINE
  8
St
  6
CONTINUOUS
 10
-4.675705
 20
-38.330765
 11
-4.675705
 21
-39.930768
  0
LINE
  8
St
  6
CONTINUOUS
 10
-32.0257
 20
-40.844312
 11
-32.0257
 21
-37.515783
  0
LINE
  8
St
  6
CONTINUOUS
 10
-5.550705
 20
-40.844312
 11
-5.550705
 21
-37.515783
  0
LINE
  8
St
  6
CONTINUOUS
 10
-4.675705
 20
-38.730767
 11
-6.425702
 21
-38.730767
  0
LINE
  8
St
  6
CONTINUOUS
 10
-4.675705
 20
-39.130765
 11
-6.425702
 21
-39.130765
  0
LINE
  8
St
  6
CONTINUOUS
 10
-4.675705
 20
-39.530765
 11
-6.425702
 21
-39.530765
  0
LINE
  8
St
  6
CONTINUOUS
 10
-31.150702
 20
-38.730767
 11
-32.9007
 21
-38.730767
  0
LINE
  8
St
  6
CONTINUOUS
 10
-31.150702
 20
-39.130765
 11
-32.9007
 21
-39.130765
  0
LINE
  8
St
  6
CONTINUOUS
 10
-31.150702
 20
-39.530765
 11
-32.9007
 21
-39.530765
  0
LINE
  8
St
  6
CONTINUOUS
 10
-27.450713
 20
-58.580757
 11
-29.050713
 21
-58.580757
  0
LINE
  8
St
  6
CONTINUOUS
 10
-27.450713
 20
-53.580755
 11
-29.050713
 21
-53.580755
  0
LINE
  8
St
  6
CONTINUOUS
 62
   127
 10
-27.850713
 20
-53.580755
 11
-27.850713
 21
-58.580757
  0
LINE
  8
St
  6
CONTINUOUS
 62
   127
 10
-28.25071
 20
-53.580755
 11
-28.25071
 21
-58.580757
  0
LINE
  8
St
  6
CONTINUOUS
 62
   127
 10
-28.650713
 20
-53.580755
 11
-28.650713
 21
-58.580757
  0
LINE
  8
St
  6
CONTINUOUS
 10
-25.88659
 20
-56.080757
 11
-30.760508
 21
-56.080757
  0
LINE
  8
St
  6
CONTINUOUS
 10
-27.450713
 20
-63.730765
 11
-29.050713
 21
-63.730765
  0
LINE
  8
St
  6
CONTINUOUS
 62
   127
 10
-29.050713
 20
-39.930768
 11
-29.050713
 21
-63.730765
  0
LINE
  8
St
  6
CONTINUOUS
 62
   127
 10
-27.450713
 20
-39.930768
 11
-27.450713
 21
-63.730765
  0
ENDBLK
  0
BLOCK
  2
*DIM_0012
 70
    65
 10
0.0
 20
0.0
  0
LINE
  8
寸法
  6
BYBLOCK
 62
     0
 10
-45.575702
 20
-45.830765
 11
-164.550443
 21
-45.830765
  0
LINE
  8
寸法
  6
BYBLOCK
 62
     0
 10
-164.550443
 20
-38.330765
 11
-164.550443
 21
-45.830765
  0
POINT
  8
寸法
 62
     0
 10
-164.550443
 20
-45.830765
  0
TEXT
  7
TextStyle03
  8
寸法
  6
CONTINUOUS
 62
     0
 10
-164.925
 20
-43.69375
  1
15
 40
3.0
 50
90.0
 72
     5
 11
-164.925
 21
-40.50625
  0
ENDBLK
  0
BLOCK
  2
*DIM_0013
 70
    65
 10
0.0
 20
0.0
  0
LINE
  8
寸法
  6
BYBLOCK
 62
     0
 10
-103.0757
 20
-53.653895
 11
-164.550443
 21
-53.653895
  0
LINE
  8
寸法
  6
BYBLOCK
 62
     0
 10
-164.550443
 20
-45.830765
 11
-164.550443
 21
-53.653895
  0
POINT
  8
寸法
 62
     0
 10
-164.550443
 20
-53.653895
  0
TEXT
  7
TextStyle03
  8
寸法
  6
CONTINUOUS
 62
     0
 10
-164.925
 20
-53.03125
  1
15.7
 40
3.0
 50
90.0
 72
     5
 11
-164.925
 21
-46.46875
  0
ENDBLK
  0
BLOCK
  2
*DIM_0014
 70
    65
 10
0.0
 20
0.0
  0
LINE
  8
寸法
  6
BYBLOCK
 62
     0
 10
-103.07576
 20
-83.653895
 11
-164.550443
 21
-83.653895
  0
LINE
  8
寸法
  6
BYBLOCK
 62
     0
 10
-164.550443
 20
-53.653895
 11
-164.550443
 21
-83.653895
  0
POINT
  8
寸法
 62
     0
 10
-164.550443
 20
-83.653895
  0
TEXT
  7
TextStyle03
  8
寸法
  6
CONTINUOUS
 62
     0
 10
-164.925
 20
-70.26875
  1
60
 40
3.0
 50
90.0
 72
     5
 11
-164.925
 21
-67.08125
  0
ENDBLK
  0
BLOCK
  2
*DIM_0015
 70
    65
 10
0.0
 20
0.0
  0
LINE
  8
寸法
  6
BYBLOCK
 62
     0
 10
-45.075702
 20
11.419238
 11
-156.012565
 21
11.419238
  0
LINE
  8
寸法
  6
BYBLOCK
 62
     0
 10
-156.012565
 20
13.919982
 11
-156.012565
 21
11.419238
  0
POINT
  8
寸法
 62
     0
 10
-156.012565
 20
11.419238
  0
TEXT
  7
TextStyle03
  8
寸法
  6
CONTINUOUS
 62
     0
 10
-156.375
 20
11.9
  1
5
 40
3.0
 50
90.0
 72
     5
 11
-156.375
 21
13.4
  0
ENDBLK
  0
BLOCK
  2
*DIM_0016
 70
    65
 10
0.0
 20
0.0
  0
LINE
  8
寸法
  6
BYBLOCK
 62
     0
 10
-46.575702
 20
-38.330765
 11
-156.012565
 21
-38.330765
  0
LINE
  8
寸法
  6
BYBLOCK
 62
     0
 10
-156.012565
 20
11.419238
 11
-156.012565
 21
-38.330765
  0
POINT
  8
寸法
 62
     0
 10
-156.012565
 20
-38.330765
  0
TEXT
  7
TextStyle03
  8
寸法
  6
CONTINUOUS
 62
     0
 10
-156.375
 20
-16.75625
  1
99.5
 40
3.0
 50
90.0
 72
     5
 11
-156.375
 21
-10.19375
  0
ENDBLK
  0
BLOCK
  2
*DIM_0017
 70
    65
 10
0.0
 20
0.0
  0
LINE
  8
寸法
  6
BYBLOCK
 62
     0
 10
-15.075705
 20
-68.330765
 11
60.614732
 21
-68.330765
  0
LINE
  8
寸法
  6
BYBLOCK
 62
     0
 10
-2.325702
 20
-38.330765
 11
60.614732
 21
-38.330765
  0
LINE
  8
寸法
  6
BYBLOCK
 62
     0
 10
60.614732
 20
-68.330765
 11
60.614732
 21
-38.330765
  0
POINT
  8
寸法
 62
     0
 10
60.614732
 20
-68.330765
  0
POINT
  8
寸法
 62
     0
 10
60.614732
 20
-38.330765
  0
TEXT
  7
TextStyle03
  8
寸法
  6
CONTINUOUS
 62
     0
 10
60.225
 20
-54.94375
  1
60
 40
3.0
 50
90.0
 72
     5
 11
60.225
 21
-51.75625
  0
ENDBLK
  0
BLOCK
  2
*DIM_0018
 70
    65
 10
0.0
 20
0.0
  0
LINE
  8
寸法
  6
BYBLOCK
 62
     0
 10
14.924295
 20
-34.480765
 11
60.614732
 21
-34.480765
  0
LINE
  8
寸法
  6
BYBLOCK
 62
     0
 10
60.614732
 20
-38.330765
 11
60.614732
 21
-34.480765
  0
POINT
  8
寸法
 62
     0
 10
60.614732
 20
-34.480765
  0
TEXT
  7
TextStyle03
  8
寸法
  6
CONTINUOUS
 62
     0
 10
63.6
 20
-38.8625
  1
7.7
 40
3.0
 50
90.0
 72
     5
 11
63.6
 21
-33.9875
  0
ENDBLK
  0
BLOCK
  2
*DIM_0019
 70
    65
 10
0.0
 20
0.0
  0
LINE
  8
寸法
  6
BYBLOCK
 62
     0
 10
14.924295
 20
-26.080765
 11
60.614732
 21
-26.080765
  0
LINE
  8
寸法
  6
BYBLOCK
 62
     0
 10
60.614732
 20
-34.480765
 11
60.614732
 21
-26.080765
  0
POINT
  8
寸法
 62
     0
 10
60.614732
 20
-26.080765
  0
TEXT
  7
TextStyle03
  8
寸法
  6
CONTINUOUS
 62
     0
 10
60.225
 20
-33.58125
  1
16.8
 40
3.0
 50
90.0
 72
     5
 11
60.225
 21
-27.01875
  0
ENDBLK
  0
BLOCK
  2
*DIM_0020
 70
    65
 10
0.0
 20
0.0
  0
LINE
  8
寸法
  6
BYBLOCK
 62
     0
 10
7.376492
 20
-9.080763
 11
60.614732
 21
-9.080763
  0
LINE
  8
寸法
  6
BYBLOCK
 62
     0
 10
60.614732
 20
-26.080765
 11
60.614732
 21
-9.080763
  0
POINT
  8
寸法
 62
     0
 10
60.614732
 20
-9.080763
  0
TEXT
  7
TextStyle03
  8
寸法
  6
CONTINUOUS
 62
     0
 10
60.225
 20
-19.19375
  1
34
 40
3.0
 50
90.0
 72
     5
 11
60.225
 21
-16.00625
  0
ENDBLK
  0
BLOCK
  2
*DIM_0021
 70
    65
 10
0.0
 20
0.0
  0
LINE
  8
寸法
  6
BYBLOCK
 62
     0
 10
7.376492
 20
30.419988
 11
60.614732
 21
30.419988
  0
LINE
  8
寸法
  6
BYBLOCK
 62
     0
 10
60.614732
 20
-9.080763
 11
60.614732
 21
30.419988
  0
POINT
  8
寸法
 62
     0
 10
60.614732
 20
30.419988
  0
TEXT
  7
TextStyle03
  8
寸法
  6
CONTINUOUS
 62
     0
 10
60.225
 20
9.05625
  1
79
 40
3.0
 50
90.0
 72
     5
 11
60.225
 21
12.24375
  0
ENDBLK
  0
BLOCK
  2
*GRP_0022
 70
    65
 10
0.0
 20
0.0
  0
POLYLINE
  8
寸法
  6
BYBLOCK
 62
     0
 66
     1
  0
VERTEX
  8
寸法
 10
-44.575702
 20
36.51389
  0
VERTEX
  8
寸法
 10
-47.136335
 20
33.953255
  0
VERTEX
  8
寸法
 10
-49.444445
 20
33.953255
  0
SEQEND
  0
ENDBLK
  0
BLOCK
  2
*GRP_0023
 70
    65
 10
0.0
 20
0.0
  0
POLYLINE
  8
寸法
  6
BYBLOCK
 62
     0
 66
     1
  0
VERTEX
  8
寸法
 10
-27.0
 20
16.875
  0
VERTEX
  8
寸法
 10
-21.339142
 20
11.214142
  0
VERTEX
  8
寸法
 10
-16.795455
 20
11.214142
  0
SEQEND
  0
ENDBLK
  0
BLOCK
  2
*GRP_0024
 70
    65
 10
0.0
 20
0.0
  0
POLYLINE
  8
寸法
  6
BYBLOCK
 62
     0
 66
     1
  0
VERTEX
  8
寸法
 10
-15.290153
 20
18.29498
  0
VERTEX
  8
寸法
 10
-12.370187
 20
15.375015
  0
VERTEX
  8
寸法
 10
-0.73712
 20
15.375015
  0
SEQEND
  0
ENDBLK
  0
BLOCK
  2
*GRP_0025
 70
    65
 10
0.0
 20
0.0
  0
POLYLINE
  8
寸法
  6
BYBLOCK
 62
     0
 66
     1
  0
VERTEX
  8
寸法
 10
-44.575702
 20
1.007942
  0
VERTEX
  8
寸法
 10
-48.929825
 20
-3.34618
  0
VERTEX
  8
寸法
 10
-51.1
 20
-3.34618
  0
SEQEND
  0
ENDBLK
  0
BLOCK
  2
*GRP_0026
 70
    65
 10
0.0
 20
0.0
  0
POLYLINE
  8
寸法
  6
BYBLOCK
 62
     0
 66
     1
  0
VERTEX
  8
寸法
 10
-18.667118
 20
-39.930768
  0
VERTEX
  8
寸法
 10
-9.535693
 20
-49.062193
  0
VERTEX
  8
寸法
 10
16.377325
 20
-49.062193
  0
SEQEND
  0
ENDBLK
  0
BLOCK
  2
*GRP_0027
 70
    65
 10
0.0
 20
0.0
  0
POLYLINE
  8
寸法
  6
BYBLOCK
 62
     0
 66
     1
  0
VERTEX
  8
寸法
 10
-102.075723
 20
-64.807997
  0
VERTEX
  8
寸法
 10
-107.283443
 20
-70.015718
  0
VERTEX
  8
寸法
 10
-115.717613
 20
-70.015718
  0
SEQEND
  0
ENDBLK
  0
BLOCK
  2
*GRP_0028
 70
    65
 10
0.0
 20
0.0
  0
POLYLINE
  8
寸法
  6
BYBLOCK
 62
     0
 66
     1
  0
VERTEX
  8
寸法
 10
-44.425702
 20
-35.580768
  0
VERTEX
  8
寸法
 10
-52.346045
 20
-27.660425
  0
VERTEX
  8
寸法
 10
-58.454348
 20
-27.660425
  0
SEQEND
  0
ENDBLK
  0
BLOCK
  2
*GRP_0029
 70
    65
 10
0.0
 20
0.0
  0
SPLINE
  5
1400000
100
AcDbEntity
  8
ガラス
100
AcDbSpline
  6
CONTINUOUS
 70
     0
 71
     3
 74
     3
 44
0.0
 11
-23.880433
 21
-30.832325
 11
-22.975503
 21
-30.735647
 11
-22.267382
 21
-31.187545
  0
SPLINE
  5
1400001
100
AcDbEntity
  8
ガラス
100
AcDbSpline
  6
CONTINUOUS
 70
     0
 71
     3
 74
     3
 44
0.0
 11
-22.267382
 21
-31.187545
 11
-22.896518
 21
-31.385063
 11
-23.394747
 21
-31.65476
  0
ARC
  8
ガラス
  6
CONTINUOUS
 10
-23.637589
 20
-31.243545
 40
0.477567
 50
120.563758
 51
300.563758
  0
ENDBLK
  0
BLOCK
  2
*GRP_0030
 70
    65
 10
0.0
 20
0.0
  0
SPLINE
  5
1400002
100
AcDbEntity
  8
ガラス
100
AcDbSpline
  6
CONTINUOUS
 70
     0
 71
     3
 74
     3
 44
0.0
 11
-15.441348
 21
-30.833342
 11
-14.536417
 21
-30.736665
 11
-13.828298
 21
-31.188562
  0
SPLINE
  5
1400003
100
AcDbEntity
  8
ガラス
100
AcDbSpline
  6
CONTINUOUS
 70
     0
 71
     3
 74
     3
 44
0.0
 11
-13.828298
 21
-31.188562
 11
-14.457432
 21
-31.38608
 11
-14.955663
 21
-31.655778
  0
ARC
  8
ガラス
  6
CONTINUOUS
 10
-15.198505
 20
-31.244563
 40
0.477567
 50
120.563758
 51
300.563758
  0
ENDBLK
  0
BLOCK
  2
*GRP_0031
 70
    65
 10
0.0
 20
0.0
  0
SPLINE
  5
1400004
100
AcDbEntity
  8
ガラス
100
AcDbSpline
  6
CONTINUOUS
 70
     0
 71
     3
 74
     3
 44
0.0
 11
-7.108572
 21
-30.888527
 11
-6.203643
 21
-30.79185
 11
-5.495522
 21
-31.243747
  0
SPLINE
  5
1400005
100
AcDbEntity
  8
ガラス
100
AcDbSpline
  6
CONTINUOUS
 70
     0
 71
     3
 74
     3
 44
0.0
 11
-5.495522
 21
-31.243747
 11
-6.124658
 21
-31.441265
 11
-6.622887
 21
-31.710963
  0
ARC
  8
ガラス
  6
CONTINUOUS
 10
-6.86573
 20
-31.299748
 40
0.477567
 50
120.563758
 51
300.563758
  0
ENDBLK
  0
BLOCK
  2
*GRP_0032
 70
    65
 10
0.0
 20
0.0
  0
SPLINE
  5
1400006
100
AcDbEntity
  8
ガラス
100
AcDbSpline
  6
CONTINUOUS
 70
     0
 71
     3
 74
     3
 44
0.0
 11
-27.526632
 21
-31.33
 11
-26.621702
 21
-31.233323
 11
-25.913583
 21
-31.68522
  0
SPLINE
  5
1400007
100
AcDbEntity
  8
ガラス
100
AcDbSpline
  6
CONTINUOUS
 70
     0
 71
     3
 74
     3
 44
0.0
 11
-25.913583
 21
-31.68522
 11
-26.542717
 21
-31.882737
 11
-27.040948
 21
-32.152435
  0
ARC
  8
ガラス
  6
CONTINUOUS
 10
-27.28379
 20
-31.741219
 40
0.477567
 50
120.563758
 51
300.563758
  0
ENDBLK
  0
BLOCK
  2
*GRP_0033
 70
    65
 10
0.0
 20
0.0
  0
SPLINE
  5
1400008
100
AcDbEntity
  8
ガラス
100
AcDbSpline
  6
CONTINUOUS
 70
     0
 71
     3
 74
     3
 44
0.0
 11
-33.872787
 21
-32.268127
 11
-32.967857
 21
-32.17145
 11
-32.259738
 21
-32.623348
  0
SPLINE
  5
1400009
100
AcDbEntity
  8
ガラス
100
AcDbSpline
  6
CONTINUOUS
 70
     0
 71
     3
 74
     3
 44
0.0
 11
-32.259738
 21
-32.623348
 11
-32.888872
 21
-32.820865
 11
-33.387103
 21
-33.090563
  0
ARC
  8
ガラス
  6
CONTINUOUS
 10
-33.629943
 20
-32.679346
 40
0.477567
 50
120.563758
 51
300.563758
  0
ENDBLK
  0
BLOCK
  2
*GRP_0034
 70
    65
 10
0.0
 20
0.0
  0
SPLINE
  5
1400010
100
AcDbEntity
  8
ガラス
100
AcDbSpline
  6
CONTINUOUS
 70
     0
 71
     3
 74
     3
 44
0.0
 11
-40.774543
 21
-36.312357
 11
-39.869613
 21
-36.21568
 11
-39.161492
 21
-36.667577
  0
SPLINE
  5
1400011
100
AcDbEntity
  8
ガラス
100
AcDbSpline
  6
CONTINUOUS
 70
     0
 71
     3
 74
     3
 44
0.0
 11
-39.161492
 21
-36.667577
 11
-39.790628
 21
-36.865095
 11
-40.288857
 21
-37.134793
  0
ARC
  8
ガラス
  6
CONTINUOUS
 10
-40.531699
 20
-36.723576
 40
0.477567
 50
120.563758
 51
300.563758
  0
ENDBLK
  0
BLOCK
  2
*GRP_0035
 70
    65
 10
0.0
 20
0.0
  0
SPLINE
  5
1400012
100
AcDbEntity
  8
ガラス
100
AcDbSpline
  6
CONTINUOUS
 70
     0
 71
     3
 74
     3
 44
0.0
 11
-46.789592
 21
-36.864197
 11
-45.884663
 21
-36.76752
 11
-45.176542
 21
-37.219417
  0
SPLINE
  5
1400013
100
AcDbEntity
  8
ガラス
100
AcDbSpline
  6
CONTINUOUS
 70
     0
 71
     3
 74
     3
 44
0.0
 11
-45.176542
 21
-37.219417
 11
-45.805678
 21
-37.416935
 11
-46.303907
 21
-37.686632
  0
ARC
  8
ガラス
  6
CONTINUOUS
 10
-46.546749
 20
-37.275416
 40
0.477567
 50
120.563758
 51
300.563758
  0
ENDBLK
  0
BLOCK
  2
*GRP_0036
 70
    65
 10
0.0
 20
0.0
  0
SPLINE
  5
1400014
100
AcDbEntity
  8
ガラス
100
AcDbSpline
  6
CONTINUOUS
 70
     0
 71
     3
 74
     3
 44
0.0
 11
-50.459477
 21
-40.8541
 11
-50.02572
 21
-40.05404
 11
-49.25186
 21
-39.72726
  0
SPLINE
  5
1400015
100
AcDbEntity
  8
ガラス
100
AcDbSpline
  6
CONTINUOUS
 70
     0
 71
     3
 74
     3
 44
0.0
 11
-49.25186
 21
-39.72726
 11
-49.446112
 21
-40.35741
 11
-49.506665
 21
-40.920708
  0
ARC
  8
ガラス
  6
CONTINUOUS
 10
-49.983068
 20
-40.887405
 40
0.477567
 50
176.001233
 51
356.001233
  0
ENDBLK
  0
BLOCK
  2
*GRP_0037
 70
    65
 10
0.0
 20
0.0
  0
POLYLINE
  8
寸法
  6
BYBLOCK
 62
     0
 66
     1
  0
VERTEX
  8
寸法
 10
-28.095423
 20
-36.175075
  0
VERTEX
  8
寸法
 10
-5.115172
 20
-59.155325
  0
VERTEX
  8
寸法
 10
16.480302
 20
-59.155325
  0
SEQEND
  0
ENDBLK
  0
BLOCK
  2
*GRP_0038
 70
    65
 10
0.0
 20
0.0
  0
SPLINE
  5
1400016
100
AcDbEntity
  8
ガラス
100
AcDbSpline
  6
CONTINUOUS
 70
     0
 71
     3
 74
     3
 44
0.0
 11
-17.868415
 21
54.441845
 11
-17.151083
 21
55.001915
 11
-16.311113
 21
54.99222
  0
SPLINE
  5
1400017
100
AcDbEntity
  8
ガラス
100
AcDbSpline
  6
CONTINUOUS
 70
     0
 71
     3
 74
     3
 44
0.0
 11
-16.311113
 21
54.99222
 11
-16.740997
 21
54.4922
 11
-17.021605
 21
54.00003
  0
ARC
  8
ガラス
  6
CONTINUOUS
 10
-17.445008
 20
54.220936
 40
0.477567
 50
152.447188
 51
332.447188
  0
ENDBLK
  0
BLOCK
  2
*GRP_0039
 70
    65
 10
0.0
 20
0.0
  0
SPLINE
  5
1400018
100
AcDbEntity
  8
ガラス
100
AcDbSpline
  6
CONTINUOUS
 70
     0
 71
     3
 74
     3
 44
0.0
 11
-21.179453
 21
52.12412
 11
-20.46212
 21
52.68419
 11
-19.62215
 21
52.674495
  0
SPLINE
  5
1400019
100
AcDbEntity
  8
ガラス
100
AcDbSpline
  6
CONTINUOUS
 70
     0
 71
     3
 74
     3
 44
0.0
 11
-19.62215
 21
52.674495
 11
-20.052035
 21
52.174475
 11
-20.332643
 21
51.682305
  0
ARC
  8
ガラス
  6
CONTINUOUS
 10
-20.756045
 20
51.90321
 40
0.477567
 50
152.447188
 51
332.447188
  0
ENDBLK
  0
BLOCK
  2
*GRP_0040
 70
    65
 10
0.0
 20
0.0
  0
SPLINE
  5
1400020
100
AcDbEntity
  8
ガラス
100
AcDbSpline
  6
CONTINUOUS
 70
     0
 71
     3
 74
     3
 44
0.0
 11
-22.945338
 21
47.65422
 11
-22.228005
 21
48.21429
 11
-21.388035
 21
48.204595
  0
SPLINE
  5
1400021
100
AcDbEntity
  8
ガラス
100
AcDbSpline
  6
CONTINUOUS
 70
     0
 71
     3
 74
     3
 44
0.0
 11
-21.388035
 21
48.204595
 11
-21.81792
 21
47.704575
 11
-22.098527
 21
47.212405
  0
ARC
  8
ガラス
  6
CONTINUOUS
 10
-22.52193
 20
47.43331
 40
0.477567
 50
152.447188
 51
332.447188
  0
ENDBLK
  0
BLOCK
  2
*GRP_0041
 70
    65
 10
0.0
 20
0.0
  0
SPLINE
  5
1400022
100
AcDbEntity
  8
ガラス
100
AcDbSpline
  6
CONTINUOUS
 70
     0
 71
     3
 74
     3
 44
0.0
 11
-26.987525
 21
47.627568
 11
-26.079692
 21
47.691473
 11
-25.388372
 21
47.214272
  0
SPLINE
  5
1400023
100
AcDbEntity
  8
ガラス
100
AcDbSpline
  6
CONTINUOUS
 70
     0
 71
     3
 74
     3
 44
0.0
 11
-25.388372
 21
47.214272
 11
-26.024235
 21
47.039625
 11
-26.53189
 21
46.788112
  0
ARC
  8
ガラス
  6
CONTINUOUS
 10
-26.759707
 20
47.207836
 40
0.477567
 50
118.492171
 51
298.492171
  0
ENDBLK
  0
BLOCK
  2
*GRP_0042
 70
    65
 10
0.0
 20
0.0
  0
SPLINE
  5
1400024
100
AcDbEntity
  8
ガラス
100
AcDbSpline
  6
CONTINUOUS
 70
     0
 71
     3
 74
     3
 44
0.0
 11
-33.757293
 21
47.774842
 11
-32.84946
 21
47.838747
 11
-32.15814
 21
47.361548
  0
SPLINE
  5
1400025
100
AcDbEntity
  8
ガラス
100
AcDbSpline
  6
CONTINUOUS
 70
     0
 71
     3
 74
     3
 44
0.0
 11
-32.15814
 21
47.361548
 11
-32.794002
 21
47.1869
 11
-33.301657
 21
46.935388
  0
ARC
  8
ガラス
  6
CONTINUOUS
 10
-33.529475
 20
47.355111
 40
0.477567
 50
118.492171
 51
298.492171
  0
ENDBLK
  0
BLOCK
  2
*GRP_0043
 70
    65
 10
0.0
 20
0.0
  0
SPLINE
  5
1400026
100
AcDbEntity
  8
ガラス
100
AcDbSpline
  6
CONTINUOUS
 70
     0
 71
     3
 74
     3
 44
0.0
 11
-40.577945
 21
47.88287
 11
-39.670112
 21
47.946775
 11
-38.978792
 21
47.469575
  0
SPLINE
  5
1400027
100
AcDbEntity
  8
ガラス
100
AcDbSpline
  6
CONTINUOUS
 70
     0
 71
     3
 74
     3
 44
0.0
 11
-38.978792
 21
47.469575
 11
-39.614655
 21
47.294928
 11
-40.12231
 21
47.043415
  0
ARC
  8
ガラス
  6
CONTINUOUS
 10
-40.350127
 20
47.463137
 40
0.477567
 50
118.492171
 51
298.492171
  0
ENDBLK
  0
BLOCK
  2
*DIM_0044
 70
    65
 10
0.0
 20
0.0
  0
LINE
  8
寸法
  6
BYBLOCK
 62
     0
 10
-44.575702
 20
47.019985
 11
-44.575702
 21
124.462565
  0
LINE
  8
寸法
  6
BYBLOCK
 62
     0
 10
-14.825708
 20
124.462565
 11
-44.575702
 21
124.462565
  0
POINT
  8
寸法
 62
     0
 10
-14.825708
 20
124.462565
  0
POINT
  8
寸法
 62
     0
 10
-44.575702
 20
124.462565
  0
TEXT
  7
TextStyle03
  8
寸法
  6
CONTINUOUS
 62
     0
 10
-33.00625
 20
124.825
  1
59.5
 40
3.0
 72
     5
 11
-26.44375
 21
124.825
  0
ENDBLK
  0
BLOCK
  2
*DIM_0045
 70
    65
 10
0.0
 20
0.0
  0
LINE
  8
寸法
  6
BYBLOCK
 62
     0
 10
-44.575702
 20
118.496965
 11
-44.575702
 21
118.155853
  0
LINE
  8
寸法
  6
BYBLOCK
 62
     0
 10
13.924295
 20
-23.830763
 11
13.924295
 21
118.155853
  0
LINE
  8
寸法
  6
BYBLOCK
 62
     0
 10
-44.575702
 20
118.155853
 11
13.924295
 21
118.155853
  0
POINT
  8
寸法
 62
     0
 10
-44.575702
 20
118.155853
  0
POINT
  8
寸法
 62
     0
 10
13.924295
 20
118.155853
  0
TEXT
  7
TextStyle03
  8
寸法
  6
CONTINUOUS
 62
     0
 10
-20.7625
 20
118.5
  1
117
 40
3.0
 72
     5
 11
-15.8875
 21
118.5
  0
ENDBLK
  0
BLOCK
  2
*DIM_0046
 70
    65
 10
0.0
 20
0.0
  0
LINE
  8
寸法
  6
BYBLOCK
 62
     0
 10
-14.825708
 20
113.156712
 11
13.924295
 21
113.156712
  0
POINT
  8
寸法
 62
     0
 10
-14.825708
 20
113.156712
  0
POINT
  8
寸法
 62
     0
 10
13.924295
 20
113.156712
  0
TEXT
  7
TextStyle03
  8
寸法
  6
CONTINUOUS
 62
     0
 10
-3.75625
 20
113.525
  1
57.5
 40
3.0
 72
     5
 11
2.80625
 21
113.525
  0
ENDBLK
  0
BLOCK
  2
*GRP_0047
 70
    65
 10
0.0
 20
0.0
  0
POLYLINE
  8
寸法
  6
BYBLOCK
 62
     0
 66
     1
  0
VERTEX
  8
寸法
 10
-3.48694
 20
54.99501
  0
VERTEX
  8
寸法
 10
3.101005
 20
48.407065
  0
VERTEX
  8
寸法
 10
17.905302
 20
48.407065
  0
SEQEND
  0
ENDBLK
  0
BLOCK
  2
*GRP_0048
 70
    65
 10
0.0
 20
0.0
  0
POLYLINE
  8
寸法
  6
BYBLOCK
 62
     0
 66
     1
  0
VERTEX
  8
寸法
 10
-30.575702
 20
64.91998
  0
VERTEX
  8
寸法
 10
-36.015817
 20
77.305237
  0
VERTEX
  8
寸法
 10
-52.106063
 20
77.305237
  0
SEQEND
  0
ENDBLK
  0
BLOCK
  2
*GRP_0049
 70
    65
 10
0.0
 20
0.0
  0
POLYLINE
  8
寸法
  6
BYBLOCK
 62
     0
 66
     1
  0
VERTEX
  8
寸法
 10
-31.325708
 20
48.819982
  0
VERTEX
  8
寸法
 10
-38.082693
 20
61.280935
  0
VERTEX
  8
寸法
 10
-56.624497
 20
61.280935
  0
SEQEND
  0
ENDBLK
  0
BLOCK
  2
*DIM_0050
 70
    65
 10
0.0
 20
0.0
  0
LINE
  8
寸法
  6
BYBLOCK
 62
     0
 10
-45.075702
 20
46.519982
 11
-156.012565
 21
46.519982
  0
LINE
  8
寸法
  6
BYBLOCK
 62
     0
 10
-43.173417
 20
54.419958
 11
-156.012565
 21
54.419958
  0
LINE
  8
寸法
  6
BYBLOCK
 62
     0
 10
-156.012565
 20
46.519982
 11
-156.012565
 21
54.419958
  0
POINT
  8
寸法
 62
     0
 10
-156.012565
 20
46.519982
  0
POINT
  8
寸法
 62
     0
 10
-156.012565
 20
54.419958
  0
TEXT
  7
TextStyle03
  8
寸法
  6
CONTINUOUS
 62
     0
 10
-156.4
 20
47.16875
  1
15.8
 40
3.0
 50
90.0
 72
     5
 11
-156.4
 21
53.73125
  0
ENDBLK
  0
BLOCK
  2
*DIM_0051
 70
    65
 10
0.0
 20
0.0
  0
LINE
  8
寸法
  6
BYBLOCK
 62
     0
 10
-45.575702
 20
73.269955
 11
-156.012565
 21
73.269955
  0
LINE
  8
寸法
  6
BYBLOCK
 62
     0
 10
-156.012565
 20
54.419958
 11
-156.012565
 21
73.269955
  0
POINT
  8
寸法
 62
     0
 10
-156.012565
 20
73.269955
  0
TEXT
  7
TextStyle03
  8
寸法
  6
CONTINUOUS
 62
     0
 10
-156.4
 20
60.54375
  1
37.7
 40
3.0
 50
90.0
 72
     5
 11
-156.4
 21
67.10625
  0
ENDBLK
  0
BLOCK
  2
*GRP_0052
 70
    65
 10
0.0
 20
0.0
  0
ARC
  8
ゴム等
  6
CONTINUOUS
 62
   127
 10
-16.325703
 20
64.919983
 40
0.75
 50
0.0
 51
90.0
  0
LINE
  8
ゴム等
  6
CONTINUOUS
 62
   127
 10
-15.5757
 20
64.91998
 11
-15.5757
 21
64.91998
  0
ARC
  8
ゴム等
  6
CONTINUOUS
 62
   127
 10
-16.325703
 20
64.919983
 40
0.75
 50
-90.0
 51
0.0
  0
LINE
  8
ゴム等
  6
CONTINUOUS
 62
   127
 10
-29.8257
 20
65.66998
 11
-16.3257
 21
65.66998
  0
ARC
  8
ゴム等
  6
CONTINUOUS
 62
   127
 10
-29.825703
 20
64.919983
 40
0.75
 50
90.0
 51
180.0
  0
LINE
  8
ゴム等
  6
CONTINUOUS
 62
   127
 10
-30.5757
 20
64.91998
 11
-30.5757
 21
64.91998
  0
LINE
  8
ゴム等
  6
CONTINUOUS
 62
   127
 10
-29.8257
 20
64.16998
 11
-16.3257
 21
64.16998
  0
ARC
  8
ゴム等
  6
CONTINUOUS
 62
   127
 10
-29.825703
 20
64.919983
 40
0.75
 50
180.0
 51
270.0
  0
ENDBLK
  0
BLOCK
  2
*DIM_0053
 70
    65
 10
0.0
 20
0.0
  0
LINE
  8
寸法
  6
BYBLOCK
 62
     0
 10
0.48316
 20
53.271615
 11
60.614732
 21
53.271615
  0
LINE
  8
寸法
  6
BYBLOCK
 62
     0
 10
60.614732
 20
30.419988
 11
60.614732
 21
53.271615
  0
POINT
  8
寸法
 62
     0
 10
60.614732
 20
30.419988
  0
POINT
  8
寸法
 62
     0
 10
60.614732
 20
53.271615
  0
TEXT
  7
TextStyle03
  8
寸法
  6
CONTINUOUS
 62
     0
 10
60.225
 20
38.54375
  1
45.7
 40
3.0
 50
90.0
 72
     5
 11
60.225
 21
45.10625
  0
ENDBLK
  0
BLOCK
  2
*DIM_0054
 70
    65
 10
0.0
 20
0.0
  0
LINE
  8
寸法
  6
BYBLOCK
 62
     0
 10
-47.575702
 20
-38.330765
 11
-164.550443
 21
-38.330765
  0
LINE
  8
寸法
  6
BYBLOCK
 62
     0
 10
-15.182727
 20
73.269955
 11
-164.550443
 21
73.269955
  0
LINE
  8
寸法
  6
BYBLOCK
 62
     0
 10
-164.550443
 20
-38.330765
 11
-164.550443
 21
73.269955
  0
POINT
  8
寸法
 62
     0
 10
-164.550443
 20
-38.330765
  0
POINT
  8
寸法
 62
     0
 10
-164.550443
 20
73.269955
  0
TEXT
  7
TextStyle03
  8
寸法
  6
CONTINUOUS
 62
     0
 10
-164.95
 20
13.325
  1
223.2
 40
3.0
 50
90.0
 72
     5
 11
-164.95
 21
21.575
  0
ENDBLK
  0
BLOCK
  2
*DIM_0055
 70
    65
 10
0.0
 20
0.0
  0
LINE
  8
寸法
  6
BYBLOCK
 62
     0
 10
-45.6757
 20
13.91998
 11
-156.012565
 21
13.91998
  0
LINE
  8
寸法
  6
BYBLOCK
 62
     0
 10
-156.012565
 20
46.519982
 11
-156.012565
 21
13.91998
  0
POINT
  8
寸法
 62
     0
 10
-156.012565
 20
46.519982
  0
POINT
  8
寸法
 62
     0
 10
-156.012565
 20
13.91998
  0
TEXT
  7
TextStyle03
  8
寸法
  6
CONTINUOUS
 62
     0
 10
-156.4
 20
26.91875
  1
65.2
 40
3.0
 50
90.0
 72
     5
 11
-156.4
 21
33.48125
  0
ENDBLK
  0
BLOCK
  2
*GRP_0056
 70
    65
 10
0.0
 20
0.0
  0
ARC
  8
型材断面
  6
CONTINUOUS
 62
    47
 10
-18.670891
 20
59.09093
 40
0.375028
 50
132.542526
 51
312.542541
  0
ARC
  8
型材断面
  6
CONTINUOUS
 62
    47
 10
-18.670891
 20
57.249028
 40
0.375028
 50
47.457474
 51
227.457901
  0
ARC
  8
型材断面
  6
CONTINUOUS
 62
    47
 10
-17.825776
 20
58.169933
 40
0.874974
 50
227.457306
 51
492.542358
  0
ARC
  8
型材断面
  6
CONTINUOUS
 62
    47
 10
-18.670891
 20
52.190943
 40
0.375028
 50
132.542526
 51
312.542541
  0
ARC
  8
型材断面
  6
CONTINUOUS
 62
    47
 10
-18.670891
 20
50.348949
 40
0.375028
 50
47.457474
 51
227.457901
  0
ARC
  8
型材断面
  6
CONTINUOUS
 62
    47
 10
-17.825776
 20
51.269946
 40
0.874974
 50
227.457642
 51
492.542694
  0
ARC
  8
型材断面
  6
CONTINUOUS
 62
    47
 10
-27.480535
 20
59.09093
 40
0.375028
 50
227.457474
 51
407.457458
  0
ARC
  8
型材断面
  6
CONTINUOUS
 62
    47
 10
-27.480535
 20
57.249028
 40
0.375028
 50
312.542542
 51
492.542541
  0
ARC
  8
型材断面
  6
CONTINUOUS
 62
    47
 10
-28.325741
 20
58.169933
 40
0.874974
 50
47.457821
 51
312.542511
  0
LINE
  8
型材断面
  6
CONTINUOUS
 62
    47
 10
-15.5757
 20
46.519955
 11
-30.32571
 21
46.519955
  0
LINE
  8
型材断面
  6
CONTINUOUS
 62
    47
 10
-27.225767
 20
62.669995
 11
-22.425738
 21
62.669995
  0
LINE
  8
型材断面
  6
CONTINUOUS
 62
    47
 10
-27.225767
 20
62.669995
 11
-27.575778
 21
63.41996
  0
LINE
  8
型材断面
  6
CONTINUOUS
 62
    47
 10
-27.575778
 20
63.41996
 11
-30.32571
 21
63.41996
  0
LINE
  8
型材断面
  6
CONTINUOUS
 62
    47
 10
-15.5757
 20
63.41996
 11
-22.075732
 21
63.41996
  0
LINE
  8
型材断面
  6
CONTINUOUS
 62
    47
 10
-22.425738
 20
62.669995
 11
-22.075732
 21
63.41996
  0
LINE
  8
型材断面
  6
CONTINUOUS
 62
    47
 10
-30.32571
 20
57.23752
 11
-30.32571
 21
46.519955
  0
ARC
  8
型材断面
  6
CONTINUOUS
 62
    47
 10
-30.018344
 20
57.237522
 40
0.307455
 50
28.849573
 51
180.0
  0
ARC
  8
型材断面
  6
CONTINUOUS
 62
    47
 10
-28.325741
 20
58.169933
 40
1.62503
 50
208.849533
 51
312.542511
  0
ARC
  8
型材断面
  6
CONTINUOUS
 62
    47
 10
-28.325741
 20
58.169933
 40
1.62503
 50
47.457661
 51
151.150223
  0
ARC
  8
型材断面
  6
CONTINUOUS
 62
    47
 10
-30.018344
 20
59.102344
 40
0.307455
 50
180.0
 51
331.150421
  0
LINE
  8
型材断面
  6
CONTINUOUS
 62
    47
 10
-30.32571
 20
59.102342
 11
-30.32571
 21
63.41996
  0
ARC
  8
型材断面
  6
CONTINUOUS
 62
    47
 10
-17.825776
 20
51.269946
 40
1.62503
 50
227.457657
 51
328.547577
  0
ARC
  8
型材断面
  6
CONTINUOUS
 62
    47
 10
-16.041859
 20
50.178831
 40
0.46616
 50
0.0
 51
148.548111
  0
LINE
  8
型材断面
  6
CONTINUOUS
 62
    47
 10
-15.5757
 20
46.519955
 11
-15.5757
 21
50.17883
  0
ARC
  8
型材断面
  6
CONTINUOUS
 62
    47
 10
-17.825776
 20
51.269946
 40
1.62503
 50
31.452208
 51
132.542618
  0
ARC
  8
型材断面
  6
CONTINUOUS
 62
    47
 10
-16.041859
 20
52.361061
 40
0.46616
 50
211.451889
 51
360.0
  0
LINE
  8
型材断面
  6
CONTINUOUS
 62
    47
 10
-15.5757
 20
57.078815
 11
-15.5757
 21
52.36106
  0
ARC
  8
型材断面
  6
CONTINUOUS
 62
    47
 10
-16.041859
 20
57.078818
 40
0.46616
 50
0.0
 51
148.548111
  0
ARC
  8
型材断面
  6
CONTINUOUS
 62
    47
 10
-17.825776
 20
58.169933
 40
1.62503
 50
227.457474
 51
328.54779
  0
ARC
  8
型材断面
  6
CONTINUOUS
 62
    47
 10
-17.825776
 20
58.169933
 40
1.62503
 50
31.452295
 51
132.542435
  0
ARC
  8
型材断面
  6
CONTINUOUS
 62
    47
 10
-16.041859
 20
59.261048
 40
0.46616
 50
211.451889
 51
360.0
  0
LINE
  8
型材断面
  6
CONTINUOUS
 62
    47
 10
-15.5757
 20
63.41996
 11
-15.5757
 21
59.261045
  0
ARC
  8
型材断面
  6
CONTINUOUS
 62
    47
 10
-32.575694
 20
30.420047
 40
7.850022
 50
30.634146
 51
329.365875
  0
ARC
  8
型材断面
  6
CONTINUOUS
 62
    47
 10
-32.575694
 20
30.420047
 40
8.850005
 50
182.428513
 51
270.0
  0
ARC
  8
型材断面
  6
CONTINUOUS
 62
    47
 10
-32.575694
 20
30.420047
 40
8.850005
 50
90.0
 51
177.571487
  0
LINE
  8
型材断面
  6
CONTINUOUS
 62
    47
 10
-25.821263
 20
26.42002
 11
-24.825753
 21
26.42002
  0
LINE
  8
型材断面
  6
CONTINUOUS
 62
    47
 10
-25.821263
 20
34.42007
 11
-24.825753
 21
34.42007
  0
LINE
  8
型材断面
  6
CONTINUOUS
 62
    47
 10
-41.417755
 20
30.045017
 11
-43.575698
 21
30.045017
  0
LINE
  8
型材断面
  6
CONTINUOUS
 62
    47
 10
-41.417755
 20
30.795073
 11
-43.575698
 21
30.795073
  0
LINE
  8
型材断面
  6
CONTINUOUS
 62
    47
 10
-19.975773
 20
64.169923
 11
-19.825742
 21
64.019988
  0
LINE
  8
型材断面
  6
CONTINUOUS
 62
    47
 10
-19.825742
 20
64.019988
 11
-19.675717
 21
64.169923
  0
LINE
  8
型材断面
  6
CONTINUOUS
 62
    47
 10
-24.975692
 20
64.169923
 11
-24.825753
 21
64.019988
  0
LINE
  8
型材断面
  6
CONTINUOUS
 62
    47
 10
-24.825753
 20
64.019988
 11
-24.675723
 21
64.169923
  0
LINE
  8
型材断面
  6
CONTINUOUS
 62
    47
 10
-24.675723
 20
64.169923
 11
-19.975773
 21
64.169923
  0
ARC
  8
型材断面
  6
CONTINUOUS
 62
    47
 10
-44.57577
 20
14.670055
 40
0.250019
 50
89.999123
 51
180.0
  0
LINE
  8
型材断面
  6
CONTINUOUS
 62
    47
 10
-44.8257
 20
14.070027
 11
-44.8257
 21
14.670055
  0
ARC
  8
型材断面
  6
CONTINUOUS
 62
    47
 10
-44.675759
 20
14.070028
 40
0.150029
 50
180.0
 51
269.791626
  0
LINE
  8
型材断面
  6
CONTINUOUS
 62
    47
 10
-44.676307
 20
13.919997
 11
-43.725727
 21
13.919997
  0
ARC
  8
型材断面
  6
CONTINUOUS
 62
    47
 10
-43.725725
 20
14.070028
 40
0.150029
 50
270.0
 51
359.852844
  0
LINE
  8
型材断面
  6
CONTINUOUS
 62
    47
 10
-43.575698
 20
14.06966
 11
-43.575698
 21
18.420062
  0
LINE
  8
型材断面
  6
CONTINUOUS
 62
    47
 10
-44.425742
 20
20.17001
 11
-44.57577
 21
20.32004
  0
LINE
  8
型材断面
  6
CONTINUOUS
 62
    47
 10
-44.425742
 20
20.17001
 11
-44.57577
 21
20.02007
  0
LINE
  8
型材断面
  6
CONTINUOUS
 62
    47
 10
-44.57577
 20
14.920075
 11
-44.57577
 21
20.02007
  0
LINE
  8
型材断面
  6
CONTINUOUS
 62
    47
 10
-44.425742
 20
43.520005
 11
-44.57577
 21
43.66994
  0
LINE
  8
型材断面
  6
CONTINUOUS
 62
    47
 10
-44.425742
 20
43.520005
 11
-44.57577
 21
43.369975
  0
LINE
  8
型材断面
  6
CONTINUOUS
 62
    47
 10
-44.57577
 20
46.019915
 11
-44.57577
 21
43.66994
  0
ARC
  8
型材断面
  6
CONTINUOUS
 62
    47
 10
-44.075733
 20
46.019918
 40
0.500037
 50
90.0
 51
180.0
  0
LINE
  8
型材断面
  6
CONTINUOUS
 62
    47
 10
-44.075732
 20
46.519955
 11
-31.325692
 21
46.519955
  0
LINE
  8
型材断面
  6
CONTINUOUS
 62
    47
 10
-43.575698
 20
45.76999
 11
-25.825735
 21
45.76999
  0
LINE
  8
型材断面
  6
CONTINUOUS
 62
    47
 10
-31.325692
 20
46.519955
 11
-31.325692
 21
51.119915
  0
LINE
  8
型材断面
  6
CONTINUOUS
 62
    47
 10
-31.175755
 20
51.269945
 11
-31.325692
 21
51.119915
  0
LINE
  8
型材断面
  6
CONTINUOUS
 62
    47
 10
-31.175755
 20
51.269945
 11
-31.325692
 21
51.419975
  0
LINE
  8
型材断面
  6
CONTINUOUS
 62
    47
 10
-31.325692
 20
58.019995
 11
-31.325692
 21
51.419975
  0
LINE
  8
型材断面
  6
CONTINUOUS
 62
    47
 10
-31.175755
 20
58.16993
 11
-31.325692
 21
58.019995
  0
LINE
  8
型材断面
  6
CONTINUOUS
 62
    47
 10
-31.175755
 20
58.16993
 11
-31.325692
 21
58.31996
  0
LINE
  8
型材断面
  6
CONTINUOUS
 62
    47
 10
-31.325692
 20
64.169923
 11
-31.325692
 21
58.31996
  0
LINE
  8
型材断面
  6
CONTINUOUS
 62
    47
 10
-24.975692
 20
64.169923
 11
-31.325692
 21
64.169923
  0
LINE
  8
型材断面
  6
CONTINUOUS
 62
    47
 10
-14.825738
 20
63.26993
 11
-13.8757
 21
63.26993
  0
ARC
  8
型材断面
  6
CONTINUOUS
 62
    47
 10
-13.8757
 20
63.119993
 40
0.150029
 50
0.419656
 51
90.0
  0
LINE
  8
型材断面
  6
CONTINUOUS
 62
    47
 10
-13.725765
 20
62.41888
 11
-13.725765
 21
63.12109
  0
ARC
  8
型材断面
  6
CONTINUOUS
 62
    47
 10
-13.8757
 20
62.419977
 40
0.150029
 50
270.332245
 51
359.580353
  0
LINE
  8
型材断面
  6
CONTINUOUS
 62
    47
 10
-14.825738
 20
62.269947
 11
-13.87488
 21
62.269947
  0
LINE
  8
型材断面
  6
CONTINUOUS
 62
    47
 10
-14.825738
 20
63.26993
 11
-14.825738
 21
64.020897
  0
ARC
  8
型材断面
  6
CONTINUOUS
 62
    47
 10
-14.975764
 20
64.019987
 40
0.150029
 50
0.364287
 51
90.0
  0
LINE
  8
型材断面
  6
CONTINUOUS
 62
    47
 10
-19.675717
 20
64.169923
 11
-14.975767
 21
64.169923
  0
LINE
  8
型材断面
  6
CONTINUOUS
 62
    47
 10
-14.825738
 20
54.269988
 11
-14.825738
 21
62.269947
  0
LINE
  8
型材断面
  6
CONTINUOUS
 62
    47
 10
-14.825738
 20
45.76999
 11
-14.825738
 21
53.270005
  0
LINE
  8
型材断面
  6
CONTINUOUS
 62
    47
 10
-14.825738
 20
54.269988
 11
-11.22576
 21
54.269988
  0
LINE
  8
型材断面
  6
CONTINUOUS
 62
    47
 10
-11.22576
 20
54.269988
 11
-11.22576
 21
55.41991
  0
LINE
  8
型材断面
  6
CONTINUOUS
 62
    47
 10
-10.475702
 20
54.269988
 11
-0.925773
 21
54.269988
  0
LINE
  8
型材断面
  6
CONTINUOUS
 62
    47
 10
-10.475702
 20
54.269988
 11
-10.475702
 21
56.02094
  0
ARC
  8
型材断面
  6
CONTINUOUS
 62
    47
 10
-10.625731
 20
56.019936
 40
0.150029
 50
0.364287
 51
90.0
  0
LINE
  8
型材断面
  6
CONTINUOUS
 62
    47
 10
-12.325732
 20
56.169965
 11
-10.625732
 21
56.169965
  0
ARC
  8
型材断面
  6
CONTINUOUS
 62
    47
 10
-12.32573
 20
56.019936
 40
0.150029
 50
90.0
 51
180.0
  0
LINE
  8
型材断面
  6
CONTINUOUS
 62
    47
 10
-12.475763
 20
55.56994
 11
-12.475763
 21
56.019935
  0
ARC
  8
型材断面
  6
CONTINUOUS
 62
    47
 10
-12.32573
 20
55.569939
 40
0.150029
 50
180.0
 51
269.667786
  0
LINE
  8
型材断面
  6
CONTINUOUS
 62
    47
 10
-12.326642
 20
55.41991
 11
-11.22576
 21
55.41991
  0
ARC
  8
型材断面
  6
CONTINUOUS
 62
    47
 10
-0.775742
 20
55.119942
 40
0.150029
 50
90.0
 51
180.0
  0
LINE
  8
型材断面
  6
CONTINUOUS
 62
    47
 10
-0.925773
 20
54.269988
 11
-0.925773
 21
55.11994
  0
LINE
  8
型材断面
  6
CONTINUOUS
 62
    47
 10
-0.775742
 20
55.26997
 11
-0.475778
 21
55.26997
  0
ARC
  8
型材断面
  6
CONTINUOUS
 62
    47
 10
-0.475774
 20
55.119942
 40
0.150029
 50
0.25646
 51
90.0
  0
LINE
  8
型材断面
  6
CONTINUOUS
 62
    47
 10
-0.325748
 20
53.419303
 11
-0.325748
 21
55.12058
  0
ARC
  8
型材断面
  6
CONTINUOUS
 62
    47
 10
-0.475774
 20
53.419943
 40
0.150029
 50
270.329315
 51
359.74353
  0
LINE
  8
型材断面
  6
CONTINUOUS
 62
    47
 10
-14.825738
 20
53.270005
 11
-0.474863
 21
53.270005
  0
LINE
  8
型材断面
  6
CONTINUOUS
 62
    47
 10
-24.825753
 20
34.42007
 11
-24.825753
 21
36.920075
  0
LINE
  8
型材断面
  6
CONTINUOUS
 62
    47
 10
-24.825753
 20
36.920075
 11
-23.075715
 21
38.670025
  0
LINE
  8
型材断面
  6
CONTINUOUS
 62
    47
 10
-23.075715
 20
39.42008
 11
-23.075715
 21
38.670025
  0
LINE
  8
型材断面
  6
CONTINUOUS
 62
    47
 10
-19.64832
 20
39.42008
 11
-23.075715
 21
39.42008
  0
LINE
  8
型材断面
  6
CONTINUOUS
 62
    47
 10
-19.64832
 20
38.781792
 11
-19.64832
 21
39.42008
  0
ARC
  8
型材断面
  6
CONTINUOUS
 62
    47
 10
-18.57355
 20
39.420082
 40
1.250002
 50
210.705566
 51
329.293274
  0
LINE
  8
型材断面
  6
CONTINUOUS
 62
    47
 10
-17.498783
 20
38.781703
 11
-17.498783
 21
39.42008
  0
LINE
  8
型材断面
  6
CONTINUOUS
 62
    47
 10
-17.498783
 20
39.42008
 11
-16.07574
 21
39.42008
  0
LINE
  8
型材断面
  6
CONTINUOUS
 62
    47
 10
-16.07574
 20
39.42008
 11
-16.07574
 21
40.420062
  0
LINE
  8
型材断面
  6
CONTINUOUS
 62
    47
 10
-14.825738
 20
40.420062
 11
-16.07574
 21
40.420062
  0
LINE
  8
型材断面
  6
CONTINUOUS
 62
    47
 10
-14.825738
 20
41.42005
 11
-14.825738
 21
40.420062
  0
LINE
  8
型材断面
  6
CONTINUOUS
 62
    47
 10
-14.825738
 20
41.42005
 11
-17.925767
 21
41.42005
  0
ARC
  8
型材断面
  6
CONTINUOUS
 62
    47
 10
-17.925766
 20
41.270019
 40
0.150029
 50
90.0
 51
179.667786
  0
LINE
  8
型材断面
  6
CONTINUOUS
 62
    47
 10
-18.075705
 20
41.17003
 11
-18.075705
 21
41.27093
  0
LINE
  8
型材断面
  6
CONTINUOUS
 62
    47
 10
-18.075705
 20
41.17003
 11
-18.57574
 21
41.17003
  0
LINE
  8
型材断面
  6
CONTINUOUS
 62
    47
 10
-18.57574
 20
41.270383
 11
-18.57574
 21
41.17003
  0
ARC
  8
型材断面
  6
CONTINUOUS
 62
    47
 10
-18.725771
 20
41.270019
 40
0.150029
 50
0.148623
 51
90.0
  0
LINE
  8
型材断面
  6
CONTINUOUS
 62
    47
 10
-18.72577
 20
41.42005
 11
-24.825753
 21
41.42005
  0
LINE
  8
型材断面
  6
CONTINUOUS
 62
    47
 10
-24.825753
 20
41.42005
 11
-24.825753
 21
45.76999
  0
LINE
  8
型材断面
  6
CONTINUOUS
 62
    47
 10
-14.825738
 20
45.76999
 11
-24.825753
 21
45.76999
  0
LINE
  8
型材断面
  6
CONTINUOUS
 62
    47
 10
-23.075715
 20
21.420012
 11
-23.075715
 21
22.17007
  0
LINE
  8
型材断面
  6
CONTINUOUS
 62
    47
 10
-19.675717
 20
21.420012
 11
-23.075715
 21
21.420012
  0
ARC
  8
型材断面
  6
CONTINUOUS
 62
    47
 10
-18.575741
 20
21.420013
 40
1.099973
 50
0.000199
 51
179.999802
  0
LINE
  8
型材断面
  6
CONTINUOUS
 62
    47
 10
-17.475767
 20
21.420012
 11
-16.07574
 21
21.420012
  0
LINE
  8
型材断面
  6
CONTINUOUS
 62
    47
 10
-16.07574
 20
21.420012
 11
-16.07574
 21
20.420027
  0
LINE
  8
型材断面
  6
CONTINUOUS
 62
    47
 10
-14.825738
 20
20.420027
 11
-16.07574
 21
20.420027
  0
LINE
  8
型材断面
  6
CONTINUOUS
 62
    47
 10
-14.825738
 20
19.420045
 11
-14.825738
 21
20.420027
  0
LINE
  8
型材断面
  6
CONTINUOUS
 62
    47
 10
-14.825738
 20
19.420045
 11
-17.925767
 21
19.420045
  0
ARC
  8
型材断面
  6
CONTINUOUS
 62
    47
 10
-17.925766
 20
19.570075
 40
0.150029
 50
180.0
 51
270.0
  0
LINE
  8
型材断面
  6
CONTINUOUS
 62
    47
 10
-18.075705
 20
19.670065
 11
-18.075705
 21
19.570075
  0
LINE
  8
型材断面
  6
CONTINUOUS
 62
    47
 10
-18.075705
 20
19.670065
 11
-18.57574
 21
19.670065
  0
LINE
  8
型材断面
  6
CONTINUOUS
 62
    47
 10
-18.57574
 20
19.569617
 11
-18.57574
 21
19.670065
  0
ARC
  8
型材断面
  6
CONTINUOUS
 62
    47
 10
-18.725771
 20
19.570075
 40
0.150029
 50
270.0
 51
359.851379
  0
LINE
  8
型材断面
  6
CONTINUOUS
 62
    47
 10
-20.6757
 20
19.420045
 11
-18.72577
 21
19.420045
  0
LINE
  8
型材断面
  6
CONTINUOUS
 62
    47
 10
-20.82573
 20
19.570075
 11
-20.6757
 21
19.420045
  0
LINE
  8
型材断面
  6
CONTINUOUS
 62
    47
 10
-20.82573
 20
19.570075
 11
-20.97576
 21
19.420045
  0
LINE
  8
型材断面
  6
CONTINUOUS
 62
    47
 10
-43.575698
 20
30.795073
 11
-43.575698
 21
45.76999
  0
LINE
  8
型材断面
  6
CONTINUOUS
 62
    47
 10
-43.575698
 20
18.420062
 11
-24.825753
 21
18.420062
  0
LINE
  8
型材断面
  6
CONTINUOUS
 62
    47
 10
-24.825753
 20
23.920015
 11
-24.825753
 21
26.42002
  0
LINE
  8
型材断面
  6
CONTINUOUS
 62
    47
 10
-24.825753
 20
23.920015
 11
-23.075715
 21
22.17007
  0
LINE
  8
型材断面
  6
CONTINUOUS
 62
    47
 10
-24.825753
 20
19.420045
 11
-20.97576
 21
19.420045
  0
LINE
  8
型材断面
  6
CONTINUOUS
 62
    47
 10
-24.825753
 20
18.420062
 11
-24.825753
 21
19.420045
  0
LINE
  8
型材断面
  6
CONTINUOUS
 62
    47
 10
-43.575698
 20
19.170025
 11
-29.141087
 21
19.170025
  0
LINE
  8
型材断面
  6
CONTINUOUS
 62
    47
 10
-43.575698
 20
30.045017
 11
-43.575698
 21
19.170025
  0
ARC
  8
型材断面
  6
CONTINUOUS
 62
    47
 10
-28.324554
 20
20.116409
 40
0.375028
 50
2.458033
 51
182.457428
  0
ARC
  8
型材断面
  6
CONTINUOUS
 62
    47
 10
-27.075738
 20
20.17001
 40
0.874974
 50
182.457443
 51
447.542297
  0
ARC
  8
型材断面
  6
CONTINUOUS
 62
    47
 10
-27.022137
 20
21.418917
 40
0.375028
 50
189.100311
 51
267.542572
  0
LINE
  8
型材断面
  6
CONTINUOUS
 62
    47
 10
-32.575695
 20
21.57004
 11
-27.63924
 21
21.57004
  0
ARC
  8
型材断面
  6
CONTINUOUS
 62
    47
 10
-27.639239
 20
21.320023
 40
0.250019
 50
9.099842
 51
90.0
  0
ARC
  8
型材断面
  6
CONTINUOUS
 62
    47
 10
-27.075738
 20
20.17001
 40
1.62503
 50
182.457565
 51
193.608902
  0
ARC
  8
型材断面
  6
CONTINUOUS
 62
    47
 10
-29.141087
 20
19.670064
 40
0.500037
 50
270.0
 51
373.608765
  0
ARC
  8
型材断面
  6
CONTINUOUS
 62
    47
 10
-27.920944
 20
40.941014
 40
0.375028
 50
132.542526
 51
312.542541
  0
ARC
  8
型材断面
  6
CONTINUOUS
 62
    47
 10
-27.075738
 20
40.020017
 40
0.874974
 50
227.457489
 51
492.542175
  0
ARC
  8
型材断面
  6
CONTINUOUS
 62
    47
 10
-27.075738
 20
40.020017
 40
1.62503
 50
57.768982
 51
132.542343
  0
ARC
  8
型材断面
  6
CONTINUOUS
 62
    47
 10
-27.920944
 20
39.099112
 40
0.375028
 50
47.457474
 51
137.658798
  0
LINE
  8
型材断面
  6
CONTINUOUS
 62
    47
 10
-32.575695
 20
39.27005
 11
-28.382905
 21
39.27005
  0
ARC
  8
型材断面
  6
CONTINUOUS
 62
    47
 10
-28.382904
 20
39.520071
 40
0.250019
 50
270.0
 51
317.657989
  0
LINE
  8
型材断面
  6
CONTINUOUS
 62
    47
 10
-25.825735
 20
41.605415
 11
-25.825735
 21
45.76999
  0
ARC
  8
型材断面
  6
CONTINUOUS
 62
    47
 10
-26.075755
 20
41.606147
 40
0.250019
 50
237.769791
 51
359.837402
  0
LINE
  8
型材断面
  6
CONTINUOUS
 62
    47
 10
-44.57577
 20
40.170047
 11
-44.57577
 21
43.369975
  0
LINE
  8
型材断面
  6
CONTINUOUS
 62
    47
 10
-44.425742
 20
40.020017
 11
-44.57577
 21
40.170047
  0
LINE
  8
型材断面
  6
CONTINUOUS
 62
    47
 10
-44.425742
 20
40.020017
 11
-44.57577
 21
39.870077
  0
LINE
  8
型材断面
  6
CONTINUOUS
 62
    47
 10
-44.57577
 20
39.17006
 11
-44.57577
 21
39.870077
  0
LINE
  8
型材断面
  6
CONTINUOUS
 62
    47
 10
-44.425742
 20
39.020035
 11
-44.57577
 21
39.17006
  0
LINE
  8
型材断面
  6
CONTINUOUS
 62
    47
 10
-44.425742
 20
39.020035
 11
-44.57577
 21
38.870005
  0
LINE
  8
型材断面
  6
CONTINUOUS
 62
    47
 10
-44.57577
 20
38.870005
 11
-44.57577
 21
20.32004
  0
ENDBLK
  0
BLOCK
  2
*GRP_0057
 70
    65
 10
0.0
 20
0.0
  0
LINE
  8
型材断面
  6
CONTINUOUS
 62
    47
 10
-25.575705
 20
1.919238
 11
-26.575705
 21
1.419235
  0
ARC
  8
型材断面
  6
CONTINUOUS
 62
    47
 10
-39.730533
 20
4.840208
 40
0.375
 50
227.457576
 51
407.457232
  0
ARC
  8
型材断面
  6
CONTINUOUS
 62
    47
 10
-39.730533
 20
2.998265
 40
0.375
 50
312.542364
 51
492.542397
  0
ARC
  8
型材断面
  6
CONTINUOUS
 62
    47
 10
-40.575703
 20
3.919237
 40
0.875
 50
47.457615
 51
312.542407
  0
ARC
  8
型材断面
  6
CONTINUOUS
 62
    47
 10
-39.730533
 20
-25.90979
 40
0.375
 50
227.457576
 51
407.457232
  0
ARC
  8
型材断面
  6
CONTINUOUS
 62
    47
 10
-39.730533
 20
-27.751733
 40
0.375
 50
312.542364
 51
492.542397
  0
ARC
  8
型材断面
  6
CONTINUOUS
 62
    47
 10
-40.575703
 20
-26.830762
 40
0.875
 50
47.457615
 51
312.542407
  0
ARC
  8
型材断面
  6
CONTINUOUS
 62
    47
 10
-43.3257
 20
4.544238
 40
0.25
 50
180.0
 51
270.0
  0
LINE
  8
型材断面
  6
CONTINUOUS
 62
    47
 10
-42.34347
 20
4.294235
 11
-43.3257
 21
4.294235
  0
ARC
  8
型材断面
  6
CONTINUOUS
 62
    47
 10
-40.575703
 20
3.919237
 40
1.625
 50
47.457518
 51
160.528747
  0
ARC
  8
型材断面
  6
CONTINUOUS
 62
    47
 10
-42.343469
 20
4.544238
 40
0.25
 50
270.0
 51
340.528747
  0
ARC
  8
型材断面
  6
CONTINUOUS
 62
    47
 10
-40.575703
 20
3.919237
 40
1.625
 50
199.471188
 51
312.542389
  0
ARC
  8
型材断面
  6
CONTINUOUS
 62
    47
 10
-42.34347
 20
3.294238
 40
0.25
 50
19.471188
 51
90.0
  0
LINE
  8
型材断面
  6
CONTINUOUS
 62
    47
 10
-42.34347
 20
3.544235
 11
-43.3257
 21
3.544235
  0
LINE
  8
型材断面
  6
CONTINUOUS
 62
    47
 10
-43.5757
 20
-8.705765
 11
-43.5757
 21
3.294238
  0
ARC
  8
型材断面
  6
CONTINUOUS
 62
    47
 10
-43.3257
 20
3.294238
 40
0.25
 50
90.0
 51
180.0
  0
LINE
  8
型材断面
  6
CONTINUOUS
 62
    47
 10
-43.5757
 20
-9.455765
 11
-43.5757
 21
-26.205763
  0
ARC
  8
型材断面
  6
CONTINUOUS
 62
    47
 10
-43.3257
 20
-26.205762
 40
0.25
 50
180.0
 51
270.0
  0
LINE
  8
型材断面
  6
CONTINUOUS
 62
    47
 10
-42.34347
 20
-26.455765
 11
-43.3257
 21
-26.455765
  0
ARC
  8
型材断面
  6
CONTINUOUS
 62
    47
 10
-40.575703
 20
-26.830762
 40
1.625
 50
47.457518
 51
160.528796
  0
ARC
  8
型材断面
  6
CONTINUOUS
 62
    47
 10
-42.34347
 20
-26.205762
 40
0.25
 50
270.0
 51
340.528796
  0
ARC
  8
型材断面
  6
CONTINUOUS
 62
    47
 10
-40.575703
 20
-26.830762
 40
1.625
 50
199.471237
 51
312.542389
  0
ARC
  8
型材断面
  6
CONTINUOUS
 62
    47
 10
-42.343469
 20
-27.455762
 40
0.25
 50
19.471237
 51
90.0
  0
LINE
  8
型材断面
  6
CONTINUOUS
 62
    47
 10
-42.34347
 20
-27.205765
 11
-43.3257
 21
-27.205765
  0
ARC
  8
型材断面
  6
CONTINUOUS
 62
    47
 10
-43.3257
 20
-27.455762
 40
0.25
 50
90.0
 51
180.0
  0
ARC
  8
型材断面
  6
CONTINUOUS
 62
    47
 10
-37.825701
 20
-33.730762
 40
0.25
 50
90.0
 51
180.0
  0
LINE
  8
型材断面
  6
CONTINUOUS
 62
    47
 10
-38.075702
 20
-33.730765
 11
-38.075702
 21
-33.980763
  0
ARC
  8
型材断面
  6
CONTINUOUS
 62
    47
 10
-37.825701
 20
-33.980762
 40
0.25
 50
180.0
 51
270.0
  0
LINE
  8
型材断面
  6
CONTINUOUS
 62
    47
 10
-37.075702
 20
-40.930768
 11
-37.075702
 21
-38.330765
  0
LINE
  8
型材断面
  6
CONTINUOUS
 62
    47
 10
-36.925702
 20
-41.080768
 11
-37.075702
 21
-40.930768
  0
LINE
  8
型材断面
  6
CONTINUOUS
 62
    47
 10
-36.925702
 20
-41.080768
 11
-37.075702
 21
-41.230767
  0
LINE
  8
型材断面
  6
CONTINUOUS
 62
    47
 10
-37.075702
 20
-45.830765
 11
-37.075702
 21
-41.230767
  0
LINE
  8
型材断面
  6
CONTINUOUS
 62
    47
 10
-37.075702
 20
-45.830765
 11
-36.325702
 21
-45.830765
  0
LINE
  8
型材断面
  6
CONTINUOUS
 62
    47
 10
-36.325702
 20
-45.830765
 11
-36.325702
 21
-38.330765
  0
LINE
  8
型材断面
  6
CONTINUOUS
 62
    47
 10
-36.325702
 20
-38.330765
 11
-30.325702
 21
-38.330765
  0
LINE
  8
型材断面
  6
CONTINUOUS
 62
    47
 10
-30.325702
 20
-38.330765
 11
-30.325702
 21
-37.330765
  0
LINE
  8
型材断面
  6
CONTINUOUS
 62
    47
 10
-36.325702
 20
-37.330765
 11
-30.325702
 21
-37.330765
  0
LINE
  8
型材断面
  6
CONTINUOUS
 62
    47
 10
-36.325702
 20
-34.480765
 11
-36.325702
 21
-37.330765
  0
LINE
  8
型材断面
  6
CONTINUOUS
 62
    47
 10
-37.825702
 20
-34.230763
 11
-37.075702
 21
-34.230763
  0
LINE
  8
型材断面
  6
CONTINUOUS
 62
    47
 10
-37.075702
 20
-37.580765
 11
-37.075702
 21
-34.230763
  0
LINE
  8
型材断面
  6
CONTINUOUS
 62
    47
 10
-25.825705
 20
-32.080765
 11
-25.575705
 21
-32.080765
  0
LINE
  8
型材断面
  6
CONTINUOUS
 62
    47
 10
-25.825705
 20
-32.080765
 11
-25.825705
 21
-33.480763
  0
LINE
  8
型材断面
  6
CONTINUOUS
 62
    47
 10
-37.825702
 20
-33.480763
 11
-25.825705
 21
-33.480763
  0
LINE
  8
型材断面
  6
CONTINUOUS
 62
    47
 10
-24.975705
 20
-30.080763
 11
-24.825705
 21
-29.930763
  0
LINE
  8
型材断面
  6
CONTINUOUS
 62
    47
 10
-24.975705
 20
-30.080763
 11
-24.825705
 21
-30.230763
  0
LINE
  8
型材断面
  6
CONTINUOUS
 62
    47
 10
-24.825705
 20
-30.230763
 11
-24.825705
 21
-32.080765
  0
LINE
  8
型材断面
  6
CONTINUOUS
 62
    47
 10
-25.575705
 20
-25.330765
 11
-25.575705
 21
-32.080765
  0
LINE
  8
型材断面
  6
CONTINUOUS
 62
    47
 10
-26.575705
 20
-24.830765
 11
-25.575705
 21
-25.330765
  0
LINE
  8
型材断面
  6
CONTINUOUS
 62
    47
 10
-26.575705
 20
-21.830765
 11
-26.575705
 21
-24.830765
  0
LINE
  8
型材断面
  6
CONTINUOUS
 62
    47
 10
-26.575705
 20
-21.830765
 11
-25.825705
 21
-21.455765
  0
LINE
  8
型材断面
  6
CONTINUOUS
 62
    47
 10
-4.325702
 20
-33.080765
 11
-4.325702
 21
-37.330765
  0
LINE
  8
型材断面
  6
CONTINUOUS
 62
    47
 10
-3.325702
 20
-38.330765
 11
-8.3257
 21
-38.330765
  0
LINE
  8
型材断面
  6
CONTINUOUS
 62
    47
 10
-24.825705
 20
-15.580768
 11
-24.825705
 21
-13.080768
  0
LINE
  8
型材断面
  6
CONTINUOUS
 62
    47
 10
-24.825705
 20
-15.580768
 11
-23.075708
 21
-17.330765
  0
LINE
  8
型材断面
  6
CONTINUOUS
 62
    47
 10
-23.075708
 20
-18.080765
 11
-23.075708
 21
-17.330765
  0
LINE
  8
型材断面
  6
CONTINUOUS
 62
    47
 10
-19.650453
 20
-18.080765
 11
-23.075708
 21
-18.080765
  0
LINE
  8
型材断面
  6
CONTINUOUS
 62
    47
 10
-19.650453
 20
-17.442483
 11
-19.650453
 21
-18.080765
  0
ARC
  8
型材断面
  6
CONTINUOUS
 62
    47
 10
-18.575703
 20
-18.080769
 40
1.25
 50
30.706853
 51
149.294134
  0
LINE
  8
型材断面
  6
CONTINUOUS
 62
    47
 10
-17.500965
 20
-17.442462
 11
-17.500965
 21
-18.080765
  0
LINE
  8
型材断面
  6
CONTINUOUS
 62
    47
 10
-17.500965
 20
-18.080765
 11
-16.075705
 21
-18.080765
  0
LINE
  8
型材断面
  6
CONTINUOUS
 62
    47
 10
-16.075705
 20
-19.080768
 11
-16.075705
 21
-18.080765
  0
LINE
  8
型材断面
  6
CONTINUOUS
 62
    47
 10
-16.075705
 20
-19.080768
 11
-14.825708
 21
-19.080768
  0
LINE
  8
型材断面
  6
CONTINUOUS
 62
    47
 10
-14.825708
 20
-19.931862
 11
-14.825708
 21
-19.080768
  0
ARC
  8
型材断面
  6
CONTINUOUS
 62
    47
 10
-14.975702
 20
-19.930767
 40
0.15
 50
270.0
 51
359.58157
  0
LINE
  8
型材断面
  6
CONTINUOUS
 62
    47
 10
-14.975702
 20
-20.080768
 11
-17.92791
 21
-20.080768
  0
ARC
  8
型材断面
  6
CONTINUOUS
 62
    47
 10
-17.92791
 20
-19.930763
 40
0.15
 50
180.256235
 51
270.0
  0
LINE
  8
型材断面
  6
CONTINUOUS
 62
    47
 10
-18.07791
 20
-19.830763
 11
-18.07791
 21
-19.931435
  0
LINE
  8
型材断面
  6
CONTINUOUS
 62
    47
 10
-18.07791
 20
-19.830763
 11
-18.577908
 21
-19.830763
  0
LINE
  8
型材断面
  6
CONTINUOUS
 62
    47
 10
-18.577908
 20
-19.930765
 11
-18.577908
 21
-19.830763
  0
ARC
  8
型材断面
  6
CONTINUOUS
 62
    47
 10
-18.727909
 20
-19.930763
 40
0.150004
 50
270.0
 51
360.0
  0
LINE
  8
型材断面
  6
CONTINUOUS
 62
    47
 10
-20.677905
 20
-20.080768
 11
-18.727908
 21
-20.080768
  0
LINE
  8
型材断面
  6
CONTINUOUS
 62
    47
 10
-20.827908
 20
-19.930765
 11
-20.677905
 21
-20.080768
  0
LINE
  8
型材断面
  6
CONTINUOUS
 62
    47
 10
-20.827908
 20
-19.930765
 11
-20.977913
 21
-20.080768
  0
LINE
  8
型材断面
  6
CONTINUOUS
 62
    47
 10
-24.825705
 20
-20.080768
 11
-20.977913
 21
-20.080768
  0
LINE
  8
型材断面
  6
CONTINUOUS
 62
    47
 10
-24.825705
 20
-20.080768
 11
-24.825705
 21
-29.930763
  0
LINE
  8
型材断面
  6
CONTINUOUS
 62
    47
 10
13.174295
 20
-33.080765
 11
13.174295
 21
-34.480765
  0
LINE
  8
型材断面
  6
CONTINUOUS
 62
    47
 10
13.174295
 20
-34.480765
 11
13.924295
 21
-34.480765
  0
LINE
  8
型材断面
  6
CONTINUOUS
 62
    47
 10
13.924295
 20
-34.480765
 11
13.924295
 21
-26.080765
  0
LINE
  8
型材断面
  6
CONTINUOUS
 62
    47
 10
13.924295
 20
-26.080765
 11
11.424293
 21
-26.080765
  0
LINE
  8
型材断面
  6
CONTINUOUS
 62
    47
 10
11.424293
 20
-26.080765
 11
11.424293
 21
-26.830765
  0
LINE
  8
型材断面
  6
CONTINUOUS
 62
    47
 10
13.174295
 20
-26.830765
 11
11.424293
 21
-26.830765
  0
LINE
  8
型材断面
  6
CONTINUOUS
 62
    47
 10
13.174295
 20
-32.080765
 11
13.174295
 21
-26.830765
  0
LINE
  8
型材断面
  6
CONTINUOUS
 62
    47
 10
-24.825705
 20
-32.080765
 11
13.174295
 21
-32.080765
  0
LINE
  8
型材断面
  6
CONTINUOUS
 62
    47
 10
-3.325702
 20
-33.080765
 11
13.174295
 21
-33.080765
  0
LINE
  8
型材断面
  6
CONTINUOUS
 62
    47
 10
-3.325702
 20
-38.330765
 11
-3.325702
 21
-33.080765
  0
LINE
  8
型材断面
  6
CONTINUOUS
 62
    47
 10
-24.825705
 20
-2.580768
 11
-24.825705
 21
-5.080768
  0
LINE
  8
型材断面
  6
CONTINUOUS
 62
    47
 10
-24.825705
 20
-2.580768
 11
-23.075708
 21
-0.830765
  0
LINE
  8
型材断面
  6
CONTINUOUS
 62
    47
 10
-23.075708
 20
-0.080765
 11
-23.075708
 21
-0.830765
  0
LINE
  8
型材断面
  6
CONTINUOUS
 62
    47
 10
-19.675702
 20
-0.080765
 11
-23.075708
 21
-0.080765
  0
LINE
  8
型材断面
  6
CONTINUOUS
 62
    47
 10
-17.4757
 20
-0.080765
 11
-16.075705
 21
-0.080765
  0
LINE
  8
型材断面
  6
CONTINUOUS
 62
    47
 10
-16.075705
 20
0.919235
 11
-16.075705
 21
-0.080765
  0
LINE
  8
型材断面
  6
CONTINUOUS
 62
    47
 10
-16.075705
 20
0.919235
 11
-14.825708
 21
0.919235
  0
LINE
  8
型材断面
  6
CONTINUOUS
 62
    47
 10
-14.825708
 20
1.770327
 11
-14.825708
 21
0.919235
  0
ARC
  8
型材断面
  6
CONTINUOUS
 62
    47
 10
-14.975702
 20
1.769233
 40
0.15
 50
0.41843
 51
90.0
  0
LINE
  8
型材断面
  6
CONTINUOUS
 62
    47
 10
-14.975702
 20
1.919232
 11
-17.92791
 21
1.919232
  0
ARC
  8
型材断面
  6
CONTINUOUS
 62
    47
 10
-17.92791
 20
1.769234
 40
0.15
 50
90.0
 51
179.743765
  0
LINE
  8
型材断面
  6
CONTINUOUS
 62
    47
 10
-18.07791
 20
1.669232
 11
-18.07791
 21
1.769905
  0
LINE
  8
型材断面
  6
CONTINUOUS
 62
    47
 10
-18.07791
 20
1.669232
 11
-18.577908
 21
1.669232
  0
LINE
  8
型材断面
  6
CONTINUOUS
 62
    47
 10
-18.577908
 20
1.769232
 11
-18.577908
 21
1.669232
  0
ARC
  8
型材断面
  6
CONTINUOUS
 62
    47
 10
-18.727909
 20
1.769234
 40
0.150001
 50
0.0
 51
89.852063
  0
LINE
  8
型材断面
  6
CONTINUOUS
 62
    47
 10
-20.677908
 20
1.919232
 11
-18.727523
 21
1.919232
  0
LINE
  8
型材断面
  6
CONTINUOUS
 62
    47
 10
-20.827908
 20
1.769232
 11
-20.677908
 21
1.919232
  0
LINE
  8
型材断面
  6
CONTINUOUS
 62
    47
 10
-20.827908
 20
1.769232
 11
-20.977908
 21
1.919232
  0
LINE
  8
型材断面
  6
CONTINUOUS
 62
    47
 10
-24.825705
 20
1.919232
 11
-20.977908
 21
1.919232
  0
LINE
  8
型材断面
  6
CONTINUOUS
 62
    47
 10
-24.825705
 20
1.919232
 11
-24.825705
 21
16.91998
  0
LINE
  8
型材断面
  6
CONTINUOUS
 62
    47
 10
-24.825705
 20
16.91998
 11
-25.575705
 21
16.91998
  0
LINE
  8
型材断面
  6
CONTINUOUS
 62
    47
 10
-25.575705
 20
16.91998
 11
-25.575705
 21
15.519238
  0
LINE
  8
型材断面
  6
CONTINUOUS
 62
    47
 10
-25.575705
 20
11.419235
 11
-25.575705
 21
14.919238
  0
LINE
  8
型材断面
  6
CONTINUOUS
 62
    47
 10
-32.3235
 20
14.919238
 11
-32.3235
 21
13.519235
  0
LINE
  8
型材断面
  6
CONTINUOUS
 62
    47
 10
-32.3235
 20
14.919238
 11
-31.323502
 21
14.919238
  0
LINE
  8
型材断面
  6
CONTINUOUS
 62
    47
 10
-31.323502
 20
15.519238
 11
-31.323502
 21
14.919238
  0
LINE
  8
型材断面
  6
CONTINUOUS
 62
    47
 10
-33.0735
 20
15.519238
 11
-31.323502
 21
15.519238
  0
LINE
  8
型材断面
  6
CONTINUOUS
 62
    47
 10
-33.0735
 20
15.519238
 11
-33.0735
 21
12.769235
  0
ARC
  8
型材断面
  6
CONTINUOUS
 62
    47
 10
-44.075701
 20
10.919238
 40
0.5
 50
90.0
 51
180.0
  0
LINE
  8
型材断面
  6
CONTINUOUS
 62
    47
 10
-43.5757
 20
10.669235
 11
-43.5757
 21
4.544238
  0
LINE
  8
型材断面
  6
CONTINUOUS
 62
    47
 10
-25.575705
 20
10.669235
 11
-43.5757
 21
10.669235
  0
LINE
  8
型材断面
  6
CONTINUOUS
 62
    47
 10
-25.575705
 20
1.919238
 11
-25.575705
 21
10.669235
  0
LINE
  8
型材断面
  6
CONTINUOUS
 62
    47
 10
-44.575702
 20
10.919238
 11
-44.575702
 21
4.069235
  0
LINE
  8
型材断面
  6
CONTINUOUS
 62
    47
 10
-44.425702
 20
3.919235
 11
-44.575702
 21
4.069235
  0
LINE
  8
型材断面
  6
CONTINUOUS
 62
    47
 10
-44.425702
 20
3.919235
 11
-44.575702
 21
3.769235
  0
LINE
  8
型材断面
  6
CONTINUOUS
 62
    47
 10
-44.575702
 20
-26.680765
 11
-44.575702
 21
3.769235
  0
LINE
  8
型材断面
  6
CONTINUOUS
 62
    47
 10
-44.425702
 20
-26.830765
 11
-44.575702
 21
-26.680765
  0
LINE
  8
型材断面
  6
CONTINUOUS
 62
    47
 10
-44.425702
 20
-26.830765
 11
-44.575702
 21
-26.980765
  0
LINE
  8
型材断面
  6
CONTINUOUS
 62
    47
 10
-44.575702
 20
-26.980765
 11
-44.575702
 21
-35.430768
  0
LINE
  8
型材断面
  6
CONTINUOUS
 62
    47
 10
-44.425702
 20
-35.580768
 11
-44.575702
 21
-35.430768
  0
LINE
  8
型材断面
  6
CONTINUOUS
 62
    47
 10
-44.575702
 20
-35.730767
 11
-44.425702
 21
-35.580768
  0
LINE
  8
型材断面
  6
CONTINUOUS
 62
    47
 10
-44.575702
 20
-35.730767
 11
-44.575702
 21
-38.330765
  0
LINE
  8
型材断面
  6
CONTINUOUS
 62
    47
 10
-44.575702
 20
-38.330765
 11
-37.075702
 21
-38.330765
  0
LINE
  8
型材断面
  6
CONTINUOUS
 62
    47
 10
-43.5757
 20
-37.580765
 11
-43.5757
 21
-27.455763
  0
LINE
  8
型材断面
  6
CONTINUOUS
 62
    47
 10
-37.075702
 20
-37.580765
 11
-43.5757
 21
-37.580765
  0
ARC
  8
型材断面
  6
CONTINUOUS
 62
    47
 10
-18.575702
 20
-0.080767
 40
1.1
 50
179.999896
 51
360.000104
  0
LINE
  8
型材断面
  6
CONTINUOUS
 62
    47
 10
-25.575705
 20
15.519238
 11
-28.773502
 21
15.519238
  0
LINE
  8
型材断面
  6
CONTINUOUS
 62
    47
 10
-28.773502
 20
15.519238
 11
-28.773502
 21
14.919238
  0
LINE
  8
型材断面
  6
CONTINUOUS
 62
    47
 10
-25.575705
 20
14.919238
 11
-28.773502
 21
14.919238
  0
LINE
  8
型材断面
  6
CONTINUOUS
 62
    47
 10
-25.575705
 20
11.419235
 11
-30.573498
 21
11.419235
  0
LINE
  8
型材断面
  6
CONTINUOUS
 62
    47
 10
-30.573498
 20
11.419235
 11
-30.573498
 21
13.519235
  0
LINE
  8
型材断面
  6
CONTINUOUS
 62
    47
 10
-30.573498
 20
13.519235
 11
-32.3235
 21
13.519235
  0
LINE
  8
型材断面
  6
CONTINUOUS
 62
    47
 10
-33.0735
 20
12.769235
 11
-31.323498
 21
12.769235
  0
LINE
  8
型材断面
  6
CONTINUOUS
 62
    47
 10
-31.323498
 20
11.419235
 11
-31.323498
 21
12.769235
  0
LINE
  8
型材断面
  6
CONTINUOUS
 62
    47
 10
-44.075702
 20
11.419235
 11
-31.323498
 21
11.419235
  0
LINE
  8
型材断面
  6
CONTINUOUS
 62
    47
 10
-25.736295
 20
-5.080768
 11
-24.825705
 21
-5.080768
  0
ARC
  8
型材断面
  6
CONTINUOUS
 62
    47
 10
-25.736293
 20
-4.930768
 40
0.15
 50
211.24842
 51
270.0
  0
LINE
  8
型材断面
  6
CONTINUOUS
 62
    47
 10
-25.736295
 20
-13.080768
 11
-24.825705
 21
-13.080768
  0
ARC
  8
型材断面
  6
CONTINUOUS
 62
    47
 10
-25.736294
 20
-13.230765
 40
0.15
 50
90.0
 51
148.751559
  0
LINE
  8
型材断面
  6
CONTINUOUS
 62
    47
 10
-41.417755
 20
-8.705765
 11
-43.5757
 21
-8.705765
  0
LINE
  8
型材断面
  6
CONTINUOUS
 62
    47
 10
-41.417755
 20
-9.455765
 11
-43.5757
 21
-9.455765
  0
ARC
  8
型材断面
  6
CONTINUOUS
 62
    47
 10
-32.575702
 20
-9.080765
 40
8.85
 50
182.428514
 51
270.0
  0
LINE
  8
型材断面
  6
CONTINUOUS
 62
    47
 10
-32.575702
 20
-17.930765
 11
-25.825705
 21
-17.930765
  0
LINE
  8
型材断面
  6
CONTINUOUS
 62
    47
 10
-25.825705
 20
-21.455765
 11
-25.825705
 21
-17.930765
  0
ARC
  8
型材断面
  6
CONTINUOUS
 62
    47
 10
-32.575702
 20
-9.080765
 40
8.85
 50
90.0
 51
177.571486
  0
LINE
  8
型材断面
  6
CONTINUOUS
 62
    47
 10
-32.575702
 20
-0.230765
 11
-26.575705
 21
-0.230765
  0
LINE
  8
型材断面
  6
CONTINUOUS
 62
    47
 10
-26.575705
 20
-0.230765
 11
-26.575705
 21
1.419235
  0
LINE
  8
型材断面
  6
CONTINUOUS
 62
    47
 10
-24.825705
 20
-33.080765
 11
-8.3257
 21
-33.080765
  0
LINE
  8
型材断面
  6
CONTINUOUS
 62
    47
 10
-8.3257
 20
-38.330765
 11
-8.3257
 21
-37.330765
  0
LINE
  8
型材断面
  6
CONTINUOUS
 62
    47
 10
-8.3257
 20
-37.330765
 11
-4.325702
 21
-37.330765
  0
LINE
  8
型材断面
  6
CONTINUOUS
 62
    47
 10
-7.5757
 20
-33.080765
 11
-4.325702
 21
-33.080765
  0
LINE
  8
型材断面
  6
CONTINUOUS
 62
    47
 10
-7.5757
 20
-34.480765
 11
-7.5757
 21
-33.080765
  0
LINE
  8
型材断面
  6
CONTINUOUS
 62
    47
 10
-8.3257
 20
-34.480765
 11
-8.3257
 21
-33.080765
  0
LINE
  8
型材断面
  6
CONTINUOUS
 62
    47
 10
-8.3257
 20
-34.480765
 11
-7.5757
 21
-34.480765
  0
LINE
  8
型材断面
  6
CONTINUOUS
 62
    47
 10
-24.825705
 20
-34.480765
 11
-24.825705
 21
-33.080765
  0
LINE
  8
型材断面
  6
CONTINUOUS
 62
    47
 10
-36.325702
 20
-34.480765
 11
-24.825705
 21
-34.480765
  0
ARC
  8
型材断面
  6
CONTINUOUS
 62
    47
 10
-32.575702
 20
-9.080765
 40
7.85
 50
31.248418
 51
328.751561
  0
LINE
  8
型材断面
  6
CONTINUOUS
 62
    47
 10
-25.575705
 20
15.269238
 11
-25.575705
 21
15.16924
  0
ENDBLK
  0
BLOCK
  2
*GRP_0058
 70
    65
 10
0.0
 20
0.0
  0
LINE
  8
型材断面
  6
CONTINUOUS
 10
-12.724005
 20
63.269925
 11
-12.724005
 21
55.269923
  0
LINE
  8
型材断面
  6
CONTINUOUS
 10
-0.924007
 20
63.269925
 11
-12.724005
 21
63.269925
  0
ARC
  8
型材断面
  6
CONTINUOUS
 10
-0.473999
 20
64.119929
 40
0.15
 50
0.0
 51
90.0
  0
LINE
  8
型材断面
  6
CONTINUOUS
 10
-0.924007
 20
63.269925
 11
-0.924007
 21
62.919925
  0
ARC
  8
型材断面
  6
CONTINUOUS
 10
-0.773999
 20
62.919929
 40
0.15
 50
180.0
 51
270.0
  0
LINE
  8
型材断面
  6
CONTINUOUS
 10
-0.474007
 20
62.769925
 11
-0.774007
 21
62.769925
  0
LINE
  8
型材断面
  6
CONTINUOUS
 10
-0.324007
 20
62.919925
 11
-0.324007
 21
64.119925
  0
ARC
  8
型材断面
  6
CONTINUOUS
 10
-0.473999
 20
62.919929
 40
0.15
 50
270.0
 51
360.0
  0
LINE
  8
型材断面
  6
CONTINUOUS
 10
-0.474007
 20
64.269925
 11
-13.574005
 21
64.269925
  0
LINE
  8
型材断面
  6
CONTINUOUS
 10
-13.724005
 20
64.119925
 11
-13.724005
 21
62.019923
  0
ARC
  8
型材断面
  6
CONTINUOUS
 10
-13.573999
 20
64.119929
 40
0.15
 50
90.0
 51
180.0
  0
LINE
  8
型材断面
  6
CONTINUOUS
 10
-13.724005
 20
61.269923
 11
-13.724005
 21
54.419925
  0
ARC
  8
型材断面
  6
CONTINUOUS
 10
-13.573999
 20
54.419929
 40
0.15
 50
180.0
 51
270.0
  0
LINE
  8
型材断面
  6
CONTINUOUS
 10
-11.524005
 20
54.269925
 11
-13.574005
 21
54.269925
  0
ARC
  8
型材断面
  6
CONTINUOUS
 10
-11.523999
 20
54.419929
 40
0.15
 50
270.0
 51
360.0
  0
LINE
  8
型材断面
  6
CONTINUOUS
 10
-11.374005
 20
55.119923
 11
-11.374005
 21
54.419925
  0
LINE
  8
型材断面
  6
CONTINUOUS
 10
-11.524005
 20
55.269923
 11
-12.724005
 21
55.269923
  0
ARC
  8
型材断面
  6
CONTINUOUS
 10
-11.523999
 20
55.119929
 40
0.15
 50
0.0
 51
90.0
  0
LINE
  8
型材断面
  6
CONTINUOUS
 10
-14.474005
 20
62.019923
 11
-13.724005
 21
62.019923
  0
ARC
  8
型材断面
  6
CONTINUOUS
 10
-14.473999
 20
61.869929
 40
0.15
 50
90.0
 51
180.0
  0
LINE
  8
型材断面
  6
CONTINUOUS
 10
-14.624005
 20
61.869923
 11
-14.624005
 21
61.419923
  0
LINE
  8
型材断面
  6
CONTINUOUS
 10
-14.474005
 20
61.269923
 11
-13.724005
 21
61.269923
  0
ARC
  8
型材断面
  6
CONTINUOUS
 10
-14.473999
 20
61.419929
 40
0.15
 50
180.0
 51
270.0
  0
ENDBLK
  0
BLOCK
  2
*GRP_0059
 70
    65
 10
0.0
 20
0.0
  0
LINE
  8
ゴム等
  6
CONTINUOUS
 10
-5.925685
 20
56.769928
 11
-0.925688
 21
56.769928
  0
LINE
  8
ゴム等
  6
CONTINUOUS
 10
-0.925688
 20
56.769928
 11
-0.925688
 21
54.269925
  0
LINE
  8
ゴム等
  6
CONTINUOUS
 10
-0.925688
 20
54.269925
 11
-5.925685
 21
54.269925
  0
LINE
  8
ゴム等
  6
CONTINUOUS
 10
-5.925685
 20
56.769928
 11
-5.925685
 21
54.269925
  0
INSERT
  2
*HAT_0002
  8
ゴム等
 10
0.0
 20
0.0
  0
ENDBLK
  0
BLOCK
  2
*GRP_0060
 70
    65
 10
0.0
 20
0.0
  0
LINE
  8
ゴム等
  6
CONTINUOUS
 10
-0.924007
 20
63.269925
 11
-0.924007
 21
60.169925
  0
LINE
  8
ゴム等
  6
CONTINUOUS
 10
-0.924007
 20
60.169925
 11
-5.924005
 21
60.169925
  0
LINE
  8
ゴム等
  6
CONTINUOUS
 10
-5.924005
 20
60.169925
 11
-5.924005
 21
63.269925
  0
LINE
  8
ゴム等
  6
CONTINUOUS
 10
-0.924007
 20
63.269925
 11
-5.924005
 21
63.269925
  0
INSERT
  2
*HAT_0003
  8
ゴム等
 10
0.0
 20
0.0
  0
ENDBLK
  0
BLOCK
  2
*GRP_0061
 70
    65
 10
0.0
 20
0.0
  0
LINE
  8
ボルト／ビス
  6
CONTINUOUS
 10
-30.32566
 20
67.171717
 11
-30.32566
 21
68.17172
  0
LINE
  8
ボルト／ビス
  6
CONTINUOUS
 10
-30.32566
 20
68.17172
 11
-19.325658
 21
68.17172
  0
LINE
  8
ボルト／ビス
  6
CONTINUOUS
 10
-19.325658
 20
68.17172
 11
-19.325658
 21
67.171717
  0
LINE
  8
ボルト／ビス
  6
CONTINUOUS
 10
-30.32566
 20
67.171717
 11
-19.325658
 21
67.171717
  0
LINE
  8
ボルト／ビス
  6
CONTINUOUS
 10
-29.32566
 20
68.671717
 11
-29.32566
 21
68.17172
  0
LINE
  8
ボルト／ビス
  6
CONTINUOUS
 10
-29.32566
 20
68.671717
 11
-20.32566
 21
68.671717
  0
LINE
  8
ボルト／ビス
  6
CONTINUOUS
 10
-20.32566
 20
68.671717
 11
-20.32566
 21
68.17172
  0
LINE
  8
ボルト／ビス
  6
CONTINUOUS
 62
    64
 10
-27.231285
 20
71.671717
 11
-27.71241
 21
71.496605
  0
ARC
  8
ボルト／ビス
  6
CONTINUOUS
 62
    64
 10
-26.99072
 20
70.097042
 40
1.574676
 50
62.721967
 51
90.0
  0
ARC
  8
ボルト／ビス
  6
CONTINUOUS
 62
    64
 10
-24.825657
 20
65.635684
 40
6.036034
 50
76.165002
 51
103.834985
  0
LINE
  8
ボルト／ビス
  6
CONTINUOUS
 62
    64
 10
-22.420035
 20
71.671717
 11
-21.93891
 21
71.496605
  0
ARC
  8
ボルト／ビス
  6
CONTINUOUS
 62
    64
 10
-22.660593
 20
70.097042
 40
1.574676
 50
90.0
 51
117.278033
  0
LINE
  8
ボルト／ビス
  6
CONTINUOUS
 62
    64
 10
-27.231285
 20
71.671717
 11
-22.420035
 21
71.671717
  0
LINE
  8
ボルト／ビス
  6
CONTINUOUS
 62
    64
 10
-21.93891
 20
71.496605
 11
-21.93891
 21
69.67172
  0
LINE
  8
ボルト／ビス
  6
CONTINUOUS
 62
    64
 10
-23.382285
 20
71.496605
 11
-23.382285
 21
69.67172
  0
LINE
  8
ボルト／ビス
  6
CONTINUOUS
 62
    64
 10
-27.71241
 20
71.496605
 11
-27.71241
 21
69.67172
  0
LINE
  8
ボルト／ビス
  6
CONTINUOUS
 62
    64
 10
-26.269035
 20
71.496605
 11
-26.269035
 21
69.67172
  0
LINE
  8
ボルト／ビス
  6
CONTINUOUS
 10
-27.71241
 20
69.67172
 11
-21.93891
 21
69.67172
  0
LINE
  8
ボルト／ビス
  6
CONTINUOUS
 10
-27.82566
 20
69.67172
 11
-27.82566
 21
68.671717
  0
LINE
  8
ボルト／ビス
  6
CONTINUOUS
 10
-27.82566
 20
69.67172
 11
-21.82566
 21
69.67172
  0
LINE
  8
ボルト／ビス
  6
CONTINUOUS
 10
-21.82566
 20
69.67172
 11
-21.82566
 21
68.671717
  0
LINE
  8
ボルト／ビス
  6
CONTINUOUS
 62
    64
 10
-25.97566
 20
67.171717
 11
-25.97566
 21
57.171723
  0
LINE
  8
ボルト／ビス
  6
CONTINUOUS
 62
    64
 10
-23.675658
 20
67.171717
 11
-23.675658
 21
57.171723
  0
LINE
  8
ボルト／ビス
  6
CONTINUOUS
 62
    64
 10
-25.97566
 20
57.171723
 11
-23.675658
 21
57.171723
  0
LINE
  8
ボルト／ビス
  6
CONTINUOUS
 62
    64
 10
-23.32566
 20
57.67172
 11
-23.675658
 21
57.171723
  0
LINE
  8
ボルト／ビス
  6
CONTINUOUS
 62
    64
 10
-26.32566
 20
57.67172
 11
-25.97566
 21
57.171723
  0
LINE
  8
ボルト／ビス
  6
CONTINUOUS
 62
    64
 10
-26.32566
 20
57.67172
 11
-23.32566
 21
57.67172
  0
LINE
  8
ボルト／ビス
  6
CONTINUOUS
 62
    64
 10
-25.97566
 20
57.171723
 11
-23.675658
 21
57.171723
  0
LINE
  8
ボルト／ビス
  6
CONTINUOUS
 62
    64
 10
-23.32566
 20
67.171717
 11
-23.32566
 21
57.67172
  0
LINE
  8
ボルト／ビス
  6
CONTINUOUS
 62
    64
 10
-26.32566
 20
67.171717
 11
-26.32566
 21
57.67172
  0
ENDBLK
  0
BLOCK
  2
*DIM_0062
 70
    65
 10
0.0
 20
0.0
  0
LINE
  8
寸法
  6
BYBLOCK
 62
     0
 10
60.614732
 20
53.271615
 11
60.614732
 21
56.769928
  0
POINT
  8
寸法
 62
     0
 10
60.614732
 20
53.271615
  0
POINT
  8
寸法
 62
     0
 10
60.614732
 20
56.769928
  0
TEXT
  7
TextStyle03
  8
寸法
  6
CONTINUOUS
 62
     0
 10
60.225
 20
54.25
  1
7
 40
3.0
 50
90.0
 72
     5
 11
60.225
 21
55.75
  0
ENDBLK
  0
BLOCK
  2
*DIM_0063
 70
    65
 10
0.0
 20
0.0
  0
LINE
  8
寸法
  6
BYBLOCK
 62
     0
 10
60.614732
 20
56.769928
 11
60.614732
 21
60.16993
  0
POINT
  8
寸法
 62
     0
 10
60.614732
 20
60.16993
  0
TEXT
  7
TextStyle03
  8
寸法
  6
CONTINUOUS
 62
     0
 10
63.6
 20
56.0125
  1
6.8
 40
3.0
 50
90.0
 72
     5
 11
63.6
 21
60.8875
  0
ENDBLK
  0
BLOCK
  2
*GRP_0064
 70
    65
 10
0.0
 20
0.0
  0
POLYLINE
  8
寸法
  6
BYBLOCK
 62
     0
 66
     1
  0
VERTEX
  8
寸法
 10
-7.024005
 20
64.269925
  0
VERTEX
  8
寸法
 10
0.31812
 20
71.612053
  0
VERTEX
  8
寸法
 10
18.123275
 20
71.612053
  0
SEQEND
  0
ENDBLK
  0
BLOCK
  2
*GRP_0065
 70
    65
 10
0.0
 20
0.0
  0
POLYLINE
  8
寸法
  6
BYBLOCK
 62
     0
 66
     1
  0
VERTEX
  8
寸法
 10
-0.8
 20
61.375
  0
VERTEX
  8
寸法
 10
4.571983
 20
66.746983
  0
VERTEX
  8
寸法
 10
17.999137
 20
66.746983
  0
SEQEND
  0
ENDBLK
  0
BLOCK
  2
*GRP_0066
 70
    65
 10
0.0
 20
0.0
  0
POLYLINE
  8
寸法
  6
BYBLOCK
 62
     0
 66
     1
  0
VERTEX
  8
寸法
 10
16.813793
 20
103.23793
  0
VERTEX
  8
寸法
 10
21.63362
 20
98.418102
  0
VERTEX
  8
寸法
 10
23.613793
 20
98.418102
  0
SEQEND
  0
ENDBLK
  0
BLOCK
  2
*DIM_0067
 70
    65
 10
0.0
 20
0.0
  0
LINE
  8
寸法
  6
BYBLOCK
 62
     0
 10
-39.825685
 20
70.1717
 11
-39.825685
 21
113.156712
  0
LINE
  8
寸法
  6
BYBLOCK
 62
     0
 10
-14.825708
 20
113.156712
 11
-39.825685
 21
113.156712
  0
POINT
  8
寸法
 62
     0
 10
-14.825708
 20
113.156712
  0
POINT
  8
寸法
 62
     0
 10
-39.825685
 20
113.156712
  0
TEXT
  7
TextStyle03
  8
寸法
  6
CONTINUOUS
 62
     0
 10
-28.94375
 20
113.525
  1
50
 40
3.0
 72
     5
 11
-25.75625
 21
113.525
  0
ENDBLK
  0
BLOCK
  2
*DIM_0068
 70
    65
 10
0.0
 20
0.0
  0
LINE
  8
寸法
  6
BYBLOCK
 62
     0
 10
-24.825658
 20
74.671717
 11
-24.825658
 21
108.57773
  0
LINE
  8
寸法
  6
BYBLOCK
 62
     0
 10
-14.825708
 20
108.57773
 11
-24.825658
 21
108.57773
  0
POINT
  8
寸法
 62
     0
 10
-14.825708
 20
108.57773
  0
POINT
  8
寸法
 62
     0
 10
-24.825658
 20
108.57773
  0
TEXT
  7
TextStyle03
  8
寸法
  6
CONTINUOUS
 62
     0
 10
-21.44375
 20
108.95
  1
20
 40
3.0
 72
     5
 11
-18.25625
 21
108.95
  0
ENDBLK
  0
BLOCK
  2
*DIM_0069
 70
    65
 10
0.0
 20
0.0
  0
LINE
  8
寸法
  6
BYBLOCK
 62
     0
 10
-39.825685
 20
73.1717
 11
-39.825685
 21
108.57773
  0
LINE
  8
寸法
  6
BYBLOCK
 62
     0
 10
-24.825658
 20
108.57773
 11
-39.825685
 21
108.57773
  0
POINT
  8
寸法
 62
     0
 10
-39.825685
 20
108.57773
  0
TEXT
  7
TextStyle03
  8
寸法
  6
CONTINUOUS
 62
     0
 10
-33.94375
 20
108.95
  1
30
 40
3.0
 72
     5
 11
-30.75625
 21
108.95
  0
ENDBLK
  0
BLOCK
  2
*GRP_0070
 70
    65
 10
0.0
 20
0.0
  0
POLYLINE
  8
寸法
  6
BYBLOCK
 62
     0
 66
     1
  0
VERTEX
  8
寸法
 10
46.21931
 20
58.906815
  0
VERTEX
  8
寸法
 10
51.227225
 20
63.914727
  0
VERTEX
  8
寸法
 10
53.889768
 20
63.914727
  0
SEQEND
  0
ENDBLK
  0
BLOCK
  2
*GRP_0071
 70
    65
 10
0.0
 20
0.0
  0
LINE
  8
ボルト／ビス
  6
CONTINUOUS
 62
    64
 10
-49.050713
 20
-57.630002
 11
-49.050713
 21
-92.500353
  0
LINE
  8
ボルト／ビス
  6
CONTINUOUS
 62
    64
 10
-50.800637
 20
-61.58434
 11
-50.447125
 21
-61.230577
  0
LINE
  8
ボルト／ビス
  6
CONTINUOUS
 62
    64
 10
-50.800637
 20
-61.58434
 11
-50.800637
 21
-64.730565
  0
LINE
  8
ボルト／ビス
  6
CONTINUOUS
 62
    64
 10
-50.800637
 20
-61.58434
 11
-51.15415
 21
-61.230577
  0
LINE
  8
ボルト／ビス
  6
CONTINUOUS
 62
    64
 10
-50.697087
 20
-58.73069
 11
-50.697087
 21
-61.230577
  0
LINE
  8
ボルト／ビス
  6
CONTINUOUS
 62
    64
 10
-53.050663
 20
-64.730565
 11
-53.050663
 21
-65.980627
  0
LINE
  8
ボルト／ビス
  6
CONTINUOUS
 62
    64
 10
-51.05075
 20
-76.23064
 11
-50.697087
 21
-75.877128
  0
LINE
  8
ボルト／ビス
  6
CONTINUOUS
 62
    64
 10
-50.697087
 20
-66.730765
 11
-50.697087
 21
-75.877128
  0
LINE
  8
ボルト／ビス
  6
CONTINUOUS
 62
    64
 10
-51.05075
 20
-80.93029
 11
-52.99185
 21
-88.17479
  0
LINE
  8
ボルト／ビス
  6
CONTINUOUS
 62
    64
 10
-51.05075
 20
-66.730765
 11
-51.05075
 21
-80.93029
  0
LINE
  8
ボルト／ビス
  6
CONTINUOUS
 62
    64
 10
-50.800637
 20
-61.58434
 11
-50.447125
 21
-61.230577
  0
LINE
  8
ボルト／ビス
  6
CONTINUOUS
 62
    64
 10
-47.331013
 20
-61.58434
 11
-46.9775
 21
-61.230577
  0
LINE
  8
ボルト／ビス
  6
CONTINUOUS
 62
    64
 10
-47.331013
 20
-61.58434
 11
-47.331013
 21
-64.730565
  0
LINE
  8
ボルト／ビス
  6
CONTINUOUS
 62
    64
 10
-47.331013
 20
-61.58434
 11
-47.684525
 21
-61.230577
  0
LINE
  8
ボルト／ビス
  6
CONTINUOUS
 62
    64
 10
-47.40425
 20
-58.73069
 11
-47.40425
 21
-61.230577
  0
LINE
  8
ボルト／ビス
  6
CONTINUOUS
 62
    64
 10
-45.050612
 20
-64.730565
 11
-45.050612
 21
-65.980627
  0
LINE
  8
ボルト／ビス
  6
CONTINUOUS
 62
    64
 10
-47.050725
 20
-76.23064
 11
-47.40425
 21
-75.877128
  0
LINE
  8
ボルト／ビス
  6
CONTINUOUS
 62
    64
 10
-47.40425
 20
-66.730765
 11
-47.40425
 21
-75.877128
  0
LINE
  8
ボルト／ビス
  6
CONTINUOUS
 62
    64
 10
-47.050725
 20
-80.93029
 11
-45.109575
 21
-88.17479
  0
LINE
  8
ボルト／ビス
  6
CONTINUOUS
 62
    64
 10
-47.050725
 20
-66.730765
 11
-47.050725
 21
-80.93029
  0
LINE
  8
ボルト／ビス
  6
CONTINUOUS
 62
    64
 10
-47.050725
 20
-59.084202
 11
-47.40425
 21
-58.73069
  0
LINE
  8
ボルト／ビス
  6
CONTINUOUS
 62
    64
 10
-47.050725
 20
-61.230577
 11
-47.050725
 21
-59.084202
  0
LINE
  8
ボルト／ビス
  6
CONTINUOUS
 62
    64
 10
-47.40425
 20
-58.73069
 11
-50.697087
 21
-58.73069
  0
LINE
  8
ボルト／ビス
  6
CONTINUOUS
 62
    64
 10
-50.697087
 20
-58.73069
 11
-51.05075
 21
-59.084202
  0
LINE
  8
ボルト／ビス
  6
CONTINUOUS
 62
    64
 10
-47.050725
 20
-59.084202
 11
-51.05075
 21
-59.084202
  0
LINE
  8
ボルト／ビス
  6
CONTINUOUS
 62
    64
 10
-51.05075
 20
-61.230577
 11
-51.05075
 21
-59.084202
  0
LINE
  8
ボルト／ビス
  6
CONTINUOUS
 62
    64
 10
-53.45065
 20
-61.58434
 11
-53.097138
 21
-61.230577
  0
LINE
  8
ボルト／ビス
  6
CONTINUOUS
 62
    64
 10
-53.45065
 20
-61.58434
 11
-53.45065
 21
-64.730565
  0
LINE
  8
ボルト／ビス
  6
CONTINUOUS
 62
    64
 10
-53.097138
 20
-61.230577
 11
-45.004288
 21
-61.230577
  0
LINE
  8
ボルト／ビス
  6
CONTINUOUS
 62
    64
 10
-44.650775
 20
-61.58434
 11
-45.004288
 21
-61.230577
  0
LINE
  8
ボルト／ビス
  6
CONTINUOUS
 62
    64
 10
-44.650775
 20
-61.58434
 11
-44.650775
 21
-64.730565
  0
LINE
  8
ボルト／ビス
  6
CONTINUOUS
 62
    64
 10
-53.45065
 20
-64.730565
 11
-44.650775
 21
-64.730565
  0
LINE
  8
ボルト／ビス
  6
CONTINUOUS
 62
    64
 10
-44.175625
 20
-65.980627
 11
-44.175625
 21
-66.730765
  0
LINE
  8
ボルト／ビス
  6
CONTINUOUS
 62
    64
 10
-44.175625
 20
-65.980627
 11
-53.925713
 21
-65.980627
  0
LINE
  8
ボルト／ビス
  6
CONTINUOUS
 62
    64
 10
-53.925713
 20
-65.980627
 11
-53.925713
 21
-66.730765
  0
LINE
  8
ボルト／ビス
  6
CONTINUOUS
 62
    64
 10
-44.175625
 20
-66.730765
 11
-53.925713
 21
-66.730765
  0
LINE
  8
ボルト／ビス
  6
CONTINUOUS
 62
    64
 10
-49.050713
 20
-81.259527
 11
-47.05775
 21
-88.696865
  0
LINE
  8
ボルト／ビス
  6
CONTINUOUS
 62
    64
 10
-45.109575
 20
-88.17479
 11
-47.05775
 21
-88.696865
  0
LINE
  8
ボルト／ビス
  6
CONTINUOUS
 62
    64
 10
-49.050713
 20
-81.259527
 11
-51.043537
 21
-88.696865
  0
LINE
  8
ボルト／ビス
  6
CONTINUOUS
 62
    64
 10
-52.99185
 20
-88.17479
 11
-51.043537
 21
-88.696865
  0
LINE
  8
ボルト／ビス
  6
CONTINUOUS
 62
    64
 10
-51.05075
 20
-89.730565
 11
-50.40575
 21
-86.072515
  0
LINE
  8
ボルト／ビス
  6
CONTINUOUS
 62
    64
 10
-47.050725
 20
-89.730565
 11
-47.695675
 21
-86.072515
  0
LINE
  8
ボルト／ビス
  6
CONTINUOUS
 62
    64
 10
-51.05075
 20
-89.730565
 11
-47.050725
 21
-89.730565
  0
LINE
  8
ボルト／ビス
  6
CONTINUOUS
 62
    64
 10
-50.40575
 20
-86.072515
 11
-47.695675
 21
-86.072515
  0
ENDBLK
  0
BLOCK
  2
*GRP_0072
 70
    65
 10
0.0
 20
0.0
  0
LINE
  8
曲げ物
  6
CONTINUOUS
 10
-99.075715
 20
-75.013485
 11
-99.07579
 21
-105.013485
  0
LINE
  8
曲げ物
  6
DOT
 10
-98.575727
 20
-75.013487
 11
-98.575803
 21
-105.013487
  0
LINE
  8
曲げ物
  6
CONTINUOUS
 10
-94.075705
 20
-75.01351
 11
-94.075817
 21
-105.01351
  0
LINE
  8
曲げ物
  6
DOT
 10
-94.57573
 20
-75.013508
 11
-94.575805
 21
-105.013508
  0
LINE
  8
曲げ物
  6
CONTINUOUS
 10
-99.07579
 20
-105.013485
 11
-94.075817
 21
-105.01351
  0
LINE
  8
曲げ物
  6
CONTINUOUS
 10
-99.075715
 20
-75.013485
 11
-94.075705
 21
-75.01351
  0
ENDBLK
  0
BLOCK
  2
*GRP_0073
 70
    65
 10
0.0
 20
0.0
  0
POLYLINE
  8
寸法
  6
CONTINUOUS
 66
     1
  0
VERTEX
  8
寸法
 10
-97.191057
 20
-88.1984
  0
VERTEX
  8
寸法
 10
-110.16389
 20
-101.1711
  0
VERTEX
  8
寸法
 10
-118.567835
 20
-101.171058
  0
SEQEND
  0
ENDBLK
  0
BLOCK
  2
*GRP_0074
 70
    65
 10
0.0
 20
0.0
  0
ARC
  8
St
  6
CONTINUOUS
 62
   127
 10
-30.650724
 20
-66.730766
 40
1.6
 50
-90.0
 51
0.0
  0
LINE
  8
St
  6
CONTINUOUS
 10
-72.87152
 20
-66.730765
 11
-74.471518
 21
-68.330768
  0
LINE
  8
St
  6
CONTINUOUS
 10
-73.225078
 20
-66.730765
 11
-74.825075
 21
-68.330768
  0
LINE
  8
St
  6
CONTINUOUS
 62
   127
 10
-30.650717
 20
-66.730765
 11
-79.050713
 21
-66.730765
  0
LINE
  8
St
  6
CONTINUOUS
 10
-79.050713
 20
-66.730765
 11
-79.050713
 21
-68.330768
  0
LINE
  8
St
  6
CONTINUOUS
 62
   127
 10
-30.650717
 20
-68.330768
 11
-79.050713
 21
-68.330768
  0
LINE
  8
St
  6
CONTINUOUS
 10
-41.24823
 20
-68.330768
 11
-39.648235
 21
-66.730765
  0
LINE
  8
St
  6
CONTINUOUS
 10
-41.601787
 20
-68.330768
 11
-40.001793
 21
-66.730765
  0
LINE
  8
St
  6
CONTINUOUS
 10
-30.650717
 20
-51.206605
 11
-29.050715
 21
-49.6066
  0
LINE
  8
St
  6
CONTINUOUS
 10
-30.650717
 20
-50.853047
 11
-29.050715
 21
-49.253042
  0
LINE
  8
St
  6
CONTINUOUS
 10
-30.650717
 20
-48.330765
 11
-29.050715
 21
-48.330765
  0
LINE
  8
St
  6
CONTINUOUS
 62
   127
 10
-29.050715
 20
-66.730765
 11
-29.050715
 21
-48.330765
  0
LINE
  8
St
  6
CONTINUOUS
 62
   127
 10
-30.650717
 20
-66.730765
 11
-30.650717
 21
-48.330765
  0
LINE
  8
St
  6
DOT
 10
-26.627155
 20
-55.830765
 11
-32.951525
 21
-55.830765
  0
LINE
  8
St
  6
DOT
 62
   127
 10
-54.933313
 20
-69.628457
 11
-54.933313
 21
-69.628455
  0
LINE
  8
St
  6
DOT
 10
-44.050715
 20
-66.730765
 11
-44.050715
 21
-68.330768
  0
LINE
  8
St
  6
DOT
 10
-54.050713
 20
-66.730765
 11
-54.050713
 21
-68.330768
  0
LINE
  8
St
  6
DOT
 10
-61.550713
 20
-66.730765
 11
-61.550713
 21
-68.330768
  0
LINE
  8
St
  6
DOT
 10
-66.550715
 20
-66.730765
 11
-66.550715
 21
-68.330768
  0
LINE
  8
St
  6
DOT
 10
-49.050713
 20
-64.698797
 11
-49.050713
 21
-70.438097
  0
LINE
  8
St
  6
DOT
 62
   127
 10
-54.050713
 20
-67.130768
 11
-44.050715
 21
-67.130768
  0
LINE
  8
St
  6
DOT
 62
   127
 10
-54.050713
 20
-67.530765
 11
-44.050715
 21
-67.530765
  0
LINE
  8
St
  6
DOT
 62
   127
 10
-54.050713
 20
-67.930765
 11
-44.050715
 21
-67.930765
  0
LINE
  8
St
  6
DOT
 10
-61.550713
 20
-67.130768
 11
-66.550715
 21
-67.130768
  0
LINE
  8
St
  6
DOT
 10
-61.550713
 20
-67.530765
 11
-66.550715
 21
-67.530765
  0
LINE
  8
St
  6
DOT
 10
-61.550713
 20
-67.930765
 11
-66.550715
 21
-67.930765
  0
LINE
  8
St
  6
DOT
 10
-64.050713
 20
-64.698797
 11
-64.050713
 21
-70.438097
  0
LINE
  8
St
  6
DOT
 10
-29.050715
 20
-66.730765
 11
-30.650717
 21
-66.730765
  0
LINE
  8
St
  6
DOT
 10
-29.050715
 20
-50.830763
 11
-30.650717
 21
-50.830763
  0
LINE
  8
St
  6
DOT
 10
-30.650717
 20
-57.330765
 11
-29.050715
 21
-57.330765
  0
LINE
  8
St
  6
DOT
 10
-30.650717
 20
-54.330765
 11
-29.050715
 21
-54.330765
  0
LINE
  8
St
  6
DOT
 62
   127
 10
-30.250715
 20
-66.730765
 11
-30.250715
 21
-50.830763
  0
LINE
  8
St
  6
DOT
 62
   127
 10
-29.850717
 20
-66.730765
 11
-29.850717
 21
-50.830763
  0
LINE
  8
St
  6
DOT
 62
   127
 10
-29.450717
 20
-66.730765
 11
-29.450717
 21
-50.830763
  0
ENDBLK
  0
BLOCK
  2
*GRP_0075
 70
    65
 10
0.0
 20
0.0
  0
INSERT
  2
*GRP_0076
  8
補助線
  6
DOT
 10
0.0
 20
0.0
  0
INSERT
  2
*GRP_0077
  8
補助線
  6
DOT
 10
0.0
 20
0.0
  0
LINE
  8
St
  6
CONTINUOUS
 62
   127
 10
-11.8235
 20
35.044977
 11
-11.8235
 21
25.794985
  0
LINE
  8
St
  6
CONTINUOUS
 62
   127
 10
-20.823505
 20
36.669988
 11
-23.7235
 21
36.669988
  0
LINE
  8
St
  6
CONTINUOUS
 62
   127
 10
-23.7235
 20
36.669988
 11
-23.7235
 21
24.169985
  0
LINE
  8
St
  6
CONTINUOUS
 62
   127
 10
-20.823505
 20
24.169985
 11
-23.7235
 21
24.169985
  0
LINE
  8
St
  6
CONTINUOUS
 62
   127
 10
-20.823505
 20
36.669988
 11
-20.823505
 21
24.169985
  0
LINE
  8
St
  6
CONTINUOUS
 62
   127
 10
-16.074652
 20
26.533273
 11
-16.074652
 21
34.306773
  0
LINE
  8
St
  6
CONTINUOUS
 62
   127
 10
-15.574628
 20
26.533273
 11
-15.574628
 21
34.306773
  0
LINE
  8
St
  6
CONTINUOUS
 62
   127
 10
-15.574628
 20
34.306773
 11
-16.074652
 21
34.306773
  0
LINE
  8
St
  6
CONTINUOUS
 62
   127
 10
-15.574628
 20
26.533273
 11
-16.074652
 21
26.533273
  0
LINE
  8
St
  6
CONTINUOUS
 62
   127
 10
-13.574633
 20
32.82562
 11
-13.749745
 21
33.306715
  0
LINE
  8
St
  6
CONTINUOUS
 62
   127
 10
-13.574633
 20
28.014345
 11
-13.749745
 21
27.53325
  0
LINE
  8
St
  6
CONTINUOUS
 62
   127
 10
-13.574633
 20
32.82562
 11
-13.574633
 21
28.014345
  0
LINE
  8
St
  6
CONTINUOUS
 62
   127
 10
-13.749745
 20
27.53325
 11
-15.574628
 21
27.53325
  0
LINE
  8
St
  6
CONTINUOUS
 62
   127
 10
-13.749745
 20
28.976615
 11
-15.574628
 21
28.976615
  0
LINE
  8
St
  6
CONTINUOUS
 62
   127
 10
-13.749745
 20
33.306715
 11
-15.574628
 21
33.306715
  0
LINE
  8
St
  6
CONTINUOUS
 62
   127
 10
-13.749745
 20
31.86335
 11
-15.574628
 21
31.86335
  0
LINE
  8
St
  6
CONTINUOUS
 62
   127
 10
-15.574628
 20
27.53325
 11
-15.574628
 21
33.306715
  0
LINE
  8
St
  6
CONTINUOUS
 62
   127
 10
-20.57463
 20
30.419982
 11
-20.57463
 21
28.045008
  0
LINE
  8
St
  6
CONTINUOUS
 62
   127
 10
-20.57463
 20
28.045008
 11
-20.824605
 21
28.294945
  0
LINE
  8
St
  6
CONTINUOUS
 62
   127
 10
-20.824605
 20
30.419982
 11
-20.824605
 21
28.294945
  0
LINE
  8
St
  6
CONTINUOUS
 62
   127
 10
-20.324655
 20
28.045008
 11
-20.57463
 21
28.045008
  0
LINE
  8
St
  6
CONTINUOUS
 62
   127
 10
-17.34988
 20
21.67004
 11
-17.34988
 21
30.419982
  0
LINE
  8
St
  6
CONTINUOUS
 62
   127
 10
-19.79939
 20
21.67004
 11
-19.79939
 21
30.419982
  0
LINE
  8
St
  6
CONTINUOUS
 62
   127
 10
-16.57464
 20
30.419982
 11
-16.57464
 21
28.045008
  0
LINE
  8
St
  6
CONTINUOUS
 62
   127
 10
-16.57464
 20
28.045008
 11
-16.324628
 21
28.294945
  0
LINE
  8
St
  6
CONTINUOUS
 62
   127
 10
-16.324628
 20
30.419982
 11
-16.324628
 21
28.294945
  0
LINE
  8
St
  6
CONTINUOUS
 62
   127
 10
-16.82462
 20
28.045008
 11
-16.57464
 21
28.045008
  0
LINE
  8
St
  6
CONTINUOUS
 62
   127
 10
-19.79939
 20
21.67004
 11
-20.074643
 21
21.67004
  0
LINE
  8
St
  6
CONTINUOUS
 62
   127
 10
-20.324655
 20
21.919977
 11
-20.324655
 21
30.419982
  0
LINE
  8
St
  6
CONTINUOUS
 62
   127
 10
-17.34988
 20
21.67004
 11
-17.07463
 21
21.67004
  0
LINE
  8
St
  6
CONTINUOUS
 62
   127
 10
-16.82462
 20
21.919977
 11
-16.82462
 21
30.419982
  0
LINE
  8
St
  6
CONTINUOUS
 62
   127
 10
-20.57463
 20
30.419982
 11
-20.57463
 21
32.79496
  0
LINE
  8
St
  6
CONTINUOUS
 62
   127
 10
-20.57463
 20
32.79496
 11
-20.824605
 21
32.545023
  0
LINE
  8
St
  6
CONTINUOUS
 62
   127
 10
-20.824605
 20
30.419982
 11
-20.824605
 21
32.545023
  0
LINE
  8
St
  6
CONTINUOUS
 62
   127
 10
-20.324655
 20
32.79496
 11
-20.57463
 21
32.79496
  0
LINE
  8
St
  6
CONTINUOUS
 62
   127
 10
-17.34988
 20
39.17
 11
-17.34988
 21
30.419982
  0
LINE
  8
St
  6
CONTINUOUS
 62
   127
 10
-19.79939
 20
39.17
 11
-19.79939
 21
30.419982
  0
LINE
  8
St
  6
CONTINUOUS
 62
   127
 10
-16.57464
 20
30.419982
 11
-16.57464
 21
32.79496
  0
LINE
  8
St
  6
CONTINUOUS
 62
   127
 10
-16.57464
 20
32.79496
 11
-16.324628
 21
32.545023
  0
LINE
  8
St
  6
CONTINUOUS
 62
   127
 10
-16.324628
 20
30.419982
 11
-16.324628
 21
32.545023
  0
LINE
  8
St
  6
CONTINUOUS
 62
   127
 10
-16.82462
 20
32.79496
 11
-16.57464
 21
32.79496
  0
LINE
  8
St
  6
CONTINUOUS
 62
   127
 10
-19.79939
 20
39.17
 11
-20.074643
 21
39.17
  0
LINE
  8
St
  6
CONTINUOUS
 62
   127
 10
-20.324655
 20
38.919985
 11
-20.324655
 21
30.419982
  0
LINE
  8
St
  6
CONTINUOUS
 62
   127
 10
-17.34988
 20
39.17
 11
-17.07463
 21
39.17
  0
LINE
  8
St
  6
CONTINUOUS
 62
   127
 10
-16.82462
 20
38.919985
 11
-16.82462
 21
30.419982
  0
LINE
  8
St
  6
CONTINUOUS
 62
   127
 10
-11.8235
 20
35.044977
 11
-16.82462
 21
35.044977
  0
LINE
  8
St
  6
CONTINUOUS
 62
   127
 10
-20.324655
 20
35.044977
 11
-20.823505
 21
35.044977
  0
LINE
  8
St
  6
CONTINUOUS
 62
   127
 10
-11.8235
 20
25.794985
 11
-16.82462
 21
25.794985
  0
LINE
  8
St
  6
CONTINUOUS
 62
   127
 10
-20.324655
 20
25.794985
 11
-20.823505
 21
25.794985
  0
LINE
  8
St
  6
CONTINUOUS
 62
   127
 10
-26.44086
 20
33.794975
 11
-26.144982
 21
33.794975
  0
LINE
  8
St
  6
CONTINUOUS
 62
   127
 10
-26.44086
 20
27.04498
 11
-26.144982
 21
27.04498
  0
LINE
  8
St
  6
CONTINUOUS
 62
   127
 10
-11.8235
 20
-4.455573
 11
-11.8235
 21
-13.705567
  0
LINE
  8
St
  6
CONTINUOUS
 62
   127
 10
7.378752
 20
-6.58056
 11
2.178752
 21
-6.58056
  0
LINE
  8
St
  6
CONTINUOUS
 62
   127
 10
7.753747
 20
-6.955555
 11
2.178752
 21
-6.955555
  0
LINE
  8
St
  6
CONTINUOUS
 62
   127
 10
7.878765
 20
-11.080562
 11
7.878765
 21
-7.08056
  0
LINE
  8
St
  6
CONTINUOUS
 62
   127
 10
7.378752
 20
-11.580565
 11
7.378752
 21
-6.58056
  0
LINE
  8
St
  6
CONTINUOUS
 62
   127
 10
7.753747
 20
-11.205567
 11
2.178752
 21
-11.205567
  0
LINE
  8
St
  6
CONTINUOUS
 62
   127
 10
7.378752
 20
-11.580565
 11
2.178752
 21
-11.580565
  0
LINE
  8
St
  6
CONTINUOUS
 62
   127
 10
7.378752
 20
-11.580565
 11
7.878765
 21
-11.080562
  0
LINE
  8
St
  6
CONTINUOUS
 62
   127
 10
7.378752
 20
-6.58056
 11
7.878765
 21
-7.08056
  0
LINE
  8
St
  6
CONTINUOUS
 62
   127
 10
-20.823505
 20
-2.83056
 11
-23.7235
 21
-2.83056
  0
LINE
  8
St
  6
CONTINUOUS
 62
   127
 10
-23.7235
 20
-2.83056
 11
-23.7235
 21
-15.330565
  0
LINE
  8
St
  6
CONTINUOUS
 62
   127
 10
-20.823505
 20
-15.330565
 11
-23.7235
 21
-15.330565
  0
LINE
  8
St
  6
CONTINUOUS
 62
   127
 10
-20.823505
 20
-2.83056
 11
-20.823505
 21
-15.330565
  0
LINE
  8
St
  6
CONTINUOUS
 62
   127
 10
-16.074652
 20
-12.967278
 11
-16.074652
 21
-5.193782
  0
LINE
  8
St
  6
CONTINUOUS
 62
   127
 10
-15.574628
 20
-12.967278
 11
-15.574628
 21
-5.193782
  0
LINE
  8
St
  6
CONTINUOUS
 62
   127
 10
-15.574628
 20
-5.193782
 11
-16.074652
 21
-5.193782
  0
LINE
  8
St
  6
CONTINUOUS
 62
   127
 10
-15.574628
 20
-12.967278
 11
-16.074652
 21
-12.967278
  0
LINE
  8
St
  6
CONTINUOUS
 62
   127
 10
-13.574633
 20
-6.674935
 11
-13.749745
 21
-6.193837
  0
LINE
  8
St
  6
CONTINUOUS
 62
   127
 10
-13.574633
 20
-11.486203
 11
-13.749745
 21
-11.967303
  0
LINE
  8
St
  6
CONTINUOUS
 62
   127
 10
-13.574633
 20
-6.674935
 11
-13.574633
 21
-11.486203
  0
LINE
  8
St
  6
CONTINUOUS
 62
   127
 10
-13.749745
 20
-11.967303
 11
-15.574628
 21
-11.967303
  0
LINE
  8
St
  6
CONTINUOUS
 62
   127
 10
-13.749745
 20
-10.523935
 11
-15.574628
 21
-10.523935
  0
LINE
  8
St
  6
CONTINUOUS
 62
   127
 10
-13.749745
 20
-6.193837
 11
-15.574628
 21
-6.193837
  0
LINE
  8
St
  6
CONTINUOUS
 62
   127
 10
-13.749745
 20
-7.637202
 11
-15.574628
 21
-7.637202
  0
LINE
  8
St
  6
CONTINUOUS
 62
   127
 10
-15.574628
 20
-11.967303
 11
-15.574628
 21
-6.193837
  0
LINE
  8
St
  6
CONTINUOUS
 62
   127
 10
-20.57463
 20
-9.080567
 11
-20.57463
 21
-11.455548
  0
LINE
  8
St
  6
CONTINUOUS
 62
   127
 10
-20.57463
 20
-11.455548
 11
-20.824605
 21
-11.205605
  0
LINE
  8
St
  6
CONTINUOUS
 62
   127
 10
-20.824605
 20
-9.080567
 11
-20.824605
 21
-11.205605
  0
LINE
  8
St
  6
CONTINUOUS
 62
   127
 10
-20.324655
 20
-11.455548
 11
-20.57463
 21
-11.455548
  0
LINE
  8
St
  6
CONTINUOUS
 62
   127
 10
-17.34988
 20
-17.83051
 11
-17.34988
 21
-9.080567
  0
LINE
  8
St
  6
CONTINUOUS
 62
   127
 10
-19.79939
 20
-17.83051
 11
-19.79939
 21
-9.080567
  0
LINE
  8
St
  6
CONTINUOUS
 62
   127
 10
-16.57464
 20
-9.080567
 11
-16.57464
 21
-11.455548
  0
LINE
  8
St
  6
CONTINUOUS
 62
   127
 10
-16.57464
 20
-11.455548
 11
-16.324628
 21
-11.205605
  0
LINE
  8
St
  6
CONTINUOUS
 62
   127
 10
-16.324628
 20
-9.080567
 11
-16.324628
 21
-11.205605
  0
LINE
  8
St
  6
CONTINUOUS
 62
   127
 10
-16.82462
 20
-11.455548
 11
-16.57464
 21
-11.455548
  0
LINE
  8
St
  6
CONTINUOUS
 62
   127
 10
-19.79939
 20
-17.83051
 11
-20.074643
 21
-17.83051
  0
LINE
  8
St
  6
CONTINUOUS
 62
   127
 10
-20.324655
 20
-17.580573
 11
-20.324655
 21
-9.080567
  0
LINE
  8
St
  6
CONTINUOUS
 62
   127
 10
-17.34988
 20
-17.83051
 11
-17.07463
 21
-17.83051
  0
LINE
  8
St
  6
CONTINUOUS
 62
   127
 10
-16.82462
 20
-17.580573
 11
-16.82462
 21
-9.080567
  0
LINE
  8
St
  6
CONTINUOUS
 62
   127
 10
-20.57463
 20
-9.080567
 11
-20.57463
 21
-6.70559
  0
LINE
  8
St
  6
CONTINUOUS
 62
   127
 10
-20.57463
 20
-6.70559
 11
-20.824605
 21
-6.955533
  0
LINE
  8
St
  6
CONTINUOUS
 62
   127
 10
-20.824605
 20
-9.080567
 11
-20.824605
 21
-6.955533
  0
LINE
  8
St
  6
CONTINUOUS
 62
   127
 10
-20.324655
 20
-6.70559
 11
-20.57463
 21
-6.70559
  0
LINE
  8
St
  6
CONTINUOUS
 62
   127
 10
-17.34988
 20
-0.330552
 11
-17.34988
 21
-9.080567
  0
LINE
  8
St
  6
CONTINUOUS
 62
   127
 10
-19.79939
 20
-0.330552
 11
-19.79939
 21
-9.080567
  0
LINE
  8
St
  6
CONTINUOUS
 62
   127
 10
-16.57464
 20
-9.080567
 11
-16.57464
 21
-6.70559
  0
LINE
  8
St
  6
CONTINUOUS
 62
   127
 10
-16.57464
 20
-6.70559
 11
-16.324628
 21
-6.955533
  0
LINE
  8
St
  6
CONTINUOUS
 62
   127
 10
-16.324628
 20
-9.080567
 11
-16.324628
 21
-6.955533
  0
LINE
  8
St
  6
CONTINUOUS
 62
   127
 10
-16.82462
 20
-6.70559
 11
-16.57464
 21
-6.70559
  0
LINE
  8
St
  6
CONTINUOUS
 62
   127
 10
-19.79939
 20
-0.330552
 11
-20.074643
 21
-0.330552
  0
LINE
  8
St
  6
CONTINUOUS
 62
   127
 10
-20.324655
 20
-0.580567
 11
-20.324655
 21
-9.080567
  0
LINE
  8
St
  6
CONTINUOUS
 62
   127
 10
-17.34988
 20
-0.330552
 11
-17.07463
 21
-0.330552
  0
LINE
  8
St
  6
CONTINUOUS
 62
   127
 10
-16.82462
 20
-0.580567
 11
-16.82462
 21
-9.080567
  0
LINE
  8
St
  6
CONTINUOUS
 62
   127
 10
-11.8235
 20
-4.455573
 11
-16.82462
 21
-4.455573
  0
LINE
  8
St
  6
CONTINUOUS
 62
   127
 10
-20.324655
 20
-4.455573
 11
-20.823505
 21
-4.455573
  0
LINE
  8
St
  6
CONTINUOUS
 62
   127
 10
-11.8235
 20
-13.705567
 11
-16.82462
 21
-13.705567
  0
LINE
  8
St
  6
CONTINUOUS
 62
   127
 10
-20.324655
 20
-13.705567
 11
-20.823505
 21
-13.705567
  0
LINE
  8
St
  6
CONTINUOUS
 62
   127
 10
-26.44086
 20
-5.705575
 11
-26.144982
 21
-5.705575
  0
LINE
  8
St
  6
CONTINUOUS
 62
   127
 10
-26.44086
 20
-12.455575
 11
-26.144982
 21
-12.455575
  0
LINE
  8
St
  6
CONTINUOUS
 62
   127
 10
-26.413605
 20
33.74498
 11
-23.7235
 21
33.74498
  0
LINE
  8
St
  6
CONTINUOUS
 62
   127
 10
-26.413605
 20
27.094985
 11
-23.7235
 21
27.094985
  0
LINE
  8
St
  6
CONTINUOUS
 62
   127
 10
-26.413605
 20
-5.75557
 11
-23.7235
 21
-5.75557
  0
LINE
  8
St
  6
CONTINUOUS
 62
   127
 10
-26.413605
 20
-12.405565
 11
-23.7235
 21
-12.405565
  0
LINE
  8
St
  6
CONTINUOUS
 62
   127
 10
-9.073505
 20
20.419878
 11
-10.323495
 21
20.419878
  0
LINE
  8
St
  6
CONTINUOUS
 62
   127
 10
-10.323495
 20
40.419867
 11
-10.323495
 21
20.419878
  0
LINE
  8
St
  6
CONTINUOUS
 62
   127
 10
-9.073505
 20
40.419867
 11
-10.323495
 21
40.419867
  0
LINE
  8
St
  6
CONTINUOUS
 62
   127
 10
-9.073505
 20
25.419867
 11
0.926512
 21
25.419867
  0
LINE
  8
St
  6
DOT
 62
   127
 10
-9.073505
 20
26.919873
 11
0.926512
 21
26.919873
  0
LINE
  8
St
  6
CONTINUOUS
 62
   127
 10
-9.073505
 20
35.419878
 11
0.926512
 21
35.419878
  0
LINE
  8
St
  6
DOT
 62
   127
 10
-9.073505
 20
33.919882
 11
0.926512
 21
33.919882
  0
LINE
  8
St
  6
CONTINUOUS
 62
   127
 10
-9.823425
 20
24.169878
 11
-9.823425
 21
21.66988
  0
LINE
  8
St
  6
CONTINUOUS
 62
   127
 10
-9.823425
 20
22.023432
 11
-5.573423
 21
22.023432
  0
LINE
  8
St
  6
CONTINUOUS
 62
   127
 10
-9.823425
 20
23.816305
 11
-5.573423
 21
23.816305
  0
LINE
  8
St
  6
CONTINUOUS
 62
   127
 10
-5.92698
 20
24.169878
 11
-5.92698
 21
21.66988
  0
LINE
  8
St
  6
CONTINUOUS
 62
   127
 10
-5.92698
 20
21.66988
 11
-5.573423
 21
22.023432
  0
LINE
  8
St
  6
CONTINUOUS
 62
   127
 10
-9.823425
 20
21.66988
 11
-5.92698
 21
21.66988
  0
LINE
  8
St
  6
CONTINUOUS
 62
   127
 10
-9.823425
 20
24.169878
 11
-5.92698
 21
24.169878
  0
LINE
  8
St
  6
CONTINUOUS
 62
   127
 10
-5.92698
 20
24.169878
 11
-5.573423
 21
23.816305
  0
LINE
  8
St
  6
CONTINUOUS
 62
   127
 10
-5.573423
 20
23.816305
 11
-5.573423
 21
22.023432
  0
LINE
  8
St
  6
CONTINUOUS
 62
   127
 10
-9.823425
 20
36.66988
 11
-9.823425
 21
39.169878
  0
LINE
  8
St
  6
CONTINUOUS
 62
   127
 10
-9.823425
 20
38.816305
 11
-5.573423
 21
38.816305
  0
LINE
  8
St
  6
CONTINUOUS
 62
   127
 10
-9.823425
 20
37.023432
 11
-5.573423
 21
37.023432
  0
LINE
  8
St
  6
CONTINUOUS
 62
   127
 10
-5.92698
 20
36.66988
 11
-5.92698
 21
39.169878
  0
LINE
  8
St
  6
CONTINUOUS
 62
   127
 10
-5.92698
 20
39.169878
 11
-5.573423
 21
38.816305
  0
LINE
  8
St
  6
CONTINUOUS
 62
   127
 10
-9.823425
 20
39.169878
 11
-5.92698
 21
39.169878
  0
LINE
  8
St
  6
CONTINUOUS
 62
   127
 10
-9.823425
 20
36.66988
 11
-5.92698
 21
36.66988
  0
LINE
  8
St
  6
CONTINUOUS
 62
   127
 10
-5.92698
 20
36.66988
 11
-5.573423
 21
37.023432
  0
LINE
  8
St
  6
CONTINUOUS
 62
   127
 10
-5.573423
 20
37.023432
 11
-5.573423
 21
38.816305
  0
LINE
  8
St
  6
CONTINUOUS
 62
   127
 10
5.57295
 20
-19.080558
 11
5.926503
 21
-18.727002
  0
LINE
  8
St
  6
CONTINUOUS
 62
   127
 10
5.57295
 20
-16.580575
 11
5.926503
 21
-16.93413
  0
LINE
  8
St
  6
CONTINUOUS
 62
   127
 10
-4.073495
 20
-15.83057
 11
-4.073495
 21
-19.83056
  0
LINE
  8
St
  6
CONTINUOUS
 62
   127
 10
-4.073495
 20
-15.83057
 11
-1.573498
 21
-15.83057
  0
LINE
  8
St
  6
CONTINUOUS
 62
   127
 10
-4.073495
 20
-19.83056
 11
-1.573498
 21
-19.83056
  0
LINE
  8
St
  6
CONTINUOUS
 62
   127
 10
5.57295
 20
-1.580555
 11
5.57295
 21
0.919427
  0
LINE
  8
St
  6
CONTINUOUS
 62
   127
 10
5.57295
 20
0.919427
 11
5.926503
 21
0.565872
  0
LINE
  8
St
  6
CONTINUOUS
 62
   127
 10
5.57295
 20
-1.580555
 11
5.926503
 21
-1.227002
  0
LINE
  8
St
  6
CONTINUOUS
 62
   127
 10
5.926503
 20
-1.227002
 11
5.926503
 21
0.565872
  0
LINE
  8
St
  6
CONTINUOUS
 62
   127
 10
-4.073495
 20
-2.33056
 11
-4.073495
 21
1.66943
  0
LINE
  8
St
  6
CONTINUOUS
 62
   127
 10
-4.073495
 20
-2.33056
 11
-1.573498
 21
-2.33056
  0
LINE
  8
St
  6
CONTINUOUS
 62
   127
 10
-4.073495
 20
1.66943
 11
-1.573498
 21
1.66943
  0
LINE
  8
St
  6
DOT
 62
   127
 10
12.076507
 20
-15.330678
 11
13.426503
 21
-15.330678
  0
LINE
  8
St
  6
DOT
 62
   127
 10
12.076507
 20
-2.830682
 11
13.426503
 21
-2.830682
  0
LINE
  8
St
  6
CONTINUOUS
 62
   127
 10
2.176503
 20
-5.630552
 11
2.176503
 21
-12.53056
  0
LINE
  8
St
  6
DOT
 62
   127
 10
3.426505
 20
-14.830685
 11
4.776503
 21
-14.830685
  0
LINE
  8
St
  6
DOT
 62
   127
 10
3.426505
 20
-3.330673
 11
4.776503
 21
-3.330673
  0
LINE
  8
St
  6
DOT
 62
   127
 10
-9.07351
 20
25.419867
 11
-7.723505
 21
25.419867
  0
LINE
  8
St
  6
DOT
 62
   127
 10
-0.423495
 20
25.419867
 11
0.926498
 21
25.419867
  0
LINE
  8
St
  6
DOT
 62
   127
 10
-9.07351
 20
35.419878
 11
-7.723505
 21
35.419878
  0
LINE
  8
St
  6
DOT
 62
   127
 10
-0.423495
 20
35.419878
 11
0.926498
 21
35.419878
  0
LINE
  8
St
  6
CONTINUOUS
 62
   127
 10
-9.073505
 20
20.419878
 11
-9.073505
 21
40.419867
  0
LINE
  8
St
  6
CONTINUOUS
 62
   127
 10
0.926512
 20
35.419878
 11
0.926512
 21
25.419867
  0
LINE
  8
St
  6
CONTINUOUS
 62
   127
 10
-11.573498
 20
-3.080567
 11
-10.323495
 21
-3.080567
  0
LINE
  8
St
  6
CONTINUOUS
 62
   127
 10
-10.323495
 20
-15.08057
 11
-10.323495
 21
-3.080567
  0
LINE
  8
St
  6
CONTINUOUS
 62
   127
 10
-11.573498
 20
-15.08057
 11
-10.323495
 21
-15.08057
  0
LINE
  8
St
  6
CONTINUOUS
 62
   127
 10
-11.573498
 20
-15.08057
 11
-11.573498
 21
-3.080567
  0
LINE
  8
St
  6
DOT
 62
   127
 10
-11.573498
 20
-12.830567
 11
-10.323495
 21
-12.830567
  0
LINE
  8
St
  6
DOT
 62
   127
 10
-11.573498
 20
-5.330567
 11
-10.323495
 21
-5.330567
  0
LINE
  8
St
  6
CONTINUOUS
 62
   127
 10
-11.573498
 20
36.419982
 11
-10.323495
 21
36.419982
  0
LINE
  8
St
  6
CONTINUOUS
 62
   127
 10
-10.323495
 20
24.419982
 11
-10.323495
 21
36.419982
  0
LINE
  8
St
  6
CONTINUOUS
 62
   127
 10
-11.573498
 20
24.419982
 11
-10.323495
 21
24.419982
  0
LINE
  8
St
  6
CONTINUOUS
 62
   127
 10
-11.573498
 20
24.419982
 11
-11.573498
 21
36.419982
  0
LINE
  8
St
  6
DOT
 62
   127
 10
-11.573498
 20
26.669982
 11
-10.323495
 21
26.669982
  0
LINE
  8
St
  6
DOT
 62
   127
 10
-11.573498
 20
34.169982
 11
-10.323495
 21
34.169982
  0
LINE
  8
St
  6
CONTINUOUS
 62
   127
 10
0.926498
 20
36.419982
 11
2.176503
 21
36.419982
  0
LINE
  8
St
  6
CONTINUOUS
 62
   127
 10
2.176503
 20
24.419982
 11
2.176503
 21
36.419982
  0
LINE
  8
St
  6
CONTINUOUS
 62
   127
 10
0.926498
 20
24.419982
 11
2.176503
 21
24.419982
  0
LINE
  8
St
  6
CONTINUOUS
 62
   127
 10
0.926498
 20
24.419982
 11
0.926498
 21
36.419982
  0
LINE
  8
St
  6
DOT
 62
   127
 10
0.926498
 20
26.669982
 11
2.176503
 21
26.669982
  0
LINE
  8
St
  6
DOT
 62
   127
 10
0.926498
 20
34.169982
 11
2.176503
 21
34.169982
  0
LINE
  8
St
  6
CONTINUOUS
 62
   127
 10
2.178752
 20
35.91998
 11
2.928758
 21
35.91998
  0
LINE
  8
St
  6
CONTINUOUS
 62
   127
 10
2.928758
 20
24.91998
 11
2.928758
 21
35.91998
  0
LINE
  8
St
  6
CONTINUOUS
 62
   127
 10
2.178752
 20
24.91998
 11
2.928758
 21
24.91998
  0
LINE
  8
St
  6
CONTINUOUS
 62
   127
 10
2.178752
 20
24.91998
 11
2.178752
 21
35.91998
  0
LINE
  8
St
  6
DOT
 62
   127
 10
2.178752
 20
33.044982
 11
2.928758
 21
33.044982
  0
LINE
  8
St
  6
DOT
 62
   127
 10
2.178752
 20
27.794988
 11
2.928758
 21
27.794988
  0
LINE
  8
St
  6
DASHDOTX2
 62
   127
 10
-32.573505
 20
30.419982
 11
7.878765
 21
30.419982
  0
LINE
  8
St
  6
DASHDOTX2
 62
   127
 10
-32.573505
 20
-9.080567
 11
7.878765
 21
-9.080567
  0
LINE
  8
St
  6
CONTINUOUS
 62
   127
 10
5.822938
 20
-13.980567
 11
6.176505
 21
-13.627015
  0
LINE
  8
St
  6
CONTINUOUS
 62
   127
 10
6.176505
 20
-4.53412
 11
5.822938
 21
-4.180567
  0
LINE
  8
St
  6
CONTINUOUS
 62
   127
 10
5.822938
 20
-6.86089
 11
6.176505
 21
-6.507348
  0
LINE
  8
St
  6
CONTINUOUS
 62
   127
 10
5.822938
 20
-11.330562
 11
6.176505
 21
-10.977013
  0
LINE
  8
St
  6
CONTINUOUS
 62
   127
 10
5.822938
 20
-6.86089
 11
6.176505
 21
-7.21446
  0
LINE
  8
St
  6
CONTINUOUS
 62
   127
 10
5.822938
 20
-11.330562
 11
6.176505
 21
-10.977013
  0
LINE
  8
St
  6
CONTINUOUS
 62
   127
 10
5.822938
 20
-11.330562
 11
6.176505
 21
-11.684117
  0
LINE
  8
St
  6
CONTINUOUS
 62
   127
 10
6.426505
 20
-5.45557
 11
7.136645
 21
-5.45557
  0
LINE
  8
St
  6
CONTINUOUS
 62
   127
 10
6.176505
 20
-5.205567
 11
6.176505
 21
-4.53412
  0
LINE
  8
St
  6
CONTINUOUS
 62
   127
 10
6.426505
 20
-12.705567
 11
7.136645
 21
-12.705567
  0
LINE
  8
St
  6
CONTINUOUS
 62
   127
 10
6.176505
 20
-12.95557
 11
6.176505
 21
-13.627015
  0
LINE
  8
St
  6
CONTINUOUS
 62
   127
 10
6.176505
 20
-12.95557
 11
6.176505
 21
-5.205567
  0
LINE
  8
St
  6
CONTINUOUS
 62
   127
 10
2.176503
 20
-4.53412
 11
2.530057
 21
-4.180567
  0
LINE
  8
St
  6
CONTINUOUS
 62
   127
 10
5.822938
 20
-4.180567
 11
2.530057
 21
-4.180567
  0
LINE
  8
St
  6
CONTINUOUS
 62
   127
 10
5.822938
 20
-13.980567
 11
2.530057
 21
-13.980567
  0
LINE
  8
St
  6
CONTINUOUS
 62
   127
 10
2.176503
 20
-13.627015
 11
2.530057
 21
-13.980567
  0
LINE
  8
St
  6
CONTINUOUS
 62
   127
 10
2.176503
 20
-4.53412
 11
2.176503
 21
-13.627015
  0
LINE
  8
St
  6
CONTINUOUS
 62
   127
 10
2.530057
 20
-6.86089
 11
2.17649
 21
-6.507348
  0
LINE
  8
St
  6
CONTINUOUS
 62
   127
 10
2.530057
 20
-11.330562
 11
2.17649
 21
-10.977013
  0
LINE
  8
St
  6
CONTINUOUS
 62
   127
 10
2.530057
 20
-6.86089
 11
2.17649
 21
-7.21446
  0
LINE
  8
St
  6
CONTINUOUS
 62
   127
 10
2.530057
 20
-11.330562
 11
2.17649
 21
-10.977013
  0
LINE
  8
St
  6
CONTINUOUS
 62
   127
 10
2.530057
 20
-11.330562
 11
2.17649
 21
-11.684117
  0
LINE
  8
St
  6
CONTINUOUS
 62
   127
 10
5.822938
 20
-6.86089
 11
2.530057
 21
-6.86089
  0
LINE
  8
St
  6
CONTINUOUS
 62
   127
 10
5.822938
 20
-11.330562
 11
2.530057
 21
-11.330562
  0
LINE
  8
St
  6
DASHDOTX2
 62
   127
 10
9.926505
 20
-9.080567
 11
2.176503
 21
-9.080567
  0
LINE
  8
St
  6
CONTINUOUS
 62
   127
 10
6.57294
 20
25.51998
 11
6.926505
 21
25.873535
  0
LINE
  8
St
  6
CONTINUOUS
 62
   127
 10
6.926505
 20
34.96643
 11
6.57294
 21
35.319985
  0
LINE
  8
St
  6
CONTINUOUS
 62
   127
 10
6.57294
 20
32.63966
 11
6.926505
 21
32.993203
  0
LINE
  8
St
  6
CONTINUOUS
 62
   127
 10
6.57294
 20
28.169988
 11
6.926505
 21
28.523538
  0
LINE
  8
St
  6
CONTINUOUS
 62
   127
 10
6.57294
 20
32.63966
 11
6.926505
 21
32.286093
  0
LINE
  8
St
  6
CONTINUOUS
 62
   127
 10
6.57294
 20
28.169988
 11
6.926505
 21
28.523538
  0
LINE
  8
St
  6
CONTINUOUS
 62
   127
 10
6.57294
 20
28.169988
 11
6.926505
 21
27.816432
  0
LINE
  8
St
  6
CONTINUOUS
 62
   127
 10
7.176505
 20
34.04498
 11
7.886648
 21
34.04498
  0
LINE
  8
St
  6
CONTINUOUS
 62
   127
 10
6.926505
 20
34.29498
 11
6.926505
 21
34.96643
  0
LINE
  8
St
  6
CONTINUOUS
 62
   127
 10
7.176505
 20
26.79498
 11
7.886648
 21
26.79498
  0
LINE
  8
St
  6
CONTINUOUS
 62
   127
 10
6.926505
 20
26.54498
 11
6.926505
 21
25.873535
  0
LINE
  8
St
  6
CONTINUOUS
 62
   127
 10
6.926505
 20
26.54498
 11
6.926505
 21
34.29498
  0
LINE
  8
St
  6
CONTINUOUS
 62
   127
 10
2.926503
 20
34.96643
 11
3.280062
 21
35.319985
  0
LINE
  8
St
  6
CONTINUOUS
 62
   127
 10
6.57294
 20
35.319985
 11
3.280062
 21
35.319985
  0
LINE
  8
St
  6
CONTINUOUS
 62
   127
 10
6.57294
 20
25.51998
 11
3.280062
 21
25.51998
  0
LINE
  8
St
  6
CONTINUOUS
 62
   127
 10
2.926503
 20
25.873535
 11
3.280062
 21
25.51998
  0
LINE
  8
St
  6
CONTINUOUS
 62
   127
 10
2.926503
 20
34.96643
 11
2.926503
 21
25.873535
  0
LINE
  8
St
  6
CONTINUOUS
 62
   127
 10
3.280062
 20
32.63966
 11
2.926492
 21
32.993203
  0
LINE
  8
St
  6
CONTINUOUS
 62
   127
 10
3.280062
 20
28.169988
 11
2.926492
 21
28.523538
  0
LINE
  8
St
  6
CONTINUOUS
 62
   127
 10
3.280062
 20
32.63966
 11
2.926492
 21
32.286093
  0
LINE
  8
St
  6
CONTINUOUS
 62
   127
 10
3.280062
 20
28.169988
 11
2.926492
 21
28.523538
  0
LINE
  8
St
  6
CONTINUOUS
 62
   127
 10
3.280062
 20
28.169988
 11
2.926492
 21
27.816432
  0
LINE
  8
St
  6
CONTINUOUS
 62
   127
 10
6.57294
 20
32.63966
 11
3.280062
 21
32.63966
  0
LINE
  8
St
  6
CONTINUOUS
 62
   127
 10
6.57294
 20
28.169988
 11
3.280062
 21
28.169988
  0
LINE
  8
St
  6
DASHDOTX2
 62
   127
 10
10.676505
 20
30.419982
 11
2.926503
 21
30.419982
  0
LINE
  8
St
  6
CONTINUOUS
 62
   127
 10
-1.573498
 20
-19.83056
 11
-1.573498
 21
-15.83057
  0
LINE
  8
St
  6
CONTINUOUS
 62
   127
 10
-1.573498
 20
-2.33056
 11
-1.573498
 21
1.66943
  0
LINE
  8
St
  6
CONTINUOUS
 62
   127
 10
-10.323513
 20
36.16978
 11
-9.823425
 21
36.66988
  0
LINE
  8
St
  6
CONTINUOUS
 62
   127
 10
-10.323513
 20
36.16978
 11
-10.323513
 21
39.669965
  0
LINE
  8
St
  6
CONTINUOUS
 62
   127
 10
-10.323513
 20
39.669965
 11
-9.823425
 21
39.169878
  0
LINE
  8
St
  6
CONTINUOUS
 62
   127
 10
-10.323513
 20
21.169785
 11
-9.823425
 21
21.66988
  0
LINE
  8
St
  6
CONTINUOUS
 62
   127
 10
-10.323513
 20
24.669977
 11
-10.323513
 21
21.169785
  0
LINE
  8
St
  6
CONTINUOUS
 62
   127
 10
-10.323513
 20
24.669977
 11
-9.823425
 21
24.169878
  0
LINE
  8
St
  6
DASHDOT
 62
   127
 10
-10.323513
 20
22.91987
 11
-5.573423
 21
22.91987
  0
LINE
  8
St
  6
DASHDOT
 62
   127
 10
-10.323513
 20
37.919878
 11
-5.573423
 21
37.919878
  0
LINE
  8
St
  6
DOT
 62
   127
 10
2.176515
 20
-3.83057
 11
2.176515
 21
-14.33058
  0
LINE
  8
St
  6
DOT
 62
   127
 10
-10.323495
 20
-12.580562
 11
2.176515
 21
-12.580562
  0
LINE
  8
St
  6
DOT
 62
   127
 10
-10.323495
 20
-5.58055
 11
2.176515
 21
-5.58055
  0
LINE
  8
St
  6
CONTINUOUS
 62
   127
 10
-1.573498
 20
-20.330567
 11
3.426505
 21
-20.330567
  0
LINE
  8
St
  6
CONTINUOUS
 62
   127
 10
-1.573498
 20
-20.330567
 11
-1.573498
 21
2.169433
  0
LINE
  8
St
  6
CONTINUOUS
 62
   127
 10
-1.573498
 20
2.169433
 11
3.426505
 21
2.169433
  0
LINE
  8
St
  6
CONTINUOUS
 62
   127
 10
3.426505
 20
-20.330567
 11
3.426505
 21
2.169433
  0
LINE
  8
St
  6
CONTINUOUS
 62
   127
 10
-10.323495
 20
-0.08057
 11
-10.323495
 21
-18.080567
  0
LINE
  8
St
  6
CONTINUOUS
 62
   127
 10
-10.323495
 20
-18.080567
 11
-1.573498
 21
-18.080567
  0
LINE
  8
St
  6
CONTINUOUS
 62
   127
 10
-10.323495
 20
-0.08057
 11
-1.573498
 21
-0.08057
  0
LINE
  8
St
  6
DOT
 62
   127
 10
-1.573498
 20
1.044433
 11
3.426505
 21
1.044433
  0
LINE
  8
St
  6
DOT
 62
   127
 10
-1.573498
 20
-1.70557
 11
3.426505
 21
-1.70557
  0
LINE
  8
St
  6
DOT
 62
   127
 10
-1.573498
 20
-16.455567
 11
3.426505
 21
-16.455567
  0
LINE
  8
St
  6
DOT
 62
   127
 10
-1.573498
 20
-19.205562
 11
3.426505
 21
-19.205562
  0
LINE
  8
St
  6
DASHDOTX2
 62
   127
 10
-2.5735
 20
-0.330565
 11
4.426512
 21
-0.330565
  0
LINE
  8
St
  6
DASHDOTX2
 62
   127
 10
-2.5735
 20
-17.830567
 11
4.426512
 21
-17.830567
  0
LINE
  8
St
  6
DOTX2
 62
   127
 10
-10.323495
 20
-2.830567
 11
-1.573498
 21
-2.830567
  0
LINE
  8
St
  6
DOTX2
 62
   127
 10
-10.323495
 20
-15.330565
 11
-1.573498
 21
-15.330565
  0
LINE
  8
St
  6
CONTINUOUS
 62
   127
 10
-1.573498
 20
0.919427
 11
5.57295
 21
0.919427
  0
LINE
  8
St
  6
CONTINUOUS
 62
   127
 10
-1.573498
 20
-1.227002
 11
5.57295
 21
-1.227002
  0
LINE
  8
St
  6
CONTINUOUS
 62
   127
 10
-1.573498
 20
-1.580555
 11
5.57295
 21
-1.580555
  0
LINE
  8
St
  6
CONTINUOUS
 62
   127
 10
-1.573498
 20
0.565872
 11
5.926503
 21
0.565872
  0
LINE
  8
St
  6
DASHDOT
 62
   127
 10
-4.073495
 20
-0.330565
 11
5.926503
 21
-0.330565
  0
LINE
  8
St
  6
CONTINUOUS
 62
   127
 10
-1.573498
 20
-16.580575
 11
5.57295
 21
-16.580575
  0
LINE
  8
St
  6
CONTINUOUS
 62
   127
 10
-1.573498
 20
-19.080558
 11
5.57295
 21
-19.080558
  0
LINE
  8
St
  6
CONTINUOUS
 62
   127
 10
5.57295
 20
-16.580575
 11
5.57295
 21
-19.080558
  0
LINE
  8
St
  6
CONTINUOUS
 62
   127
 10
-1.573498
 20
-18.727002
 11
5.926503
 21
-18.727002
  0
LINE
  8
St
  6
CONTINUOUS
 62
   127
 10
-1.573498
 20
-16.93413
 11
5.926503
 21
-16.93413
  0
LINE
  8
St
  6
CONTINUOUS
 62
   127
 10
5.926503
 20
-16.93413
 11
5.926503
 21
-18.727002
  0
LINE
  8
St
  6
DASHDOT
 62
   127
 10
-4.073495
 20
-17.830567
 11
5.926503
 21
-17.830567
  0
LINE
  8
St
  6
DOT
 62
   127
 10
-13.3235
 20
33.91998
 11
-13.3235
 21
26.919985
  0
LINE
  8
St
  6
DOT
 62
   127
 10
-13.3235
 20
33.91998
 11
-11.8235
 21
33.91998
  0
LINE
  8
St
  6
DOT
 62
   127
 10
-13.3235
 20
26.919985
 11
-11.8235
 21
26.919985
  0
LINE
  8
St
  6
DOT
 62
   127
 10
-13.3235
 20
32.91998
 11
-39.11185
 21
32.91998
  0
LINE
  8
St
  6
DOT
 62
   127
 10
-13.3235
 20
27.919985
 11
-39.11185
 21
27.919985
  0
LINE
  8
St
  6
DOT
 62
   127
 10
-13.3235
 20
-5.580567
 11
-13.3235
 21
-12.580567
  0
LINE
  8
St
  6
DOT
 62
   127
 10
-13.3235
 20
-5.580567
 11
-11.8235
 21
-5.580567
  0
LINE
  8
St
  6
DOT
 62
   127
 10
-13.3235
 20
-12.580567
 11
-11.8235
 21
-12.580567
  0
LINE
  8
St
  6
DOT
 62
   127
 10
-13.3235
 20
-6.580573
 11
-39.11185
 21
-6.580573
  0
LINE
  8
St
  6
DOT
 62
   127
 10
-13.3235
 20
-11.580565
 11
-39.11185
 21
-11.580565
  0
LINE
  8
St
  6
CONTINUOUS
 62
   127
 10
-13.3235
 20
-5.630552
 11
2.176503
 21
-5.630552
  0
LINE
  8
St
  6
CONTINUOUS
 62
   127
 10
2.176503
 20
-12.53056
 11
-13.3235
 21
-12.53056
  0
LINE
  8
St
  6
CONTINUOUS
 62
   127
 10
-13.3235
 20
-5.630552
 11
-13.3235
 21
-12.53056
  0
LINE
  8
St
  6
CONTINUOUS
 62
   127
 10
-37.3235
 20
-11.080562
 11
-37.3235
 21
-7.08056
  0
LINE
  8
St
  6
CONTINUOUS
 62
   127
 10
-36.823485
 20
-11.580565
 11
-36.823485
 21
-6.58056
  0
LINE
  8
St
  6
CONTINUOUS
 62
   127
 10
-36.823485
 20
-11.580565
 11
-37.3235
 21
-11.080562
  0
LINE
  8
St
  6
CONTINUOUS
 62
   127
 10
-36.823485
 20
-6.58056
 11
-37.3235
 21
-7.08056
  0
LINE
  8
St
  6
CONTINUOUS
 62
   127
 10
-24.823492
 20
-11.580573
 11
-24.823492
 21
-6.580567
  0
LINE
  8
St
  6
CONTINUOUS
 62
   127
 10
-36.823485
 20
-6.58056
 11
-13.3235
 21
-6.58056
  0
LINE
  8
St
  6
CONTINUOUS
 62
   127
 10
-36.823485
 20
-11.580565
 11
-13.3235
 21
-11.580565
  0
LINE
  8
St
  6
CONTINUOUS
 62
   127
 10
-37.198477
 20
-11.205567
 11
-24.823492
 21
-11.205567
  0
LINE
  8
St
  6
CONTINUOUS
 62
   127
 10
-37.198477
 20
-6.955555
 11
-24.823492
 21
-6.955555
  0
LINE
  8
St
  6
CONTINUOUS
 62
   127
 10
7.378752
 20
32.919993
 11
2.178752
 21
32.919993
  0
LINE
  8
St
  6
CONTINUOUS
 62
   127
 10
7.753747
 20
32.544995
 11
2.178752
 21
32.544995
  0
LINE
  8
St
  6
CONTINUOUS
 62
   127
 10
7.878765
 20
28.419988
 11
7.878765
 21
32.41999
  0
LINE
  8
St
  6
CONTINUOUS
 62
   127
 10
7.378752
 20
27.919985
 11
7.378752
 21
32.919993
  0
LINE
  8
St
  6
CONTINUOUS
 62
   127
 10
7.753747
 20
28.29498
 11
2.178752
 21
28.29498
  0
LINE
  8
St
  6
CONTINUOUS
 62
   127
 10
7.378752
 20
27.919985
 11
2.178752
 21
27.919985
  0
LINE
  8
St
  6
CONTINUOUS
 62
   127
 10
7.378752
 20
27.919985
 11
7.878765
 21
28.419988
  0
LINE
  8
St
  6
CONTINUOUS
 62
   127
 10
7.378752
 20
32.919993
 11
7.878765
 21
32.41999
  0
LINE
  8
St
  6
CONTINUOUS
 62
   127
 10
2.176503
 20
33.869997
 11
2.176503
 21
26.96999
  0
LINE
  8
St
  6
CONTINUOUS
 62
   127
 10
-13.3235
 20
33.869997
 11
2.176503
 21
33.869997
  0
LINE
  8
St
  6
CONTINUOUS
 62
   127
 10
2.176503
 20
26.96999
 11
-13.3235
 21
26.96999
  0
LINE
  8
St
  6
CONTINUOUS
 62
   127
 10
-13.3235
 20
33.869997
 11
-13.3235
 21
26.96999
  0
LINE
  8
St
  6
CONTINUOUS
 62
   127
 10
-37.3235
 20
28.419988
 11
-37.3235
 21
32.41999
  0
LINE
  8
St
  6
CONTINUOUS
 62
   127
 10
-36.823485
 20
27.919985
 11
-36.823485
 21
32.919993
  0
LINE
  8
St
  6
CONTINUOUS
 62
   127
 10
-36.823485
 20
27.919985
 11
-37.3235
 21
28.419988
  0
LINE
  8
St
  6
CONTINUOUS
 62
   127
 10
-36.823485
 20
32.919993
 11
-37.3235
 21
32.41999
  0
LINE
  8
St
  6
CONTINUOUS
 62
   127
 10
-24.823492
 20
27.91998
 11
-24.823492
 21
32.919985
  0
LINE
  8
St
  6
CONTINUOUS
 62
   127
 10
-36.823485
 20
32.919993
 11
-13.3235
 21
32.919993
  0
LINE
  8
St
  6
CONTINUOUS
 62
   127
 10
-36.823485
 20
27.919985
 11
-13.3235
 21
27.919985
  0
LINE
  8
St
  6
CONTINUOUS
 62
   127
 10
-37.198477
 20
28.29498
 11
-24.823492
 21
28.29498
  0
LINE
  8
St
  6
CONTINUOUS
 62
   127
 10
-37.198477
 20
32.544995
 11
-24.823492
 21
32.544995
  0
LINE
  8
St
  6
CONTINUOUS
 62
   127
 10
3.426505
 20
-15.293073
 11
4.92651
 21
-15.293073
  0
LINE
  8
St
  6
DOT
 62
   127
 10
2.176515
 20
-14.33058
 11
4.92651
 21
-14.33058
  0
LINE
  8
St
  6
CONTINUOUS
 62
   127
 10
3.426505
 20
-2.868073
 11
4.92651
 21
-2.868073
  0
LINE
  8
St
  6
CONTINUOUS
 62
   127
 10
4.92651
 20
-15.293073
 11
4.92651
 21
-2.868073
  0
LINE
  8
St
  6
DOT
 62
   127
 10
2.176515
 20
-3.83057
 11
4.92651
 21
-3.83057
  0
CIRCLE
  8
St
  6
CONTINUOUS
 62
   127
 10
-32.573505
 20
30.419982
 40
6.999998
  0
ARC
  8
St
  6
CONTINUOUS
 62
   127
 10
-15.149309
 20
32.585106
 40
1.574676
 50
332.71606
 51
359.994507
  0
ARC
  8
St
  6
CONTINUOUS
 62
   127
 10
-19.610649
 20
30.419982
 40
6.036034
 50
346.159304
 51
373.829709
  0
ARC
  8
St
  6
CONTINUOUS
 62
   127
 10
-15.149309
 20
28.254933
 40
1.574676
 50
359.994522
 51
387.272969
  0
ARC
  8
St
  6
CONTINUOUS
 62
   127
 10
-18.574631
 20
21.419953
 40
1.25
 50
11.531655
 51
168.460121
  0
ARC
  8
St
  6
CONTINUOUS
 62
   127
 10
-20.074636
 20
21.919979
 40
0.25
 50
179.997253
 51
269.998627
  0
ARC
  8
St
  6
CONTINUOUS
 62
   127
 10
-17.074626
 20
21.919979
 40
0.25
 50
269.998627
 51
359.994507
  0
ARC
  8
St
  6
CONTINUOUS
 62
   127
 10
-18.574631
 20
39.420012
 40
1.25
 50
191.534401
 51
348.457374
  0
ARC
  8
St
  6
CONTINUOUS
 62
   127
 10
-20.074636
 20
38.919986
 40
0.25
 50
89.99588
 51
179.997253
  0
ARC
  8
St
  6
CONTINUOUS
 62
   127
 10
-17.074626
 20
38.919986
 40
0.25
 50
359.994507
 51
449.99588
  0
ARC
  8
St
  6
CONTINUOUS
 62
   127
 10
-32.567588
 20
30.419982
 40
7.625
 50
29.435859
 51
330.558663
  0
ARC
  8
St
  6
CONTINUOUS
 62
   127
 10
-26.144978
 20
26.794977
 40
0.25
 50
330.558663
 51
449.99588
  0
ARC
  8
St
  6
CONTINUOUS
 62
   127
 10
-26.144978
 20
34.044979
 40
0.25
 50
269.998642
 51
389.435874
  0
CIRCLE
  8
St
  6
CONTINUOUS
 62
   127
 10
-32.573505
 20
-9.080567
 40
6.999998
  0
ARC
  8
St
  6
CONTINUOUS
 62
   127
 10
-15.149309
 20
-6.915445
 40
1.574676
 50
332.71606
 51
359.994507
  0
ARC
  8
St
  6
CONTINUOUS
 62
   127
 10
-19.610649
 20
-9.080569
 40
6.036034
 50
346.159304
 51
373.829709
  0
ARC
  8
St
  6
CONTINUOUS
 62
   127
 10
-15.149309
 20
-11.245617
 40
1.574676
 50
359.994522
 51
387.272969
  0
ARC
  8
St
  6
CONTINUOUS
 62
   127
 10
-18.574631
 20
-18.080598
 40
1.25
 50
11.531655
 51
168.460121
  0
ARC
  8
St
  6
CONTINUOUS
 62
   127
 10
-20.074636
 20
-17.580572
 40
0.25
 50
179.997253
 51
269.998627
  0
ARC
  8
St
  6
CONTINUOUS
 62
   127
 10
-17.074626
 20
-17.580572
 40
0.25
 50
269.998627
 51
359.994507
  0
ARC
  8
St
  6
CONTINUOUS
 62
   127
 10
-18.574631
 20
-0.080539
 40
1.25
 50
191.534401
 51
348.457374
  0
ARC
  8
St
  6
CONTINUOUS
 62
   127
 10
-20.074636
 20
-0.580565
 40
0.25
 50
89.99588
 51
179.997253
  0
ARC
  8
St
  6
CONTINUOUS
 62
   127
 10
-17.074626
 20
-0.580565
 40
0.25
 50
359.994507
 51
449.99588
  0
ARC
  8
St
  6
CONTINUOUS
 62
   127
 10
-32.567588
 20
-9.080569
 40
7.625
 50
29.435859
 51
330.558663
  0
ARC
  8
St
  6
CONTINUOUS
 62
   127
 10
-26.144978
 20
-12.705574
 40
0.25
 50
330.558663
 51
449.99588
  0
ARC
  8
St
  6
CONTINUOUS
 62
   127
 10
-26.144978
 20
-5.455575
 40
0.25
 50
269.998642
 51
389.435874
  0
ARC
  8
St
  6
CONTINUOUS
 62
   127
 10
6.176509
 20
-9.080569
 40
3.75
 50
284.833936
 51
435.160571
  0
ARC
  8
St
  6
CONTINUOUS
 62
   127
 10
6.426509
 20
-5.205568
 40
0.25
 50
179.997253
 51
269.998627
  0
ARC
  8
St
  6
CONTINUOUS
 62
   127
 10
6.426509
 20
-12.955569
 40
0.25
 50
89.99588
 51
179.997253
  0
ARC
  8
St
  6
CONTINUOUS
 62
   127
 10
6.926511
 20
30.419982
 40
3.75
 50
284.833936
 51
435.160571
  0
ARC
  8
St
  6
CONTINUOUS
 62
   127
 10
7.176512
 20
34.294983
 40
0.25
 50
179.997253
 51
269.998627
  0
ARC
  8
St
  6
CONTINUOUS
 62
   127
 10
7.176512
 20
26.544982
 40
0.25
 50
89.99588
 51
179.997253
  0
ARC
  8
St
  6
CONTINUOUS
 10
10.926509
 20
-19.080666
 40
2.5
 50
-90.0
 51
0.0
  0
LINE
  8
St
  6
CONTINUOUS
 62
   127
 10
5.926507
 20
-21.580667
 11
10.926503
 21
-21.580667
  0
ARC
  8
St
  6
CONTINUOUS
 10
5.926511
 20
-19.080666
 40
2.5
 50
180.0
 51
270.0
  0
LINE
  8
St
  6
CONTINUOUS
 62
   127
 10
13.426503
 20
0.919323
 11
13.426503
 21
-19.080665
  0
ARC
  8
St
  6
CONTINUOUS
 10
10.926509
 20
0.919324
 40
2.5
 50
0.0
 51
90.0
  0
LINE
  8
St
  6
CONTINUOUS
 62
   127
 10
5.926507
 20
3.419323
 11
10.926503
 21
3.419323
  0
LINE
  8
St
  6
CONTINUOUS
 62
   127
 10
3.426505
 20
0.919323
 11
3.426505
 21
-19.080665
  0
ARC
  8
St
  6
CONTINUOUS
 10
5.926511
 20
0.919324
 40
2.5
 50
90.0
 51
180.0
  0
ARC
  8
St
  6
CONTINUOUS
 10
5.926507
 20
0.919331
 40
1.15
 50
90.0
 51
180.0
  0
LINE
  8
St
  6
CONTINUOUS
 62
   127
 10
5.926503
 20
2.06933
 11
10.926505
 21
2.06933
  0
ARC
  8
St
  6
CONTINUOUS
 10
10.926512
 20
0.919331
 40
1.15
 50
0.0
 51
90.0
  0
LINE
  8
St
  6
CONTINUOUS
 62
   127
 10
12.076507
 20
0.91933
 11
12.076507
 21
-19.080663
  0
ARC
  8
St
  6
CONTINUOUS
 10
10.926512
 20
-19.080663
 40
1.15
 50
-90.0
 51
0.0
  0
LINE
  8
St
  6
CONTINUOUS
 62
   127
 10
5.926503
 20
-20.230663
 11
10.926505
 21
-20.230663
  0
LINE
  8
St
  6
CONTINUOUS
 62
   127
 10
4.776503
 20
0.91933
 11
4.776503
 21
-19.080663
  0
ARC
  8
St
  6
CONTINUOUS
 10
5.926507
 20
-19.080663
 40
1.15
 50
180.0
 51
270.0
  0
ARC
  8
St
  6
CONTINUOUS
 10
-6.573506
 20
20.419869
 40
2.5
 50
180.0
 51
270.0
  0
LINE
  8
St
  6
CONTINUOUS
 62
   127
 10
-6.57351
 20
17.919867
 11
-1.573505
 21
17.919867
  0
ARC
  8
St
  6
CONTINUOUS
 10
-1.573498
 20
20.419869
 40
2.5
 50
-90.0
 51
0.0
  0
LINE
  8
St
  6
CONTINUOUS
 62
   127
 10
0.926498
 20
40.419875
 11
0.926498
 21
20.41987
  0
ARC
  8
St
  6
CONTINUOUS
 10
-1.573498
 20
40.419877
 40
2.5
 50
0.0
 51
90.0
  0
LINE
  8
St
  6
CONTINUOUS
 62
   127
 10
-6.57351
 20
42.919878
 11
-1.573505
 21
42.919878
  0
LINE
  8
St
  6
CONTINUOUS
 62
   127
 10
-9.07351
 20
40.419875
 11
-9.07351
 21
20.41987
  0
ARC
  8
St
  6
CONTINUOUS
 10
-6.573506
 20
40.419877
 40
2.5
 50
90.0
 51
180.0
  0
ARC
  8
St
  6
CONTINUOUS
 10
-6.573499
 20
40.419881
 40
1.15
 50
90.0
 51
180.0
  0
LINE
  8
St
  6
CONTINUOUS
 62
   127
 10
-6.573502
 20
41.56988
 11
-1.573498
 21
41.56988
  0
ARC
  8
St
  6
CONTINUOUS
 10
-1.57349
 20
40.419881
 40
1.15
 50
0.0
 51
90.0
  0
LINE
  8
St
  6
CONTINUOUS
 62
   127
 10
-7.723505
 20
40.41988
 11
-7.723505
 21
20.419863
  0
ARC
  8
St
  6
CONTINUOUS
 10
-6.573499
 20
20.419861
 40
1.15
 50
180.0
 51
270.0
  0
LINE
  8
St
  6
CONTINUOUS
 62
   127
 10
-6.573502
 20
19.26986
 11
-1.573498
 21
19.26986
  0
LINE
  8
St
  6
CONTINUOUS
 62
   127
 10
-0.423495
 20
40.41988
 11
-0.423495
 21
20.419863
  0
ARC
  8
St
  6
CONTINUOUS
 10
-1.57349
 20
20.419861
 40
1.15
 50
-90.0
 51
0.0
  0
LINE
  8
St
  6
DASHDOT
 10
13.426503
 20
10.669602
 11
-9.073505
 21
10.669602
  0
LINE
  8
St
  6
DOT
 62
   127
 10
-9.073507
 20
0.91933
 11
-9.073507
 21
-19.080663
  0
ARC
  8
St
  6
DOT
 10
-6.57351
 20
0.919336
 40
2.5
 50
90.0
 51
180.0
  0
LINE
  8
St
  6
DOT
 62
   127
 10
-6.573513
 20
3.419338
 11
-1.573507
 21
3.419338
  0
ARC
  8
St
  6
DOT
 10
-1.573501
 20
0.919336
 40
2.5
 50
0.0
 51
90.0
  0
LINE
  8
St
  6
DOT
 62
   127
 10
0.926495
 20
-19.08067
 11
0.926495
 21
0.919338
  0
ARC
  8
St
  6
DOT
 10
-1.573501
 20
-19.080673
 40
2.5
 50
270.0
 51
360.0
  0
LINE
  8
St
  6
DOT
 62
   127
 10
-6.573513
 20
-21.58067
 11
-1.573507
 21
-21.58067
  0
ARC
  8
St
  6
DOT
 10
-6.57351
 20
-19.080673
 40
2.5
 50
180.0
 51
270.0
  0
ARC
  8
St
  6
DOT
 10
-6.573503
 20
-19.080677
 40
1.15
 50
180.0
 51
270.0
  0
LINE
  8
St
  6
DOT
 62
   127
 10
-6.573505
 20
-20.230675
 11
-1.5735
 21
-20.230675
  0
ARC
  8
St
  6
DOT
 10
-1.573494
 20
-19.080677
 40
1.15
 50
270.0
 51
360.0
  0
LINE
  8
St
  6
DOT
 62
   127
 10
-7.723507
 20
-19.080673
 11
-7.723507
 21
0.919342
  0
ARC
  8
St
  6
DOT
 10
-6.573503
 20
0.919343
 40
1.15
 50
90.0
 51
180.0
  0
LINE
  8
St
  6
DOT
 62
   127
 10
-6.573505
 20
2.069345
 11
-1.5735
 21
2.069345
  0
LINE
  8
St
  6
DOT
 62
   127
 10
-0.4235
 20
-19.080673
 11
-0.4235
 21
0.919342
  0
ARC
  8
St
  6
DOT
 10
-1.573494
 20
0.919343
 40
1.15
 50
0.0
 51
90.0
  0
LINE
  8
St
  6
DOT
 62
   127
 10
3.4265
 20
20.419878
 11
3.4265
 21
40.419867
  0
ARC
  8
St
  6
DOT
 10
5.926496
 20
20.419869
 40
2.5
 50
180.0
 51
270.0
  0
LINE
  8
St
  6
DOT
 62
   127
 10
5.926492
 20
17.919867
 11
10.9265
 21
17.919867
  0
ARC
  8
St
  6
DOT
 10
10.926505
 20
20.419869
 40
2.5
 50
-90.0
 51
0.0
  0
LINE
  8
St
  6
DOT
 62
   127
 10
13.4265
 20
40.419875
 11
13.4265
 21
20.41987
  0
ARC
  8
St
  6
DOT
 10
10.926505
 20
40.419877
 40
2.5
 50
0.0
 51
90.0
  0
LINE
  8
St
  6
DOT
 62
   127
 10
5.926492
 20
42.919878
 11
10.9265
 21
42.919878
  0
ARC
  8
St
  6
DOT
 10
5.926496
 20
40.419877
 40
2.5
 50
90.0
 51
180.0
  0
ARC
  8
St
  6
DOT
 10
5.926504
 20
40.419881
 40
1.15
 50
90.0
 51
180.0
  0
LINE
  8
St
  6
DOT
 62
   127
 10
5.9265
 20
41.56988
 11
10.926505
 21
41.56988
  0
ARC
  8
St
  6
DOT
 10
10.926512
 20
40.419881
 40
1.15
 50
0.0
 51
90.0
  0
LINE
  8
St
  6
DOT
 62
   127
 10
4.7765
 20
40.41988
 11
4.7765
 21
20.419863
  0
ARC
  8
St
  6
DOT
 10
5.926504
 20
20.419861
 40
1.15
 50
180.0
 51
270.0
  0
LINE
  8
St
  6
DOT
 62
   127
 10
5.9265
 20
19.26986
 11
10.926505
 21
19.26986
  0
LINE
  8
St
  6
DOT
 62
   127
 10
12.076507
 20
40.41988
 11
12.076507
 21
20.419863
  0
ARC
  8
St
  6
DOT
 10
10.926512
 20
20.419861
 40
1.15
 50
-90.0
 51
0.0
  0
LINE
  8
St
  6
DOT
 10
13.426503
 20
1.044433
 11
13.426503
 21
20.41987
  0
LINE
  8
St
  6
DOT
 10
3.426505
 20
1.044433
 11
3.426505
 21
20.412378
  0
LINE
  8
St
  6
DOT
 10
-9.073505
 20
20.419878
 11
-9.073505
 21
0.925453
  0
LINE
  8
St
  6
DOT
 10
0.926498
 20
20.419878
 11
0.926498
 21
0.919338
  0
ENDBLK
  0
BLOCK
  2
*GRP_0076
 70
    65
 10
0.0
 20
0.0
  0
LINE
  8
補助線
  6
BYBLOCK
 62
     0
 10
-31.823505
 20
-9.080567
 11
-33.323505
 21
-9.080567
  0
LINE
  8
補助線
  6
BYBLOCK
 62
     0
 10
-32.573505
 20
-9.830567
 11
-32.573505
 21
-8.330567
  0
ENDBLK
  0
BLOCK
  2
*GRP_0077
 70
    65
 10
0.0
 20
0.0
  0
LINE
  8
補助線
  6
BYBLOCK
 62
     0
 10
-31.823505
 20
30.419982
 11
-33.323505
 21
30.419982
  0
LINE
  8
補助線
  6
BYBLOCK
 62
     0
 10
-32.573505
 20
29.669982
 11
-32.573505
 21
31.169982
  0
ENDBLK
  0
BLOCK
  2
*GRP_0078
 70
    65
 10
0.0
 20
0.0
  0
LINE
  8
寸法
  6
CONTINUOUS
 10
24.183955
 20
6.570895
 11
19.532215
 21
-2.021145
  0
ENDBLK
  0
BLOCK
  2
*GRP_0079
 70
    65
 10
0.0
 20
0.0
  0
POLYLINE
  8
寸法
  6
CONTINUOUS
 66
     1
  0
VERTEX
  8
寸法
 10
18.167288
 20
22.938433
  0
VERTEX
  8
寸法
 10
24.183955
 20
6.570895
  0
VERTEX
  8
寸法
 10
30.094403
 20
6.570895
  0
SEQEND
  0
ENDBLK
  0
ENDSEC
  0
SECTION
  2
ENTITIES
  0
POLYLINE
  8
通り芯
  6
CONTINUOUS
 66
     1
 70
     1
  0
VERTEX
  8
通り芯
 10
-210.0
 20
-148.5
  0
VERTEX
  8
通り芯
 10
210.0
 20
-148.5
  0
VERTEX
  8
通り芯
 10
210.0
 20
148.5
  0
VERTEX
  8
通り芯
 10
-210.0
 20
148.5
  0
SEQEND
  0
INSERT
  2
*GRP_0072
  8
型材
  6
DOT
 10
0.0
 20
0.0
  0
INSERT
  2
*GRP_0001
  8
型材断面
  6
CONTINUOUS
 10
0.0
 20
0.0
  0
INSERT
  2
*GRP_0002
  8
型材断面
  6
CONTINUOUS
 10
0.0
 20
0.0
  0
INSERT
  2
*GRP_0003
  8
型材断面
  6
CONTINUOUS
 10
0.0
 20
0.0
  0
INSERT
  2
*GRP_0004
  8
型材断面
  6
CONTINUOUS
 10
0.0
 20
0.0
  0
LINE
  8
型材断面
  6
CONTINUOUS
 10
11.424293
 20
-116.349853
 11
11.424293
 21
-33.080765
  0
LINE
  8
型材断面
  6
CONTINUOUS
 10
10.924295
 20
-116.349853
 11
10.924295
 21
-33.080765
  0
LINE
  8
型材断面
  6
CONTINUOUS
 10
5.424293
 20
-116.349853
 11
5.424293
 21
-33.080765
  0
LINE
  8
型材断面
  6
CONTINUOUS
 10
5.924293
 20
-116.349853
 11
5.924293
 21
-33.080765
  0
LINE
  8
型材断面
  6
CONTINUOUS
 10
-16.075705
 20
-116.349853
 11
-16.075705
 21
-68.330765
  0
LINE
  8
型材断面
  6
CONTINUOUS
 10
-16.075705
 20
-71.330765
 11
-91.075705
 21
-71.330765
  0
LINE
  8
型材断面
  6
CONTINUOUS
 10
-16.075705
 20
-68.330765
 11
-91.075705
 21
-68.330765
  0
ARC
  8
型材断面
  6
CONTINUOUS
 10
-91.075707
 20
-71.330766
 40
3.0
 50
90.0
 51
180.0
  0
LINE
  8
型材断面
  6
CONTINUOUS
 10
-91.075705
 20
-116.349853
 11
-91.075705
 21
-71.330765
  0
LINE
  8
型材断面
  6
CONTINUOUS
 10
-94.075705
 20
-116.349853
 11
-94.075705
 21
-71.330765
  0
LINE
  8
型材断面
  6
CONTINUOUS
 10
-91.075705
 20
-102.667278
 11
-59.739195
 21
-71.330765
  0
LINE
  8
型材断面
  6
CONTINUOUS
 10
-91.075705
 20
-99.131747
 11
-63.274725
 21
-71.330765
  0
LINE
  8
型材断面
  6
CONTINUOUS
 10
-91.075705
 20
-95.59621
 11
-66.810263
 21
-71.330765
  0
LINE
  8
型材断面
  6
CONTINUOUS
 10
-35.536208
 20
-116.349853
 11
-16.075705
 21
-96.889353
  0
LINE
  8
型材断面
  6
CONTINUOUS
 10
-39.071738
 20
-116.349853
 11
-16.075705
 21
-93.353823
  0
LINE
  8
型材断面
  6
CONTINUOUS
 10
-32.00067
 20
-116.349853
 11
-16.075705
 21
-100.42489
  0
LINE
  8
型材断面
  6
DOT
 10
-25.575705
 20
-32.080765
 11
-24.825705
 21
-32.080765
  0
LINE
  8
型材断面
  6
DOT
 10
-25.575705
 20
-28.080765
 11
-24.825705
 21
-28.080765
  0
LINE
  8
型材断面
  6
DOT
 10
-25.388205
 20
-28.080765
 11
-25.388205
 21
-32.080765
  0
LINE
  8
型材断面
  6
DOT
 10
-25.200705
 20
-28.080765
 11
-25.200705
 21
-32.080765
  0
LINE
  8
型材断面
  6
DOT
 10
-25.013205
 20
-28.080765
 11
-25.013205
 21
-32.080765
  0
LINE
  8
型材断面
  6
DOT
 10
-43.5757
 20
-37.580765
 11
-44.575702
 21
-37.580765
  0
LINE
  8
型材断面
  6
DOT
 10
-43.5757
 20
-33.580765
 11
-44.575702
 21
-33.580765
  0
LINE
  8
型材断面
  6
DOT
 10
-44.325702
 20
-37.580765
 11
-44.325702
 21
-33.580765
  0
LINE
  8
型材断面
  6
DOT
 10
-44.0757
 20
-37.580765
 11
-44.0757
 21
-33.580765
  0
LINE
  8
型材断面
  6
DOT
 10
-43.8257
 20
-37.580765
 11
-43.8257
 21
-33.580765
  0
LINE
  8
型材断面
  6
DOT
 10
-43.5757
 20
-32.580765
 11
-38.5757
 21
-32.580765
  0
LINE
  8
型材断面
  6
DOT
 10
-38.5757
 20
-37.580765
 11
-38.5757
 21
-32.580765
  0
INSERT
  2
*HAT_0004
  8
型材断面
 10
0.0
 20
0.0
  0
POLYLINE
  8
型材断面
  6
CONTINUOUS
 66
     1
  0
VERTEX
  8
型材断面
 10
81.524505
 20
124.462565
  0
VERTEX
  8
型材断面
 10
71.245058
 20
127.604005
  0
VERTEX
  8
型材断面
 10
71.245058
 20
124.462565
  0
SEQEND
  0
POLYLINE
  8
型材断面
  6
CONTINUOUS
 66
     1
  0
VERTEX
  8
型材断面
 10
77.090998
 20
124.462565
  0
VERTEX
  8
型材断面
 10
66.81155
 20
127.604005
  0
VERTEX
  8
型材断面
 10
66.81155
 20
124.462565
  0
SEQEND
  0
POLYLINE
  8
型材断面
  6
CONTINUOUS
 66
     1
  0
VERTEX
  8
型材断面
 10
81.524505
 20
118.155853
  0
VERTEX
  8
型材断面
 10
71.245058
 20
121.297293
  0
VERTEX
  8
型材断面
 10
71.245058
 20
118.155853
  0
SEQEND
  0
POLYLINE
  8
型材断面
  6
CONTINUOUS
 66
     1
  0
VERTEX
  8
型材断面
 10
77.090998
 20
118.155853
  0
VERTEX
  8
型材断面
 10
66.81155
 20
121.297293
  0
VERTEX
  8
型材断面
 10
66.81155
 20
118.155853
  0
SEQEND
  0
LINE
  8
型材断面
  6
DOT
 10
-31.325708
 20
46.519982
 11
-30.325705
 21
46.519982
  0
LINE
  8
型材断面
  6
DOT
 10
-31.325708
 20
50.519982
 11
-30.325705
 21
50.519982
  0
LINE
  8
型材断面
  6
DOT
 10
-31.075708
 20
46.519982
 11
-31.075708
 21
50.519982
  0
LINE
  8
型材断面
  6
DOT
 10
-30.825708
 20
46.519982
 11
-30.825708
 21
50.519982
  0
LINE
  8
型材断面
  6
DOT
 10
-30.575705
 20
46.519982
 11
-30.575705
 21
50.519982
  0
LINE
  8
型材断面
  6
DOT
 10
-30.325705
 20
51.519982
 11
-25.325705
 21
51.519982
  0
LINE
  8
型材断面
  6
DOT
 10
-25.325705
 20
46.519982
 11
-25.325705
 21
51.519982
  0
LINE
  8
型材断面
  6
DOT
 10
-14.825708
 20
54.26998
 11
-15.575708
 21
54.26998
  0
LINE
  8
型材断面
  6
DOT
 10
-14.825708
 20
58.26998
 11
-15.575708
 21
58.26998
  0
LINE
  8
型材断面
  6
DOT
 10
-15.575708
 20
58.26998
 11
-15.575708
 21
57.794985
  0
LINE
  8
型材断面
  6
DOT
 10
-15.388208
 20
54.26998
 11
-15.388208
 21
58.26998
  0
LINE
  8
型材断面
  6
DOT
 10
-15.200708
 20
54.26998
 11
-15.200708
 21
58.26998
  0
LINE
  8
型材断面
  6
DOT
 10
-15.013208
 20
54.26998
 11
-15.013208
 21
58.26998
  0
LINE
  8
型材断面
  6
DOT
 10
-11.225708
 20
54.26998
 11
-10.475708
 21
54.26998
  0
LINE
  8
型材断面
  6
DOT
 10
-12.475705
 20
55.694982
 11
-10.475708
 21
55.694982
  0
LINE
  8
型材断面
  6
DOT
 10
-12.475705
 20
55.932482
 11
-10.475708
 21
55.932482
  0
LINE
  8
型材断面
  6
DOT
 10
-11.225708
 20
54.50748
 11
-10.475708
 21
54.50748
  0
LINE
  8
型材断面
  6
DOT
 10
-11.225708
 20
54.74498
 11
-10.475708
 21
54.74498
  0
LINE
  8
型材断面
  6
DOT
 10
-11.225708
 20
54.98248
 11
-10.475708
 21
54.98248
  0
LINE
  8
型材断面
  6
DOT
 10
-11.225708
 20
55.21998
 11
-10.475708
 21
55.21998
  0
LINE
  8
型材断面
  6
DOT
 10
-12.475705
 20
55.457482
 11
-10.475708
 21
55.457482
  0
INSERT
  2
*HAT_0005
  8
型材断面
 10
0.0
 20
0.0
  0
INSERT
  2
*GRP_0056
  8
型材断面
  6
CONTINUOUS
 62
    47
 10
0.0
 20
0.0
  0
INSERT
  2
*GRP_0057
  8
型材断面
  6
CONTINUOUS
 62
    47
 10
0.0
 20
0.0
  0
INSERT
  2
*GRP_0058
  8
型材断面
  6
CONTINUOUS
 10
0.0
 20
0.0
  0
INSERT
  2
*GRP_0029
  8
ガラス
  6
CONTINUOUS
 10
0.0
 20
0.0
  0
INSERT
  2
*GRP_0030
  8
ガラス
  6
CONTINUOUS
 10
0.0
 20
0.0
  0
INSERT
  2
*GRP_0031
  8
ガラス
  6
CONTINUOUS
 10
0.0
 20
0.0
  0
INSERT
  2
*GRP_0032
  8
ガラス
  6
CONTINUOUS
 10
0.0
 20
0.0
  0
INSERT
  2
*GRP_0033
  8
ガラス
  6
CONTINUOUS
 10
0.0
 20
0.0
  0
INSERT
  2
*GRP_0034
  8
ガラス
  6
CONTINUOUS
 10
0.0
 20
0.0
  0
INSERT
  2
*GRP_0035
  8
ガラス
  6
CONTINUOUS
 10
0.0
 20
0.0
  0
INSERT
  2
*GRP_0036
  8
ガラス
  6
CONTINUOUS
 10
0.0
 20
0.0
  0
INSERT
  2
*GRP_0038
  8
ガラス
  6
CONTINUOUS
 10
0.0
 20
0.0
  0
INSERT
  2
*GRP_0039
  8
ガラス
  6
CONTINUOUS
 10
0.0
 20
0.0
  0
INSERT
  2
*GRP_0040
  8
ガラス
  6
CONTINUOUS
 10
0.0
 20
0.0
  0
INSERT
  2
*GRP_0041
  8
ガラス
  6
CONTINUOUS
 10
0.0
 20
0.0
  0
INSERT
  2
*GRP_0042
  8
ガラス
  6
CONTINUOUS
 10
0.0
 20
0.0
  0
INSERT
  2
*GRP_0043
  8
ガラス
  6
CONTINUOUS
 10
0.0
 20
0.0
  0
LINE
  8
ガラス
  6
CONTINUOUS
 10
-9.82569
 20
60.16993
 11
-9.82569
 21
56.769928
  0
LINE
  8
ガラス
  6
CONTINUOUS
 10
-9.82569
 20
56.769928
 11
60.614732
 21
56.769928
  0
LINE
  8
ガラス
  6
CONTINUOUS
 10
-9.82569
 20
57.01993
 11
60.614732
 21
57.01993
  0
LINE
  8
ガラス
  6
CONTINUOUS
 10
-9.82569
 20
60.16993
 11
60.614732
 21
60.16993
  0
LINE
  8
ガラス
  6
CONTINUOUS
 10
-9.82569
 20
59.919928
 11
60.614732
 21
59.919928
  0
INSERT
  2
*GRP_0005
  8
ゴム等
  6
CONTINUOUS
 10
0.0
 20
0.0
  0
INSERT
  2
*GRP_0059
  8
ゴム等
  6
CONTINUOUS
 10
0.0
 20
0.0
  0
INSERT
  2
*GRP_0060
  8
ゴム等
  6
CONTINUOUS
 10
0.0
 20
0.0
  0
INSERT
  2
*GRP_0006
  8
ボルト／ビス
  6
CONTINUOUS
 62
    64
 10
0.0
 20
0.0
  0
INSERT
  2
*GRP_0007
  8
ボルト／ビス
  6
CONTINUOUS
 62
    64
 10
0.0
 20
0.0
  0
INSERT
  2
*GRP_0008
  8
ボルト／ビス
  6
CONTINUOUS
 62
    64
 10
0.0
 20
0.0
  0
INSERT
  2
*GRP_0009
  8
ボルト／ビス
  6
CONTINUOUS
 62
    64
 10
0.0
 20
0.0
  0
INSERT
  2
*GRP_0010
  8
ボルト／ビス
  6
CONTINUOUS
 62
    64
 10
0.0
 20
0.0
  0
INSERT
  2
*GRP_0061
  8
ボルト／ビス
  6
CONTINUOUS
 10
0.0
 20
0.0
  0
TEXT
  7
TextStyle03
  8
文字
  6
CONTINUOUS
 10
0.15
 20
13.95
  1
TK-1121
 40
3.0
 72
     5
 11
11.775
 21
13.95
  0
TEXT
  7
TextStyle03
  8
文字
  6
CONTINUOUS
 10
-15.9
 20
9.525
  1
TKR-1301
 40
3.0
 72
     5
 11
-2.5875
 21
9.525
  0
TEXT
  7
TextStyle03
  8
文字
  6
CONTINUOUS
 10
-61.725
 20
32.475
  1
TK-1156
 40
3.0
 72
     5
 11
-50.1
 21
32.475
  0
TEXT
  7
TextStyle03
  8
文字
  6
CONTINUOUS
 10
-63.775
 20
-4.375
  1
TK-1154
 40
3.0
 72
     5
 11
-52.15
 21
-4.375
  0
TEXT
  7
TextStyle03
  8
文字
  6
CONTINUOUS
 10
-139.925
 20
-71.375
  1
TKM-0001～0005
 40
3.0
 72
     5
 11
-116.4875
 21
-71.375
  0
TEXT
  7
TextStyle03
  8
文字
  6
CONTINUOUS
 10
-89.025
 20
-25.45
  1
φ8穴加工
 40
3.0
 72
     5
 11
-74.2125
 21
-25.45
  0
TEXT
  7
TextStyle03
  8
文字
  6
CONTINUOUS
 10
-89.025
 20
-28.825
  1
裏面バッフル材付き
 40
3.0
 72
     5
 11
-59.025
 21
-28.825
  0
TEXT
  7
TextStyle03
  8
文字
  6
CONTINUOUS
 10
17.225
 20
-60.475
  1
コーナーシール（工場）
 40
3.0
 72
     5
 11
53.975
 21
-60.475
  0
TEXT
  7
TextStyle03
  8
文字
  6
CONTINUOUS
 10
19.275
 20
125.325
  1
呼称寸法
 40
3.0
 72
     5
 11
32.4
 21
125.325
  0
TEXT
  7
TextStyle03
  8
文字
  6
CONTINUOUS
 10
32.2
 20
119.0
  1
有効開口寸法
 40
3.0
 72
     5
 11
52.075
 21
119.0
  0
TEXT
  7
TextStyle03
  8
文字
  6
CONTINUOUS
 10
-65.625
 20
75.85
  1
TKR-1701
 40
3.0
 72
     5
 11
-52.3125
 21
75.85
  0
TEXT
  7
TextStyle03
  8
文字
  6
CONTINUOUS
 10
-86.775
 20
63.425
  1
φ8穴加工
 40
3.0
 72
     5
 11
-71.9625
 21
63.425
  0
TEXT
  7
TextStyle03
  8
文字
  6
CONTINUOUS
 10
-86.775
 20
60.05
  1
裏面バッフル材付き
 40
3.0
 72
     5
 11
-56.775
 21
60.05
  0
TEXT
  7
TextStyle03
  8
文字
  6
CONTINUOUS
 10
17.625
 20
-50.55
  1
アンカー：St-3.2t
 40
3.0
 72
     5
 11
46.125
 21
-50.55
  0
TEXT
  7
TextStyle03
  8
文字
  6
CONTINUOUS
 10
19.425
 20
70.2
  1
TK-0009
 40
3.0
 72
     5
 11
31.05
 21
70.2
  0
TEXT
  7
TextStyle03
  8
文字
  6
CONTINUOUS
 10
19.3
 20
64.925
  1
TKR-1303
 40
3.0
 72
     5
 11
32.6125
 21
64.925
  0
TEXT
  7
TextStyle03
  8
文字
  6
CONTINUOUS
 10
24.725
 20
97.15
  1
アクリルドーム
 40
3.0
 72
     5
 11
47.975
 21
97.15
  0
TEXT
  7
TextStyle03
  8
文字
  6
CONTINUOUS
 10
24.725
 20
93.775
  1
ポリカドーム
 40
3.0
 72
     5
 11
44.6
 21
93.775
  0
TEXT
  7
TextStyle03
  8
文字
  6
CONTINUOUS
 10
80.5
 20
84.125
  1
ＮＳコード：ＮＳＤＺ
 40
5.0
 72
     5
 11
136.125
 21
84.125
  0
TEXT
  7
TextStyle03
  8
文字
  6
CONTINUOUS
 10
55.2
 20
62.6
  1
網入りガラス6.8t
 40
3.0
 72
     5
 11
82.0125
 21
62.6
  0
TEXT
  7
TextStyle03
  8
文字
  6
CONTINUOUS
 10
19.55
 20
46.975
  1
TKR-1107
 40
3.0
 72
     5
 11
32.8625
 21
46.975
  0
TEXT
  7
TextStyle03
  8
文字
  6
CONTINUOUS
 10
-157.1375
 20
-99.775
  1
排水パイプ(オプション)
 40
3.0
 50
360.0
 72
     5
 11
-120.2
 21
-99.775
  0
TEXT
  7
TextStyle03
  8
文字
  6
CONTINUOUS
 10
-147.0125
 20
-103.15
  1
□10×10×1 L=60
 40
3.0
 50
360.0
 72
     5
 11
-120.2
 21
-103.15
  0
TEXT
  7
TextStyle03
  8
文字
  6
CONTINUOUS
 10
80.75
 20
108.975
  1
シリーズ：ＴＤ２
 40
5.0
 72
     5
 11
125.125
 21
108.975
  0
TEXT
  7
TextStyle03
  8
文字
  6
CONTINUOUS
 10
80.75
 20
103.35
  1
　　　　　（上下可動）
 40
5.0
 72
     5
 11
142.0
 21
103.35
  0
TEXT
  7
TextStyle03
  8
文字
  6
CONTINUOUS
 10
80.75
 20
97.725
  1

 40
5.0
 41
1.125
  0
TEXT
  7
TextStyle03
  8
文字
  6
CONTINUOUS
 10
80.75
 20
92.1
  1
図面名　：下枠断面詳細図（可動装置側）
 40
5.0
 72
     5
 11
187.0
 21
92.1
  0
TEXT
  7
TextStyle03
  8
文字
  6
CONTINUOUS
 10
31.125
 20
5.05
  1
バランスステー
 40
3.0
 72
     5
 11
54.375
 21
5.05
  0
INSERT
  2
*DIM_0012
  8
寸法
  6
CONTINUOUS
 10
0.0
 20
0.0
  0
INSERT
  2
*DIM_0013
  8
寸法
  6
CONTINUOUS
 10
0.0
 20
0.0
  0
INSERT
  2
*DIM_0014
  8
寸法
  6
CONTINUOUS
 10
0.0
 20
0.0
  0
INSERT
  2
*DIM_0015
  8
寸法
  6
CONTINUOUS
 10
0.0
 20
0.0
  0
INSERT
  2
*DIM_0016
  8
寸法
  6
CONTINUOUS
 10
0.0
 20
0.0
  0
INSERT
  2
*DIM_0017
  8
寸法
  6
CONTINUOUS
 10
0.0
 20
0.0
  0
INSERT
  2
*DIM_0018
  8
寸法
  6
CONTINUOUS
 10
0.0
 20
0.0
  0
INSERT
  2
*DIM_0019
  8
寸法
  6
CONTINUOUS
 10
0.0
 20
0.0
  0
INSERT
  2
*DIM_0020
  8
寸法
  6
CONTINUOUS
 10
0.0
 20
0.0
  0
INSERT
  2
*DIM_0021
  8
寸法
  6
CONTINUOUS
 10
0.0
 20
0.0
  0
INSERT
  2
*GRP_0022
  8
寸法
  6
CONTINUOUS
 10
0.0
 20
0.0
  0
INSERT
  2
*GRP_0023
  8
寸法
  6
CONTINUOUS
 10
0.0
 20
0.0
  0
INSERT
  2
*GRP_0024
  8
寸法
  6
CONTINUOUS
 10
0.0
 20
0.0
  0
INSERT
  2
*GRP_0025
  8
寸法
  6
CONTINUOUS
 10
0.0
 20
0.0
  0
INSERT
  2
*GRP_0026
  8
寸法
  6
CONTINUOUS
 10
0.0
 20
0.0
  0
INSERT
  2
*GRP_0027
  8
寸法
  6
CONTINUOUS
 10
0.0
 20
0.0
  0
INSERT
  2
*GRP_0028
  8
寸法
  6
CONTINUOUS
 10
0.0
 20
0.0
  0
INSERT
  2
*GRP_0037
  8
寸法
  6
CONTINUOUS
 10
0.0
 20
0.0
  0
POLYLINE
  8
寸法
  6
CONTINUOUS
 66
     1
  0
VERTEX
  8
寸法
 10
-14.825708
 20
67.171755
  0
VERTEX
  8
寸法
 10
-14.825708
 20
124.462565
  0
VERTEX
  8
寸法
 10
81.524505
 20
124.462565
  0
SEQEND
  0
INSERT
  2
*DIM_0044
  8
寸法
  6
CONTINUOUS
 10
0.0
 20
0.0
  0
LINE
  8
寸法
  6
CONTINUOUS
 10
81.524505
 20
118.155853
 11
13.924295
 21
118.155853
  0
INSERT
  2
*DIM_0045
  8
寸法
  6
CONTINUOUS
 10
0.0
 20
0.0
  0
INSERT
  2
*DIM_0046
  8
寸法
  6
CONTINUOUS
 10
0.0
 20
0.0
  0
INSERT
  2
*GRP_0047
  8
寸法
  6
CONTINUOUS
 10
0.0
 20
0.0
  0
INSERT
  2
*GRP_0048
  8
寸法
  6
CONTINUOUS
 10
0.0
 20
0.0
  0
INSERT
  2
*GRP_0049
  8
寸法
  6
CONTINUOUS
 10
0.0
 20
0.0
  0
INSERT
  2
*DIM_0050
  8
寸法
  6
CONTINUOUS
 10
0.0
 20
0.0
  0
INSERT
  2
*DIM_0051
  8
寸法
  6
CONTINUOUS
 10
0.0
 20
0.0
  0
INSERT
  2
*DIM_0053
  8
寸法
  6
CONTINUOUS
 10
0.0
 20
0.0
  0
INSERT
  2
*DIM_0054
  8
寸法
  6
CONTINUOUS
 10
0.0
 20
0.0
  0
INSERT
  2
*DIM_0055
  8
寸法
  6
CONTINUOUS
 10
0.0
 20
0.0
  0
INSERT
  2
*DIM_0062
  8
寸法
  6
CONTINUOUS
 10
0.0
 20
0.0
  0
INSERT
  2
*DIM_0063
  8
寸法
  6
CONTINUOUS
 10
0.0
 20
0.0
  0
INSERT
  2
*GRP_0064
  8
寸法
  6
CONTINUOUS
 10
0.0
 20
0.0
  0
INSERT
  2
*GRP_0065
  8
寸法
  6
CONTINUOUS
 10
0.0
 20
0.0
  0
INSERT
  2
*GRP_0066
  8
寸法
  6
CONTINUOUS
 10
0.0
 20
0.0
  0
INSERT
  2
*DIM_0067
  8
寸法
  6
CONTINUOUS
 10
0.0
 20
0.0
  0
INSERT
  2
*DIM_0068
  8
寸法
  6
CONTINUOUS
 10
0.0
 20
0.0
  0
INSERT
  2
*DIM_0069
  8
寸法
  6
CONTINUOUS
 10
0.0
 20
0.0
  0
INSERT
  2
*GRP_0070
  8
寸法
  6
CONTINUOUS
 10
0.0
 20
0.0
  0
INSERT
  2
*GRP_0073
  8
寸法
  6
CONTINUOUS
 10
0.0
 20
0.0
  0
INSERT
  2
*GRP_0078
  8
寸法
  6
CONTINUOUS
 10
0.0
 20
0.0
  0
INSERT
  2
*GRP_0079
  8
寸法
  6
CONTINUOUS
 10
0.0
 20
0.0
  0
ARC
  8
別途部材
  6
CONTINUOUS
 62
    96
 10
-37.114309
 20
63.166945
 40
2.502976
 50
90.001373
 51
158.200992
  0
LINE
  8
別途部材
  6
CONTINUOUS
 62
    96
 10
-39.825685
 20
67.1717
 11
-14.825688
 21
67.1717
  0
LINE
  8
別途部材
  6
CONTINUOUS
 62
    96
 10
-37.114307
 20
65.669908
 11
-13.993405
 21
65.669908
  0
LINE
  8
別途部材
  6
CONTINUOUS
 10
-45.825675
 20
52.1717
 11
-44.208202
 21
52.1717
  0
LINE
  8
別途部材
  6
CONTINUOUS
 62
    96
 10
-39.825685
 20
67.1717
 11
-45.825675
 21
52.1717
  0
LINE
  8
別途部材
  6
CONTINUOUS
 62
    96
 10
-39.43828
 20
64.09651
 11
-44.208202
 21
52.1717
  0
ARC
  8
別途部材
  6
CONTINUOUS
 10
81.052204
 20
17.202796
 40
108.117814
 50
117.674727
 51
152.472719
  0
ARC
  8
別途部材
  6
CONTINUOUS
 10
81.052204
 20
17.202796
 40
106.689874
 50
117.674727
 51
152.981359
  0
INSERT
  2
*GRP_0071
  8
別途部材
  6
CONTINUOUS
 10
0.0
 20
0.0
  0
INSERT
  2
*GRP_0011
  8
St
  6
CONTINUOUS
 10
0.0
 20
0.0
  0
INSERT
  2
*GRP_0052
  8
St
  6
CONTINUOUS
 62
   127
 10
0.0
 20
0.0
  0
INSERT
  2
*HAT_0006
  8
St
 10
0.0
 20
0.0
  0
INSERT
  2
*GRP_0074
  8
St
  6
DOT
 10
0.0
 20
0.0
  0
INSERT
  2
*GRP_0075
  8
St
  6
CONTINUOUS
 10
0.0
 20
0.0
  0
LINE
  8
St
  6
DOT
 10
0.926498
 20
38.919985
 11
56.054372
 21
38.919985
  0
LINE
  8
St
  6
DOT
 10
0.926498
 20
21.91998
 11
56.054372
 21
21.91998
  0
LINE
  8
St
  6
DOT
 10
13.426503
 20
-0.580567
 11
56.054372
 21
-0.580567
  0
LINE
  8
St
  6
DOT
 10
13.426503
 20
-17.580567
 11
56.054372
 21
-17.580567
  0
LINE
  8
その他部品等
  6
CONTINUOUS
 10
-101.17576
 20
-83.653895
 11
-94.075705
 21
-83.653895
  0
LINE
  8
その他部品等
  6
CONTINUOUS
 10
-101.17576
 20
-79.653895
 11
-94.075705
 21
-79.653895
  0
LINE
  8
その他部品等
  6
CONTINUOUS
 10
-99.52575
 20
-77.653895
 11
-99.52575
 21
-76.51351
  0
LINE
  8
その他部品等
  6
CONTINUOUS
 10
-94.075705
 20
-76.51351
 11
-99.52575
 21
-76.51351
  0
LINE
  8
その他部品等
  6
CONTINUOUS
 10
-99.52575
 20
-76.51351
 11
-94.075705
 21
-79.653895
  0
INSERT
  2
*HAT_0007
  8
その他部品等
 10
0.0
 20
0.0
  0
LINE
  8
その他部品等
  6
CONTINUOUS
 10
-44.575702
 20
-38.330765
 11
-44.575702
 21
-45.830765
  0
LINE
  8
その他部品等
  6
CONTINUOUS
 10
-40.369538
 20
-38.330765
 11
-40.369538
 21
-45.258497
  0
LINE
  8
その他部品等
  6
CONTINUOUS
 10
-37.975702
 20
-38.330765
 11
-37.975702
 21
-44.932805
  0
LINE
  8
その他部品等
  6
CONTINUOUS
 10
-37.975702
 20
-38.330765
 11
-40.369538
 21
-45.258497
  0
INSERT
  2
*HAT_0008
  8
その他部品等
 10
0.0
 20
0.0
  0
LINE
  8
その他部品等
  6
CONTINUOUS
 10
-30.325702
 20
-37.330765
 11
-24.825705
 21
-34.480765
  0
INSERT
  2
*HAT_0009
  8
その他部品等
 10
0.0
 20
0.0
  0
ENDSEC
  0
EOF
