  0
SECTION
  2
HEADER
  9
$EXTMIN
 10
-210.0
 20
-148.5
  9
$EXTMAX
 10
210.0
 20
148.5
  9
$PDMODE
 70
    32
  9
$PDSIZE
 40
1.5
  9
$LTSCALE
 40
10.0
  0
ENDSEC
  0
SECTION
  2
TABLES
  0
TABLE
  2
LTYPE
 70
    15
  0
LTYPE
  2
CONTINUOUS
 70
    64
  3
実線
 72
    65
 73
     0
 40
0.0
  0
LTYPE
  2
DASHED
 70
    64
  3
破線A
 72
    65
 73
     2
 40
0.6
 49
0.4
 49
-0.2
  0
LTYPE
  2
DASHEDX2
 70
    64
  3
破線B
 72
    65
 73
     2
 40
1.3
 49
0.9
 49
-0.4
  0
LTYPE
  2
DASHDOT
 70
    64
  3
１点鎖線A
 72
    65
 73
     4
 40
0.5375
 49
0.375
 49
-0.05
 49
0.0625
 49
-0.05
  0
LTYPE
  2
DASHDOTX2
 70
    64
  3
１点鎖線B
 72
    65
 73
     4
 40
1.075
 49
0.75
 49
-0.1
 49
0.125
 49
-0.1
  0
LTYPE
  2
DIVIDE2
 70
    64
  3
２点鎖線A
 72
    65
 73
     6
 40
0.5125
 49
0.3
 49
-0.0375
 49
0.05
 49
-0.0375
 49
0.05
 49
-0.0375
  0
LTYPE
  2
DIVIDE
 70
    64
  3
２点鎖線B
 72
    65
 73
     6
 40
1.05
 49
0.55
 49
-0.1
 49
0.1
 49
-0.1
 49
0.1
 49
-0.1
  0
LTYPE
  2
DOT
 70
    64
  3
点線A
 72
    65
 73
     2
 40
0.1125
 49
0.0625
 49
-0.05
  0
LTYPE
  2
DOTX2
 70
    64
  3
点線B
 72
    65
 73
     2
 40
0.275
 49
0.15
 49
-0.125
  0
LTYPE
  2
CONTINUOUS
 70
    64
  3
実線
 72
    65
 73
     0
 40
0.0
  0
LTYPE
  2
CONTINUOUS
 70
    64
  3
実線
 72
    65
 73
     0
 40
0.0
  0
LTYPE
  2
CONTINUOUS
 70
    64
  3
実線
 72
    65
 73
     0
 40
0.0
  0
LTYPE
  2
CONTINUOUS
 70
    64
  3
実線
 72
    65
 73
     0
 40
0.0
  0
LTYPE
  2
CONTINUOUS
 70
    64
  3
実線
 72
    65
 73
     0
 40
0.0
  0
LTYPE
  2
CONTINUOUS
 70
    64
  3
実線
 72
    65
 73
     0
 40
0.0
  0
ENDTAB
  0
TABLE
  2
LAYER
 70
    34
  0
LAYER
  2
通り芯
 70
     0
 62
    15
  6
CONTINUOUS
  0
LAYER
  2
補助線
 70
     0
 62
    16
  6
DOT
  0
LAYER
  2
躯体
 70
     0
 62
    31
  6
CONTINUOUS
  0
LAYER
  2
型材
 70
     0
 62
    32
  6
CONTINUOUS
  0
LAYER
  2
型材断面
 70
     0
 62
    47
  6
CONTINUOUS
  0
LAYER
  2
ガラス
 70
     0
 62
    48
  6
CONTINUOUS
  0
LAYER
  2
ゴム等
 70
     0
 62
    63
  6
CONTINUOUS
  0
LAYER
  2
ボルト／ビス
 70
     0
 62
    64
  6
CONTINUOUS
  0
LAYER
  2
文字
 70
     0
 62
    79
  6
CONTINUOUS
  0
LAYER
  2
寸法
 70
     0
 62
    80
  6
CONTINUOUS
  0
LAYER
  2
ﾊｯﾁﾝｸﾞ
 70
     0
 62
    95
  6
CONTINUOUS
  0
LAYER
  2
別途部材
 70
     0
 62
    96
  6
CONTINUOUS
  0
LAYER
  2
曲げ物
 70
     0
 62
   111
  6
CONTINUOUS
  0
LAYER
  2
鉄骨等
 70
     0
 62
   112
  6
CONTINUOUS
  0
LAYER
  2
St
 70
     0
 62
   127
  6
CONTINUOUS
  0
LAYER
  2
その他部品等
 70
     0
 62
   128
  6
CONTINUOUS
  0
LAYER
  2
ｶﾞｽｹｯﾄ
 70
     0
 62
   143
  6
CONTINUOUS
  0
LAYER
  2
ｽｹｯﾁ
 70
     0
 62
    14
  6
CONTINUOUS
  0
LAYER
  2
0
 70
     0
 62
    17
  6
CONTINUOUS
  0
LAYER
  2
1
 70
     0
 62
    30
  6
CONTINUOUS
  0
LAYER
  2
4
 70
     0
 62
    33
  6
CONTINUOUS
  0
LAYER
  2
ﾚｲﾔ3
 70
     0
 62
    46
  6
CONTINUOUS
  0
LAYER
  2
外形線
 70
     0
 62
    49
  6
CONTINUOUS
  0
LAYER
  2
部品
 70
     0
 62
    14
  6
CONTINUOUS
  0
LAYER
  2
サッシ芯
 70
     0
 62
    17
  6
DASHDOTX2
  0
LAYER
  2
寸法線
 70
     0
 62
    62
  6
CONTINUOUS
  0
LAYER
  2
姿図外形線
 70
     0
 62
    65
  6
CONTINUOUS
  0
LAYER
  2
姿補助線
 70
     0
 62
    30
  6
CONTINUOUS
  0
LAYER
  2
透視線
 70
     0
 62
    78
  6
DOT
  0
LAYER
  2
用紙
 70
     0
 62
    81
  6
CONTINUOUS
  0
LAYER
  2
実線図枠
 70
     0
 62
    94
  6
CONTINUOUS
  0
LAYER
  2
補助図枠
 70
     0
 62
    97
  6
CONTINUOUS
  0
LAYER
  2
建具記号
 70
     0
 62
   110
  6
CONTINUOUS
  0
LAYER
  2
補助文字
 70
     0
 62
   113
  6
CONTINUOUS
  0
ENDTAB
  0
TABLE
  2
STYLE
 70
    10
  0
STYLE
  2
STANDARD
 70
     0
 40
1.0
 41
1.0
 42
1.0
 50
0.0
 71
     0
  3
TXT
  4
BIGFONT
  0
STYLE
  2
TATE
 70
     4
 40
1.0
 41
1.0
 42
1.0
 50
0.0
 71
     0
  3
TXT
  4
BIGFONT
  0
STYLE
  2
TextStyle03
 70
     0
 40
1.0
 41
1.0
 42
1.0
 50
0.0
 71
     0
  3
MONOTXT
  4
BIGFONT
  0
STYLE
  2
TextStyle04
 70
     0
 40
1.0
 41
1.0
 42
1.0
 50
0.0
 71
     0
  3
MONOTXT
  4
BIGFONT
  0
STYLE
  2
TextStyle05
 70
     0
 40
1.0
 41
1.0
 42
1.0
 50
0.0
 71
     0
  3
MONOTXT
  4
BIGFONT
  0
STYLE
  2
TextStyle06
 70
     0
 40
1.0
 41
1.0
 42
1.0
 50
0.0
 71
     0
  3
MONOTXT
  4
BIGFONT
  0
STYLE
  2
TextStyle07
 70
     0
 40
1.0
 41
1.0
 42
1.0
 50
0.0
 71
     0
  3
MONOTXT
  4
BIGFONT
  0
STYLE
  2
TextStyle08
 70
     0
 40
1.0
 41
1.0
 42
1.0
 50
0.0
 71
     0
  3
MONOTXT
  4
BIGFONT
  0
STYLE
  2
TextStyle09
 70
     0
 40
1.0
 41
1.0
 42
1.0
 50
0.0
 71
     0
  3
MONOTXT
  4
BIGFONT
  0
STYLE
  2
TextStyle10
 70
     0
 40
1.0
 41
1.0
 42
1.0
 50
0.0
 71
     0
  3
MONOTXT
  4
BIGFONT
  0
ENDTAB
  0
ENDSEC
  0
SECTION
  2
BLOCKS
  0
BLOCK
  2
*GRP_0001
 70
    65
 10
0.0
 20
0.0
  0
LINE
  8
型材断面
  6
CONTINUOUS
 10
195.0
 20
133.5
 11
195.0
 21
-133.5
  0
LINE
  8
型材断面
  6
CONTINUOUS
 10
195.0
 20
-133.5
 11
-185.0
 21
-133.5
  0
LINE
  8
型材断面
  6
CONTINUOUS
 10
-185.0
 20
-133.5
 11
-185.0
 21
133.5
  0
LINE
  8
型材断面
  6
CONTINUOUS
 10
195.0
 20
133.5
 11
-185.0
 21
133.5
  0
LINE
  8
型材断面
  6
CONTINUOUS
 10
145.0
 20
-133.5
 11
145.0
 21
-118.5
  0
LINE
  8
型材断面
  6
CONTINUOUS
 10
195.0
 20
-118.5
 11
145.0
 21
-118.5
  0
ENDBLK
  0
BLOCK
  2
*DIM_0002
 70
    65
 10
0.0
 20
0.0
  0
LINE
  8
寸法
  6
BYBLOCK
 62
     0
 10
-159.64076
 20
67.974165
 11
-170.571515
 21
67.974167
  0
LINE
  8
寸法
  6
BYBLOCK
 62
     0
 10
-159.640762
 20
32.974165
 11
-170.571518
 21
32.974167
  0
LINE
  8
寸法
  6
BYBLOCK
 62
     0
 10
-170.571515
 20
67.974167
 11
-170.571518
 21
32.974167
  0
POINT
  8
寸法
 62
     0
 10
-170.571515
 20
67.974167
  0
POINT
  8
寸法
 62
     0
 10
-170.571518
 20
32.974167
  0
TEXT
  7
TextStyle03
  8
寸法
  6
CONTINUOUS
 62
     0
 10
-170.95
 20
48.0375
  1
700
 40
3.0
 50
90.0
 72
     5
 11
-170.95
 21
52.9125
  0
ENDBLK
  0
BLOCK
  2
*DIM_0003
 70
    65
 10
0.0
 20
0.0
  0
LINE
  8
寸法
  6
BYBLOCK
 62
     0
 10
-159.640762
 20
32.974165
 11
-170.571518
 21
32.97417
  0
LINE
  8
寸法
  6
BYBLOCK
 62
     0
 10
-159.640765
 20
-2.025835
 11
-170.57152
 21
-2.02583
  0
LINE
  8
寸法
  6
BYBLOCK
 62
     0
 10
-170.571518
 20
32.97417
 11
-170.57152
 21
-2.02583
  0
POINT
  8
寸法
 62
     0
 10
-170.57152
 20
-2.02583
  0
TEXT
  7
TextStyle03
  8
寸法
  6
CONTINUOUS
 62
     0
 10
-170.95
 20
13.0375
  1
700
 40
3.0
 50
90.0
 72
     5
 11
-170.95
 21
17.9125
  0
ENDBLK
  0
BLOCK
  2
*DIM_0004
 70
    65
 10
0.0
 20
0.0
  0
LINE
  8
寸法
  6
BYBLOCK
 62
     0
 10
-137.36076
 20
-80.031268
 11
-137.36076
 21
-44.812283
  0
LINE
  8
寸法
  6
BYBLOCK
 62
     0
 10
-134.38576
 20
-44.812283
 11
-137.36076
 21
-44.812283
  0
POINT
  8
寸法
 62
     0
 10
-134.38576
 20
-44.812283
  0
POINT
  8
寸法
 62
     0
 10
-137.36076
 20
-44.812283
  0
TEXT
  7
TextStyle03
  8
寸法
  6
CONTINUOUS
 62
     0
 10
-145.90625
 20
-44.45
  1
59.5
 40
3.0
 72
     5
 11
-139.34375
 21
-44.45
  0
ENDBLK
  0
BLOCK
  2
*GRP_0005
 70
    65
 10
0.0
 20
0.0
  0
POLYLINE
  8
寸法
  6
BYBLOCK
 62
     0
 66
     1
  0
VERTEX
  8
寸法
 10
-47.6251
 20
9.258137
  0
VERTEX
  8
寸法
 10
-41.208597
 20
2.841635
  0
VERTEX
  8
寸法
 10
-35.30147
 20
2.841635
  0
SEQEND
  0
ENDBLK
  0
BLOCK
  2
*DIM_0006
 70
    65
 10
0.0
 20
0.0
  0
LINE
  8
寸法
  6
BYBLOCK
 62
     0
 10
-41.41076
 20
-80.031268
 11
-41.41076
 21
-44.812283
  0
LINE
  8
寸法
  6
BYBLOCK
 62
     0
 10
-44.38576
 20
-44.812283
 11
-41.41076
 21
-44.812283
  0
POINT
  8
寸法
 62
     0
 10
-44.38576
 20
-44.812283
  0
POINT
  8
寸法
 62
     0
 10
-41.41076
 20
-44.812283
  0
TEXT
  7
TextStyle03
  8
寸法
  6
CONTINUOUS
 62
     0
 10
-39.43125
 20
-44.45
  1
59.5
 40
3.0
 72
     5
 11
-32.86875
 21
-44.45
  0
ENDBLK
  0
BLOCK
  2
*DIM_0007
 70
    65
 10
0.0
 20
0.0
  0
LINE
  8
寸法
  6
BYBLOCK
 62
     0
 10
-38.88576
 20
-80.96609
 11
-19.991043
 21
-80.96609
  0
LINE
  8
寸法
  6
BYBLOCK
 62
     0
 10
-38.41076
 20
-91.516342
 11
-19.991043
 21
-91.516342
  0
LINE
  8
寸法
  6
BYBLOCK
 62
     0
 10
-19.991043
 20
-80.96609
 11
-19.991043
 21
-91.516342
  0
POINT
  8
寸法
 62
     0
 10
-19.991043
 20
-80.96609
  0
POINT
  8
寸法
 62
     0
 10
-19.991043
 20
-91.516342
  0
TEXT
  7
TextStyle03
  8
寸法
  6
CONTINUOUS
 62
     0
 10
-20.375
 20
-88.6875
  1
211
 40
3.0
 50
90.0
 72
     5
 11
-20.375
 21
-83.8125
  0
ENDBLK
  0
BLOCK
  2
*DIM_0008
 70
    65
 10
0.0
 20
0.0
  0
LINE
  8
寸法
  6
BYBLOCK
 62
     0
 10
-124.38576
 20
103.229165
 11
-124.38576
 21
114.15992
  0
LINE
  8
寸法
  6
BYBLOCK
 62
     0
 10
-89.38576
 20
103.229165
 11
-89.38576
 21
114.15992
  0
LINE
  8
寸法
  6
BYBLOCK
 62
     0
 10
-124.38576
 20
114.15992
 11
-89.38576
 21
114.15992
  0
POINT
  8
寸法
 62
     0
 10
-124.38576
 20
114.15992
  0
POINT
  8
寸法
 62
     0
 10
-89.38576
 20
114.15992
  0
TEXT
  7
TextStyle03
  8
寸法
  6
CONTINUOUS
 62
     0
 10
-109.3375
 20
114.55
  1
700
 40
3.0
 72
     5
 11
-104.4625
 21
114.55
  0
ENDBLK
  0
BLOCK
  2
*DIM_0009
 70
    65
 10
0.0
 20
0.0
  0
LINE
  8
寸法
  6
BYBLOCK
 62
     0
 10
-54.38576
 20
103.229165
 11
-54.38576
 21
114.15992
  0
LINE
  8
寸法
  6
BYBLOCK
 62
     0
 10
-89.38576
 20
114.15992
 11
-54.38576
 21
114.15992
  0
POINT
  8
寸法
 62
     0
 10
-54.38576
 20
114.15992
  0
TEXT
  7
TextStyle03
  8
寸法
  6
CONTINUOUS
 62
     0
 10
-74.3375
 20
114.55
  1
700
 40
3.0
 72
     5
 11
-69.4625
 21
114.55
  0
ENDBLK
  0
BLOCK
  2
*GRP_0010
 70
    65
 10
0.0
 20
0.0
  0
POLYLINE
  8
寸法
  6
BYBLOCK
 62
     0
 66
     1
  0
VERTEX
  8
寸法
 10
-131.14641
 20
62.41518
  0
VERTEX
  8
寸法
 10
-137.562907
 20
68.831685
  0
VERTEX
  8
寸法
 10
-143.470035
 20
68.831688
  0
SEQEND
  0
ENDBLK
  0
BLOCK
  2
*DIM_0011
 70
    65
 10
0.0
 20
0.0
  0
LINE
  8
寸法
  6
BYBLOCK
 62
     0
 10
-44.070005
 20
77.974167
 11
-23.520578
 21
77.974167
  0
LINE
  8
寸法
  6
BYBLOCK
 62
     0
 10
-36.04613
 20
72.424167
 11
-23.520578
 21
72.424167
  0
LINE
  8
寸法
  6
BYBLOCK
 62
     0
 10
-23.520578
 20
77.974167
 11
-23.520578
 21
72.424167
  0
POINT
  8
寸法
 62
     0
 10
-23.520578
 20
77.974167
  0
POINT
  8
寸法
 62
     0
 10
-23.520578
 20
72.424167
  0
TEXT
  7
TextStyle03
  8
寸法
  6
CONTINUOUS
 62
     0
 10
-23.95
 20
72.7375
  1
111
 40
3.0
 50
90.0
 72
     5
 11
-23.95
 21
77.6125
  0
ENDBLK
  0
BLOCK
  2
*DIM_0012
 70
    65
 10
0.0
 20
0.0
  0
LINE
  8
寸法
  6
BYBLOCK
 62
     0
 10
-44.070005
 20
-12.025838
 11
-23.520578
 21
-12.025838
  0
LINE
  8
寸法
  6
BYBLOCK
 62
     0
 10
-36.04613
 20
-6.475838
 11
-23.520578
 21
-6.475838
  0
LINE
  8
寸法
  6
BYBLOCK
 62
     0
 10
-23.520578
 20
-12.025838
 11
-23.520578
 21
-6.475838
  0
POINT
  8
寸法
 62
     0
 10
-23.520578
 20
-12.025838
  0
POINT
  8
寸法
 62
     0
 10
-23.520578
 20
-6.475838
  0
TEXT
  7
TextStyle03
  8
寸法
  6
CONTINUOUS
 62
     0
 10
-23.925
 20
-11.7125
  1
111
 40
3.0
 50
90.0
 72
     5
 11
-23.925
 21
-6.8375
  0
ENDBLK
  0
BLOCK
  2
*DIM_0013
 70
    65
 10
0.0
 20
0.0
  0
LINE
  8
寸法
  6
CONTINUOUS
 10
127.681547
 20
69.359745
 11
127.681547
 21
80.214218
  0
LINE
  8
寸法
  6
CONTINUOUS
 10
83.981547
 20
69.359745
 11
83.981547
 21
80.214218
  0
LINE
  8
寸法
  6
CONTINUOUS
 10
127.681547
 20
80.214218
 11
83.981547
 21
80.214218
  0
POINT
  8
寸法
 10
127.681547
 20
80.214218
  0
POINT
  8
寸法
 10
83.981547
 20
80.214218
  0
TEXT
  7
TextStyle03
  8
寸法
  6
CONTINUOUS
 10
103.3625
 20
80.6
  1
874
 40
3.0
 72
     5
 11
108.2375
 21
80.6
  0
ENDBLK
  0
BLOCK
  2
*DIM_0014
 70
    65
 10
0.0
 20
0.0
  0
LINE
  8
寸法
  6
CONTINUOUS
 10
132.681547
 20
64.359745
 11
144.604392
 21
64.359745
  0
LINE
  8
寸法
  6
CONTINUOUS
 10
132.681547
 20
20.659745
 11
144.604392
 21
20.659745
  0
LINE
  8
寸法
  6
CONTINUOUS
 10
144.604392
 20
64.359745
 11
144.604392
 21
20.659745
  0
POINT
  8
寸法
 10
144.604392
 20
64.359745
  0
POINT
  8
寸法
 10
144.604392
 20
20.659745
  0
TEXT
  7
TextStyle03
  8
寸法
  6
CONTINUOUS
 10
144.2
 20
40.0875
  1
874
 40
3.0
 50
90.0
 72
     5
 11
144.2
 21
44.9625
  0
ENDBLK
  0
BLOCK
  2
*DIM_0015
 70
    65
 10
0.0
 20
0.0
  0
LINE
  8
寸法
  6
CONTINUOUS
 10
-134.38576
 20
-44.812283
 11
-44.38576
 21
-44.812283
  0
POINT
  8
寸法
 10
-134.38576
 20
-44.812283
  0
POINT
  8
寸法
 10
-44.38576
 20
-44.812283
  0
TEXT
  7
TextStyle03
  8
寸法
  6
CONTINUOUS
 10
-101.11875
 20
-44.45
  1
呼称寸法　1800
 40
3.0
 72
     5
 11
-77.68125
 21
-44.45
  0
ENDBLK
  0
BLOCK
  2
*DIM_0016
 70
    65
 10
0.0
 20
0.0
  0
LINE
  8
寸法
  6
CONTINUOUS
 10
-36.88576
 20
-80.96609
 11
-19.991043
 21
-80.96609
  0
LINE
  8
寸法
  6
CONTINUOUS
 10
-84.38576
 20
-58.46609
 11
-19.991043
 21
-58.46609
  0
LINE
  8
寸法
  6
CONTINUOUS
 10
-19.991043
 20
-80.96609
 11
-19.991043
 21
-58.46609
  0
POINT
  8
寸法
 10
-19.991043
 20
-80.96609
  0
POINT
  8
寸法
 10
-19.991043
 20
-58.46609
  0
TEXT
  7
TextStyle03
  8
寸法
  6
CONTINUOUS
 10
-20.375
 20
-72.1625
  1
450
 40
3.0
 50
90.0
 72
     5
 11
-20.375
 21
-67.2875
  0
ENDBLK
  0
BLOCK
  2
*GRP_0017
 70
    65
 10
0.0
 20
0.0
  0
INSERT
  2
*GRP_0018
  8
補助線
  6
CONTINUOUS
 10
0.0
 20
0.0
  0
LINE
  8
ボルト／ビス
  6
CONTINUOUS
 10
-126.88576
 20
79.26284
 11
-126.63576
 21
79.118503
  0
LINE
  8
ボルト／ビス
  6
CONTINUOUS
 10
-126.88576
 20
79.26284
 11
-127.13576
 21
79.118503
  0
LINE
  8
ボルト／ビス
  6
CONTINUOUS
 10
-126.63576
 20
78.829827
 11
-126.88576
 21
78.68549
  0
LINE
  8
ボルト／ビス
  6
CONTINUOUS
 10
-127.13576
 20
78.829827
 11
-126.88576
 21
78.68549
  0
CIRCLE
  8
ボルト／ビス
  6
CONTINUOUS
 10
-126.88576
 20
78.974165
 40
0.25
  0
LINE
  8
ボルト／ビス
  6
CONTINUOUS
 10
-127.13576
 20
79.118503
 11
-127.13576
 21
78.829827
  0
LINE
  8
ボルト／ビス
  6
CONTINUOUS
 10
-126.63576
 20
78.829827
 11
-126.63576
 21
79.118503
  0
ENDBLK
  0
BLOCK
  2
*GRP_0018
 70
    65
 10
0.0
 20
0.0
  0
LINE
  8
補助線
  6
BYBLOCK
 62
     0
 10
-127.01076
 20
78.974165
 11
-126.76076
 21
78.974165
  0
LINE
  8
補助線
  6
BYBLOCK
 62
     0
 10
-126.88576
 20
79.099165
 11
-126.88576
 21
78.849165
  0
ENDBLK
  0
BLOCK
  2
*GRP_0019
 70
    65
 10
0.0
 20
0.0
  0
INSERT
  2
*GRP_0020
  8
補助線
  6
CONTINUOUS
 10
0.0
 20
0.0
  0
LINE
  8
ボルト／ビス
  6
CONTINUOUS
 10
-111.88576
 20
79.26284
 11
-111.63576
 21
79.118503
  0
LINE
  8
ボルト／ビス
  6
CONTINUOUS
 10
-111.88576
 20
79.26284
 11
-112.13576
 21
79.118503
  0
LINE
  8
ボルト／ビス
  6
CONTINUOUS
 10
-111.63576
 20
78.829827
 11
-111.88576
 21
78.68549
  0
LINE
  8
ボルト／ビス
  6
CONTINUOUS
 10
-112.13576
 20
78.829827
 11
-111.88576
 21
78.68549
  0
CIRCLE
  8
ボルト／ビス
  6
CONTINUOUS
 10
-111.88576
 20
78.974165
 40
0.25
  0
LINE
  8
ボルト／ビス
  6
CONTINUOUS
 10
-112.13576
 20
79.118503
 11
-112.13576
 21
78.829827
  0
LINE
  8
ボルト／ビス
  6
CONTINUOUS
 10
-111.63576
 20
78.829827
 11
-111.63576
 21
79.118503
  0
ENDBLK
  0
BLOCK
  2
*GRP_0020
 70
    65
 10
0.0
 20
0.0
  0
LINE
  8
補助線
  6
BYBLOCK
 62
     0
 10
-112.01076
 20
78.974165
 11
-111.76076
 21
78.974165
  0
LINE
  8
補助線
  6
BYBLOCK
 62
     0
 10
-111.88576
 20
79.099165
 11
-111.88576
 21
78.849165
  0
ENDBLK
  0
BLOCK
  2
*GRP_0021
 70
    65
 10
0.0
 20
0.0
  0
INSERT
  2
*GRP_0022
  8
補助線
  6
CONTINUOUS
 10
0.0
 20
0.0
  0
LINE
  8
ボルト／ビス
  6
CONTINUOUS
 10
-96.88576
 20
79.26284
 11
-96.63576
 21
79.118503
  0
LINE
  8
ボルト／ビス
  6
CONTINUOUS
 10
-96.88576
 20
79.26284
 11
-97.13576
 21
79.118503
  0
LINE
  8
ボルト／ビス
  6
CONTINUOUS
 10
-96.63576
 20
78.829827
 11
-96.88576
 21
78.68549
  0
LINE
  8
ボルト／ビス
  6
CONTINUOUS
 10
-97.13576
 20
78.829827
 11
-96.88576
 21
78.68549
  0
CIRCLE
  8
ボルト／ビス
  6
CONTINUOUS
 10
-96.88576
 20
78.974165
 40
0.25
  0
LINE
  8
ボルト／ビス
  6
CONTINUOUS
 10
-97.13576
 20
79.118503
 11
-97.13576
 21
78.829827
  0
LINE
  8
ボルト／ビス
  6
CONTINUOUS
 10
-96.63576
 20
78.829827
 11
-96.63576
 21
79.118503
  0
ENDBLK
  0
BLOCK
  2
*GRP_0022
 70
    65
 10
0.0
 20
0.0
  0
LINE
  8
補助線
  6
BYBLOCK
 62
     0
 10
-97.01076
 20
78.974165
 11
-96.76076
 21
78.974165
  0
LINE
  8
補助線
  6
BYBLOCK
 62
     0
 10
-96.88576
 20
79.099165
 11
-96.88576
 21
78.849165
  0
ENDBLK
  0
BLOCK
  2
*GRP_0023
 70
    65
 10
0.0
 20
0.0
  0
INSERT
  2
*GRP_0024
  8
補助線
  6
CONTINUOUS
 10
0.0
 20
0.0
  0
LINE
  8
ボルト／ビス
  6
CONTINUOUS
 10
-81.88576
 20
79.26284
 11
-81.63576
 21
79.118503
  0
LINE
  8
ボルト／ビス
  6
CONTINUOUS
 10
-81.88576
 20
79.26284
 11
-82.13576
 21
79.118503
  0
LINE
  8
ボルト／ビス
  6
CONTINUOUS
 10
-81.63576
 20
78.829827
 11
-81.88576
 21
78.68549
  0
LINE
  8
ボルト／ビス
  6
CONTINUOUS
 10
-82.13576
 20
78.829827
 11
-81.88576
 21
78.68549
  0
CIRCLE
  8
ボルト／ビス
  6
CONTINUOUS
 10
-81.88576
 20
78.974165
 40
0.25
  0
LINE
  8
ボルト／ビス
  6
CONTINUOUS
 10
-82.13576
 20
79.118503
 11
-82.13576
 21
78.829827
  0
LINE
  8
ボルト／ビス
  6
CONTINUOUS
 10
-81.63576
 20
78.829827
 11
-81.63576
 21
79.118503
  0
ENDBLK
  0
BLOCK
  2
*GRP_0024
 70
    65
 10
0.0
 20
0.0
  0
LINE
  8
補助線
  6
BYBLOCK
 62
     0
 10
-82.01076
 20
78.974165
 11
-81.76076
 21
78.974165
  0
LINE
  8
補助線
  6
BYBLOCK
 62
     0
 10
-81.88576
 20
79.099165
 11
-81.88576
 21
78.849165
  0
ENDBLK
  0
BLOCK
  2
*GRP_0025
 70
    65
 10
0.0
 20
0.0
  0
INSERT
  2
*GRP_0026
  8
補助線
  6
CONTINUOUS
 10
0.0
 20
0.0
  0
LINE
  8
ボルト／ビス
  6
CONTINUOUS
 10
-66.88576
 20
79.26284
 11
-67.13576
 21
79.118503
  0
LINE
  8
ボルト／ビス
  6
CONTINUOUS
 10
-66.88576
 20
79.26284
 11
-66.63576
 21
79.118503
  0
LINE
  8
ボルト／ビス
  6
CONTINUOUS
 10
-67.13576
 20
78.829827
 11
-66.88576
 21
78.68549
  0
LINE
  8
ボルト／ビス
  6
CONTINUOUS
 10
-66.63576
 20
78.829827
 11
-66.88576
 21
78.68549
  0
CIRCLE
  8
ボルト／ビス
  6
CONTINUOUS
 10
-66.88576
 20
78.974165
 40
0.25
  0
LINE
  8
ボルト／ビス
  6
CONTINUOUS
 10
-66.63576
 20
79.118503
 11
-66.63576
 21
78.829827
  0
LINE
  8
ボルト／ビス
  6
CONTINUOUS
 10
-67.13576
 20
78.829827
 11
-67.13576
 21
79.118503
  0
ENDBLK
  0
BLOCK
  2
*GRP_0026
 70
    65
 10
0.0
 20
0.0
  0
LINE
  8
補助線
  6
BYBLOCK
 62
     0
 10
-66.76076
 20
78.974165
 11
-67.01076
 21
78.974165
  0
LINE
  8
補助線
  6
BYBLOCK
 62
     0
 10
-66.88576
 20
79.099165
 11
-66.88576
 21
78.849165
  0
ENDBLK
  0
BLOCK
  2
*GRP_0027
 70
    65
 10
0.0
 20
0.0
  0
INSERT
  2
*GRP_0028
  8
補助線
  6
CONTINUOUS
 10
0.0
 20
0.0
  0
LINE
  8
ボルト／ビス
  6
CONTINUOUS
 10
-51.88576
 20
79.26284
 11
-52.13576
 21
79.118503
  0
LINE
  8
ボルト／ビス
  6
CONTINUOUS
 10
-51.88576
 20
79.26284
 11
-51.63576
 21
79.118503
  0
LINE
  8
ボルト／ビス
  6
CONTINUOUS
 10
-52.13576
 20
78.829827
 11
-51.88576
 21
78.68549
  0
LINE
  8
ボルト／ビス
  6
CONTINUOUS
 10
-51.63576
 20
78.829827
 11
-51.88576
 21
78.68549
  0
CIRCLE
  8
ボルト／ビス
  6
CONTINUOUS
 10
-51.88576
 20
78.974165
 40
0.25
  0
LINE
  8
ボルト／ビス
  6
CONTINUOUS
 10
-51.63576
 20
79.118503
 11
-51.63576
 21
78.829827
  0
LINE
  8
ボルト／ビス
  6
CONTINUOUS
 10
-52.13576
 20
78.829827
 11
-52.13576
 21
79.118503
  0
ENDBLK
  0
BLOCK
  2
*GRP_0028
 70
    65
 10
0.0
 20
0.0
  0
LINE
  8
補助線
  6
BYBLOCK
 62
     0
 10
-51.76076
 20
78.974165
 11
-52.01076
 21
78.974165
  0
LINE
  8
補助線
  6
BYBLOCK
 62
     0
 10
-51.88576
 20
79.099165
 11
-51.88576
 21
78.849165
  0
ENDBLK
  0
BLOCK
  2
*GRP_0029
 70
    65
 10
0.0
 20
0.0
  0
INSERT
  2
*GRP_0035
  8
補助線
  6
CONTINUOUS
 10
0.0
 20
0.0
  0
LINE
  8
ボルト／ビス
  6
CONTINUOUS
 10
-43.097085
 20
-4.525835
 11
-43.241423
 21
-4.275835
  0
LINE
  8
ボルト／ビス
  6
CONTINUOUS
 10
-43.097085
 20
-4.525835
 11
-43.241423
 21
-4.775835
  0
LINE
  8
ボルト／ビス
  6
CONTINUOUS
 10
-43.530098
 20
-4.275835
 11
-43.674435
 21
-4.525835
  0
LINE
  8
ボルト／ビス
  6
CONTINUOUS
 10
-43.530098
 20
-4.775835
 11
-43.674435
 21
-4.525835
  0
CIRCLE
  8
ボルト／ビス
  6
CONTINUOUS
 10
-43.38576
 20
-4.525835
 40
0.25
  0
LINE
  8
ボルト／ビス
  6
CONTINUOUS
 10
-43.241423
 20
-4.775835
 11
-43.530098
 21
-4.775835
  0
LINE
  8
ボルト／ビス
  6
CONTINUOUS
 10
-43.530098
 20
-4.275835
 11
-43.241423
 21
-4.275835
  0
ENDBLK
  0
BLOCK
  2
*GRP_0030
 70
    65
 10
0.0
 20
0.0
  0
INSERT
  2
*GRP_0036
  8
補助線
  6
CONTINUOUS
 10
0.0
 20
0.0
  0
LINE
  8
ボルト／ビス
  6
CONTINUOUS
 10
-43.097085
 20
10.474165
 11
-43.241423
 21
10.724165
  0
LINE
  8
ボルト／ビス
  6
CONTINUOUS
 10
-43.097085
 20
10.474165
 11
-43.241423
 21
10.224165
  0
LINE
  8
ボルト／ビス
  6
CONTINUOUS
 10
-43.530098
 20
10.724165
 11
-43.674435
 21
10.474165
  0
LINE
  8
ボルト／ビス
  6
CONTINUOUS
 10
-43.530098
 20
10.224165
 11
-43.674435
 21
10.474165
  0
CIRCLE
  8
ボルト／ビス
  6
CONTINUOUS
 10
-43.38576
 20
10.474165
 40
0.25
  0
LINE
  8
ボルト／ビス
  6
CONTINUOUS
 10
-43.241423
 20
10.224165
 11
-43.530098
 21
10.224165
  0
LINE
  8
ボルト／ビス
  6
CONTINUOUS
 10
-43.530098
 20
10.724165
 11
-43.241423
 21
10.724165
  0
ENDBLK
  0
BLOCK
  2
*GRP_0031
 70
    65
 10
0.0
 20
0.0
  0
INSERT
  2
*GRP_0037
  8
補助線
  6
CONTINUOUS
 10
0.0
 20
0.0
  0
LINE
  8
ボルト／ビス
  6
CONTINUOUS
 10
-43.097085
 20
25.474165
 11
-43.241423
 21
25.724165
  0
LINE
  8
ボルト／ビス
  6
CONTINUOUS
 10
-43.097085
 20
25.474165
 11
-43.241423
 21
25.224165
  0
LINE
  8
ボルト／ビス
  6
CONTINUOUS
 10
-43.530098
 20
25.724165
 11
-43.674435
 21
25.474165
  0
LINE
  8
ボルト／ビス
  6
CONTINUOUS
 10
-43.530098
 20
25.224165
 11
-43.674435
 21
25.474165
  0
CIRCLE
  8
ボルト／ビス
  6
CONTINUOUS
 10
-43.38576
 20
25.474165
 40
0.25
  0
LINE
  8
ボルト／ビス
  6
CONTINUOUS
 10
-43.241423
 20
25.224165
 11
-43.530098
 21
25.224165
  0
LINE
  8
ボルト／ビス
  6
CONTINUOUS
 10
-43.530098
 20
25.724165
 11
-43.241423
 21
25.724165
  0
ENDBLK
  0
BLOCK
  2
*GRP_0032
 70
    65
 10
0.0
 20
0.0
  0
INSERT
  2
*GRP_0038
  8
補助線
  6
CONTINUOUS
 10
0.0
 20
0.0
  0
LINE
  8
ボルト／ビス
  6
CONTINUOUS
 10
-43.097085
 20
40.474165
 11
-43.241423
 21
40.724165
  0
LINE
  8
ボルト／ビス
  6
CONTINUOUS
 10
-43.097085
 20
40.474165
 11
-43.241423
 21
40.224165
  0
LINE
  8
ボルト／ビス
  6
CONTINUOUS
 10
-43.530098
 20
40.724165
 11
-43.674435
 21
40.474165
  0
LINE
  8
ボルト／ビス
  6
CONTINUOUS
 10
-43.530098
 20
40.224165
 11
-43.674435
 21
40.474165
  0
CIRCLE
  8
ボルト／ビス
  6
CONTINUOUS
 10
-43.38576
 20
40.474165
 40
0.25
  0
LINE
  8
ボルト／ビス
  6
CONTINUOUS
 10
-43.241423
 20
40.224165
 11
-43.530098
 21
40.224165
  0
LINE
  8
ボルト／ビス
  6
CONTINUOUS
 10
-43.530098
 20
40.724165
 11
-43.241423
 21
40.724165
  0
ENDBLK
  0
BLOCK
  2
*GRP_0033
 70
    65
 10
0.0
 20
0.0
  0
INSERT
  2
*GRP_0039
  8
補助線
  6
CONTINUOUS
 10
0.0
 20
0.0
  0
LINE
  8
ボルト／ビス
  6
CONTINUOUS
 10
-43.097085
 20
55.474165
 11
-43.241423
 21
55.224165
  0
LINE
  8
ボルト／ビス
  6
CONTINUOUS
 10
-43.097085
 20
55.474165
 11
-43.241423
 21
55.724165
  0
LINE
  8
ボルト／ビス
  6
CONTINUOUS
 10
-43.530098
 20
55.224165
 11
-43.674435
 21
55.474165
  0
LINE
  8
ボルト／ビス
  6
CONTINUOUS
 10
-43.530098
 20
55.724165
 11
-43.674435
 21
55.474165
  0
CIRCLE
  8
ボルト／ビス
  6
CONTINUOUS
 10
-43.38576
 20
55.474165
 40
0.25
  0
LINE
  8
ボルト／ビス
  6
CONTINUOUS
 10
-43.241423
 20
55.724165
 11
-43.530098
 21
55.724165
  0
LINE
  8
ボルト／ビス
  6
CONTINUOUS
 10
-43.530098
 20
55.224165
 11
-43.241423
 21
55.224165
  0
ENDBLK
  0
BLOCK
  2
*GRP_0034
 70
    65
 10
0.0
 20
0.0
  0
INSERT
  2
*GRP_0040
  8
補助線
  6
CONTINUOUS
 10
0.0
 20
0.0
  0
LINE
  8
ボルト／ビス
  6
CONTINUOUS
 10
-43.097085
 20
70.474165
 11
-43.241423
 21
70.224165
  0
LINE
  8
ボルト／ビス
  6
CONTINUOUS
 10
-43.097085
 20
70.474165
 11
-43.241423
 21
70.724165
  0
LINE
  8
ボルト／ビス
  6
CONTINUOUS
 10
-43.530098
 20
70.224165
 11
-43.674435
 21
70.474165
  0
LINE
  8
ボルト／ビス
  6
CONTINUOUS
 10
-43.530098
 20
70.724165
 11
-43.674435
 21
70.474165
  0
CIRCLE
  8
ボルト／ビス
  6
CONTINUOUS
 10
-43.38576
 20
70.474165
 40
0.25
  0
LINE
  8
ボルト／ビス
  6
CONTINUOUS
 10
-43.241423
 20
70.724165
 11
-43.530098
 21
70.724165
  0
LINE
  8
ボルト／ビス
  6
CONTINUOUS
 10
-43.530098
 20
70.224165
 11
-43.241423
 21
70.224165
  0
ENDBLK
  0
BLOCK
  2
*GRP_0035
 70
    65
 10
0.0
 20
0.0
  0
LINE
  8
補助線
  6
BYBLOCK
 62
     0
 10
-43.38576
 20
-4.650835
 11
-43.38576
 21
-4.400835
  0
LINE
  8
補助線
  6
BYBLOCK
 62
     0
 10
-43.26076
 20
-4.525835
 11
-43.51076
 21
-4.525835
  0
ENDBLK
  0
BLOCK
  2
*GRP_0036
 70
    65
 10
0.0
 20
0.0
  0
LINE
  8
補助線
  6
BYBLOCK
 62
     0
 10
-43.38576
 20
10.349165
 11
-43.38576
 21
10.599165
  0
LINE
  8
補助線
  6
BYBLOCK
 62
     0
 10
-43.26076
 20
10.474165
 11
-43.51076
 21
10.474165
  0
ENDBLK
  0
BLOCK
  2
*GRP_0037
 70
    65
 10
0.0
 20
0.0
  0
LINE
  8
補助線
  6
BYBLOCK
 62
     0
 10
-43.38576
 20
25.349165
 11
-43.38576
 21
25.599165
  0
LINE
  8
補助線
  6
BYBLOCK
 62
     0
 10
-43.26076
 20
25.474165
 11
-43.51076
 21
25.474165
  0
ENDBLK
  0
BLOCK
  2
*GRP_0038
 70
    65
 10
0.0
 20
0.0
  0
LINE
  8
補助線
  6
BYBLOCK
 62
     0
 10
-43.38576
 20
40.349165
 11
-43.38576
 21
40.599165
  0
LINE
  8
補助線
  6
BYBLOCK
 62
     0
 10
-43.26076
 20
40.474165
 11
-43.51076
 21
40.474165
  0
ENDBLK
  0
BLOCK
  2
*GRP_0039
 70
    65
 10
0.0
 20
0.0
  0
LINE
  8
補助線
  6
BYBLOCK
 62
     0
 10
-43.38576
 20
55.599165
 11
-43.38576
 21
55.349165
  0
LINE
  8
補助線
  6
BYBLOCK
 62
     0
 10
-43.26076
 20
55.474165
 11
-43.51076
 21
55.474165
  0
ENDBLK
  0
BLOCK
  2
*GRP_0040
 70
    65
 10
0.0
 20
0.0
  0
LINE
  8
補助線
  6
BYBLOCK
 62
     0
 10
-43.38576
 20
70.599165
 11
-43.38576
 21
70.349165
  0
LINE
  8
補助線
  6
BYBLOCK
 62
     0
 10
-43.26076
 20
70.474165
 11
-43.51076
 21
70.474165
  0
ENDBLK
  0
BLOCK
  2
*GRP_0041
 70
    65
 10
0.0
 20
0.0
  0
INSERT
  2
*GRP_0047
  8
補助線
  6
CONTINUOUS
 10
0.0
 20
0.0
  0
LINE
  8
ボルト／ビス
  6
CONTINUOUS
 10
-51.88576
 20
-13.31451
 11
-52.13576
 21
-13.170172
  0
LINE
  8
ボルト／ビス
  6
CONTINUOUS
 10
-51.88576
 20
-13.31451
 11
-51.63576
 21
-13.170172
  0
LINE
  8
ボルト／ビス
  6
CONTINUOUS
 10
-52.13576
 20
-12.881498
 11
-51.88576
 21
-12.73716
  0
LINE
  8
ボルト／ビス
  6
CONTINUOUS
 10
-51.63576
 20
-12.881498
 11
-51.88576
 21
-12.73716
  0
CIRCLE
  8
ボルト／ビス
  6
CONTINUOUS
 10
-51.88576
 20
-13.025835
 40
0.25
  0
LINE
  8
ボルト／ビス
  6
CONTINUOUS
 10
-51.63576
 20
-13.170172
 11
-51.63576
 21
-12.881498
  0
LINE
  8
ボルト／ビス
  6
CONTINUOUS
 10
-52.13576
 20
-12.881498
 11
-52.13576
 21
-13.170172
  0
ENDBLK
  0
BLOCK
  2
*GRP_0042
 70
    65
 10
0.0
 20
0.0
  0
INSERT
  2
*GRP_0048
  8
補助線
  6
CONTINUOUS
 10
0.0
 20
0.0
  0
LINE
  8
ボルト／ビス
  6
CONTINUOUS
 10
-66.88576
 20
-13.31451
 11
-67.13576
 21
-13.170172
  0
LINE
  8
ボルト／ビス
  6
CONTINUOUS
 10
-66.88576
 20
-13.31451
 11
-66.63576
 21
-13.170172
  0
LINE
  8
ボルト／ビス
  6
CONTINUOUS
 10
-67.13576
 20
-12.881498
 11
-66.88576
 21
-12.73716
  0
LINE
  8
ボルト／ビス
  6
CONTINUOUS
 10
-66.63576
 20
-12.881498
 11
-66.88576
 21
-12.73716
  0
CIRCLE
  8
ボルト／ビス
  6
CONTINUOUS
 10
-66.88576
 20
-13.025835
 40
0.25
  0
LINE
  8
ボルト／ビス
  6
CONTINUOUS
 10
-66.63576
 20
-13.170172
 11
-66.63576
 21
-12.881498
  0
LINE
  8
ボルト／ビス
  6
CONTINUOUS
 10
-67.13576
 20
-12.881498
 11
-67.13576
 21
-13.170172
  0
ENDBLK
  0
BLOCK
  2
*GRP_0043
 70
    65
 10
0.0
 20
0.0
  0
INSERT
  2
*GRP_0049
  8
補助線
  6
CONTINUOUS
 10
0.0
 20
0.0
  0
LINE
  8
ボルト／ビス
  6
CONTINUOUS
 10
-81.88576
 20
-13.31451
 11
-82.13576
 21
-13.170172
  0
LINE
  8
ボルト／ビス
  6
CONTINUOUS
 10
-81.88576
 20
-13.31451
 11
-81.63576
 21
-13.170172
  0
LINE
  8
ボルト／ビス
  6
CONTINUOUS
 10
-82.13576
 20
-12.881498
 11
-81.88576
 21
-12.73716
  0
LINE
  8
ボルト／ビス
  6
CONTINUOUS
 10
-81.63576
 20
-12.881498
 11
-81.88576
 21
-12.73716
  0
CIRCLE
  8
ボルト／ビス
  6
CONTINUOUS
 10
-81.88576
 20
-13.025835
 40
0.25
  0
LINE
  8
ボルト／ビス
  6
CONTINUOUS
 10
-81.63576
 20
-13.170172
 11
-81.63576
 21
-12.881498
  0
LINE
  8
ボルト／ビス
  6
CONTINUOUS
 10
-82.13576
 20
-12.881498
 11
-82.13576
 21
-13.170172
  0
ENDBLK
  0
BLOCK
  2
*GRP_0044
 70
    65
 10
0.0
 20
0.0
  0
INSERT
  2
*GRP_0050
  8
補助線
  6
CONTINUOUS
 10
0.0
 20
0.0
  0
LINE
  8
ボルト／ビス
  6
CONTINUOUS
 10
-96.88576
 20
-13.31451
 11
-97.13576
 21
-13.170172
  0
LINE
  8
ボルト／ビス
  6
CONTINUOUS
 10
-96.88576
 20
-13.31451
 11
-96.63576
 21
-13.170172
  0
LINE
  8
ボルト／ビス
  6
CONTINUOUS
 10
-97.13576
 20
-12.881498
 11
-96.88576
 21
-12.73716
  0
LINE
  8
ボルト／ビス
  6
CONTINUOUS
 10
-96.63576
 20
-12.881498
 11
-96.88576
 21
-12.73716
  0
CIRCLE
  8
ボルト／ビス
  6
CONTINUOUS
 10
-96.88576
 20
-13.025835
 40
0.25
  0
LINE
  8
ボルト／ビス
  6
CONTINUOUS
 10
-96.63576
 20
-13.170172
 11
-96.63576
 21
-12.881498
  0
LINE
  8
ボルト／ビス
  6
CONTINUOUS
 10
-97.13576
 20
-12.881498
 11
-97.13576
 21
-13.170172
  0
ENDBLK
  0
BLOCK
  2
*GRP_0045
 70
    65
 10
0.0
 20
0.0
  0
INSERT
  2
*GRP_0051
  8
補助線
  6
CONTINUOUS
 10
0.0
 20
0.0
  0
LINE
  8
ボルト／ビス
  6
CONTINUOUS
 10
-111.88576
 20
-13.31451
 11
-111.63576
 21
-13.170172
  0
LINE
  8
ボルト／ビス
  6
CONTINUOUS
 10
-111.88576
 20
-13.31451
 11
-112.13576
 21
-13.170172
  0
LINE
  8
ボルト／ビス
  6
CONTINUOUS
 10
-111.63576
 20
-12.881498
 11
-111.88576
 21
-12.73716
  0
LINE
  8
ボルト／ビス
  6
CONTINUOUS
 10
-112.13576
 20
-12.881498
 11
-111.88576
 21
-12.73716
  0
CIRCLE
  8
ボルト／ビス
  6
CONTINUOUS
 10
-111.88576
 20
-13.025835
 40
0.25
  0
LINE
  8
ボルト／ビス
  6
CONTINUOUS
 10
-112.13576
 20
-13.170172
 11
-112.13576
 21
-12.881498
  0
LINE
  8
ボルト／ビス
  6
CONTINUOUS
 10
-111.63576
 20
-12.881498
 11
-111.63576
 21
-13.170172
  0
ENDBLK
  0
BLOCK
  2
*GRP_0046
 70
    65
 10
0.0
 20
0.0
  0
INSERT
  2
*GRP_0052
  8
補助線
  6
CONTINUOUS
 10
0.0
 20
0.0
  0
LINE
  8
ボルト／ビス
  6
CONTINUOUS
 10
-126.88576
 20
-13.31451
 11
-126.63576
 21
-13.170172
  0
LINE
  8
ボルト／ビス
  6
CONTINUOUS
 10
-126.88576
 20
-13.31451
 11
-127.13576
 21
-13.170172
  0
LINE
  8
ボルト／ビス
  6
CONTINUOUS
 10
-126.63576
 20
-12.881498
 11
-126.88576
 21
-12.73716
  0
LINE
  8
ボルト／ビス
  6
CONTINUOUS
 10
-127.13576
 20
-12.881498
 11
-126.88576
 21
-12.73716
  0
CIRCLE
  8
ボルト／ビス
  6
CONTINUOUS
 10
-126.88576
 20
-13.025835
 40
0.25
  0
LINE
  8
ボルト／ビス
  6
CONTINUOUS
 10
-127.13576
 20
-13.170172
 11
-127.13576
 21
-12.881498
  0
LINE
  8
ボルト／ビス
  6
CONTINUOUS
 10
-126.63576
 20
-12.881498
 11
-126.63576
 21
-13.170172
  0
ENDBLK
  0
BLOCK
  2
*GRP_0047
 70
    65
 10
0.0
 20
0.0
  0
LINE
  8
補助線
  6
BYBLOCK
 62
     0
 10
-51.76076
 20
-13.025835
 11
-52.01076
 21
-13.025835
  0
LINE
  8
補助線
  6
BYBLOCK
 62
     0
 10
-51.88576
 20
-13.150835
 11
-51.88576
 21
-12.900835
  0
ENDBLK
  0
BLOCK
  2
*GRP_0048
 70
    65
 10
0.0
 20
0.0
  0
LINE
  8
補助線
  6
BYBLOCK
 62
     0
 10
-66.76076
 20
-13.025835
 11
-67.01076
 21
-13.025835
  0
LINE
  8
補助線
  6
BYBLOCK
 62
     0
 10
-66.88576
 20
-13.150835
 11
-66.88576
 21
-12.900835
  0
ENDBLK
  0
BLOCK
  2
*GRP_0049
 70
    65
 10
0.0
 20
0.0
  0
LINE
  8
補助線
  6
BYBLOCK
 62
     0
 10
-81.76076
 20
-13.025835
 11
-82.01076
 21
-13.025835
  0
LINE
  8
補助線
  6
BYBLOCK
 62
     0
 10
-81.88576
 20
-13.150835
 11
-81.88576
 21
-12.900835
  0
ENDBLK
  0
BLOCK
  2
*GRP_0050
 70
    65
 10
0.0
 20
0.0
  0
LINE
  8
補助線
  6
BYBLOCK
 62
     0
 10
-96.76076
 20
-13.025835
 11
-97.01076
 21
-13.025835
  0
LINE
  8
補助線
  6
BYBLOCK
 62
     0
 10
-96.88576
 20
-13.150835
 11
-96.88576
 21
-12.900835
  0
ENDBLK
  0
BLOCK
  2
*GRP_0051
 70
    65
 10
0.0
 20
0.0
  0
LINE
  8
補助線
  6
BYBLOCK
 62
     0
 10
-112.01076
 20
-13.025835
 11
-111.76076
 21
-13.025835
  0
LINE
  8
補助線
  6
BYBLOCK
 62
     0
 10
-111.88576
 20
-13.150835
 11
-111.88576
 21
-12.900835
  0
ENDBLK
  0
BLOCK
  2
*GRP_0052
 70
    65
 10
0.0
 20
0.0
  0
LINE
  8
補助線
  6
BYBLOCK
 62
     0
 10
-127.01076
 20
-13.025835
 11
-126.76076
 21
-13.025835
  0
LINE
  8
補助線
  6
BYBLOCK
 62
     0
 10
-126.88576
 20
-13.150835
 11
-126.88576
 21
-12.900835
  0
ENDBLK
  0
BLOCK
  2
*GRP_0053
 70
    65
 10
0.0
 20
0.0
  0
INSERT
  2
*GRP_0059
  8
補助線
  6
CONTINUOUS
 10
0.0
 20
0.0
  0
LINE
  8
ボルト／ビス
  6
CONTINUOUS
 10
-135.674435
 20
70.474165
 11
-135.530098
 21
70.224165
  0
LINE
  8
ボルト／ビス
  6
CONTINUOUS
 10
-135.674435
 20
70.474165
 11
-135.530098
 21
70.724165
  0
LINE
  8
ボルト／ビス
  6
CONTINUOUS
 10
-135.241423
 20
70.224165
 11
-135.097085
 21
70.474165
  0
LINE
  8
ボルト／ビス
  6
CONTINUOUS
 10
-135.241423
 20
70.724165
 11
-135.097085
 21
70.474165
  0
CIRCLE
  8
ボルト／ビス
  6
CONTINUOUS
 10
-135.38576
 20
70.474165
 40
0.25
  0
LINE
  8
ボルト／ビス
  6
CONTINUOUS
 10
-135.530098
 20
70.724165
 11
-135.241423
 21
70.724165
  0
LINE
  8
ボルト／ビス
  6
CONTINUOUS
 10
-135.241423
 20
70.224165
 11
-135.530098
 21
70.224165
  0
ENDBLK
  0
BLOCK
  2
*GRP_0054
 70
    65
 10
0.0
 20
0.0
  0
INSERT
  2
*GRP_0060
  8
補助線
  6
CONTINUOUS
 10
0.0
 20
0.0
  0
LINE
  8
ボルト／ビス
  6
CONTINUOUS
 10
-135.674435
 20
55.474165
 11
-135.530098
 21
55.224165
  0
LINE
  8
ボルト／ビス
  6
CONTINUOUS
 10
-135.674435
 20
55.474165
 11
-135.530098
 21
55.724165
  0
LINE
  8
ボルト／ビス
  6
CONTINUOUS
 10
-135.241423
 20
55.224165
 11
-135.097085
 21
55.474165
  0
LINE
  8
ボルト／ビス
  6
CONTINUOUS
 10
-135.241423
 20
55.724165
 11
-135.097085
 21
55.474165
  0
CIRCLE
  8
ボルト／ビス
  6
CONTINUOUS
 10
-135.38576
 20
55.474165
 40
0.25
  0
LINE
  8
ボルト／ビス
  6
CONTINUOUS
 10
-135.530098
 20
55.724165
 11
-135.241423
 21
55.724165
  0
LINE
  8
ボルト／ビス
  6
CONTINUOUS
 10
-135.241423
 20
55.224165
 11
-135.530098
 21
55.224165
  0
ENDBLK
  0
BLOCK
  2
*GRP_0055
 70
    65
 10
0.0
 20
0.0
  0
INSERT
  2
*GRP_0061
  8
補助線
  6
CONTINUOUS
 10
0.0
 20
0.0
  0
LINE
  8
ボルト／ビス
  6
CONTINUOUS
 10
-135.674435
 20
40.474165
 11
-135.530098
 21
40.224165
  0
LINE
  8
ボルト／ビス
  6
CONTINUOUS
 10
-135.674435
 20
40.474165
 11
-135.530098
 21
40.724165
  0
LINE
  8
ボルト／ビス
  6
CONTINUOUS
 10
-135.241423
 20
40.224165
 11
-135.097085
 21
40.474165
  0
LINE
  8
ボルト／ビス
  6
CONTINUOUS
 10
-135.241423
 20
40.724165
 11
-135.097085
 21
40.474165
  0
CIRCLE
  8
ボルト／ビス
  6
CONTINUOUS
 10
-135.38576
 20
40.474165
 40
0.25
  0
LINE
  8
ボルト／ビス
  6
CONTINUOUS
 10
-135.530098
 20
40.724165
 11
-135.241423
 21
40.724165
  0
LINE
  8
ボルト／ビス
  6
CONTINUOUS
 10
-135.241423
 20
40.224165
 11
-135.530098
 21
40.224165
  0
ENDBLK
  0
BLOCK
  2
*GRP_0056
 70
    65
 10
0.0
 20
0.0
  0
INSERT
  2
*GRP_0062
  8
補助線
  6
CONTINUOUS
 10
0.0
 20
0.0
  0
LINE
  8
ボルト／ビス
  6
CONTINUOUS
 10
-135.674435
 20
25.474165
 11
-135.530098
 21
25.224165
  0
LINE
  8
ボルト／ビス
  6
CONTINUOUS
 10
-135.674435
 20
25.474165
 11
-135.530098
 21
25.724165
  0
LINE
  8
ボルト／ビス
  6
CONTINUOUS
 10
-135.241423
 20
25.224165
 11
-135.097085
 21
25.474165
  0
LINE
  8
ボルト／ビス
  6
CONTINUOUS
 10
-135.241423
 20
25.724165
 11
-135.097085
 21
25.474165
  0
CIRCLE
  8
ボルト／ビス
  6
CONTINUOUS
 10
-135.38576
 20
25.474165
 40
0.25
  0
LINE
  8
ボルト／ビス
  6
CONTINUOUS
 10
-135.530098
 20
25.724165
 11
-135.241423
 21
25.724165
  0
LINE
  8
ボルト／ビス
  6
CONTINUOUS
 10
-135.241423
 20
25.224165
 11
-135.530098
 21
25.224165
  0
ENDBLK
  0
BLOCK
  2
*GRP_0057
 70
    65
 10
0.0
 20
0.0
  0
INSERT
  2
*GRP_0063
  8
補助線
  6
CONTINUOUS
 10
0.0
 20
0.0
  0
LINE
  8
ボルト／ビス
  6
CONTINUOUS
 10
-135.674435
 20
10.474165
 11
-135.530098
 21
10.724165
  0
LINE
  8
ボルト／ビス
  6
CONTINUOUS
 10
-135.674435
 20
10.474165
 11
-135.530098
 21
10.224165
  0
LINE
  8
ボルト／ビス
  6
CONTINUOUS
 10
-135.241423
 20
10.724165
 11
-135.097085
 21
10.474165
  0
LINE
  8
ボルト／ビス
  6
CONTINUOUS
 10
-135.241423
 20
10.224165
 11
-135.097085
 21
10.474165
  0
CIRCLE
  8
ボルト／ビス
  6
CONTINUOUS
 10
-135.38576
 20
10.474165
 40
0.25
  0
LINE
  8
ボルト／ビス
  6
CONTINUOUS
 10
-135.530098
 20
10.224165
 11
-135.241423
 21
10.224165
  0
LINE
  8
ボルト／ビス
  6
CONTINUOUS
 10
-135.241423
 20
10.724165
 11
-135.530098
 21
10.724165
  0
ENDBLK
  0
BLOCK
  2
*GRP_0058
 70
    65
 10
0.0
 20
0.0
  0
INSERT
  2
*GRP_0064
  8
補助線
  6
CONTINUOUS
 10
0.0
 20
0.0
  0
LINE
  8
ボルト／ビス
  6
CONTINUOUS
 10
-135.674435
 20
-4.525835
 11
-135.530098
 21
-4.275835
  0
LINE
  8
ボルト／ビス
  6
CONTINUOUS
 10
-135.674435
 20
-4.525835
 11
-135.530098
 21
-4.775835
  0
LINE
  8
ボルト／ビス
  6
CONTINUOUS
 10
-135.241423
 20
-4.275835
 11
-135.097085
 21
-4.525835
  0
LINE
  8
ボルト／ビス
  6
CONTINUOUS
 10
-135.241423
 20
-4.775835
 11
-135.097085
 21
-4.525835
  0
CIRCLE
  8
ボルト／ビス
  6
CONTINUOUS
 10
-135.38576
 20
-4.525835
 40
0.25
  0
LINE
  8
ボルト／ビス
  6
CONTINUOUS
 10
-135.530098
 20
-4.775835
 11
-135.241423
 21
-4.775835
  0
LINE
  8
ボルト／ビス
  6
CONTINUOUS
 10
-135.241423
 20
-4.275835
 11
-135.530098
 21
-4.275835
  0
ENDBLK
  0
BLOCK
  2
*GRP_0059
 70
    65
 10
0.0
 20
0.0
  0
LINE
  8
補助線
  6
BYBLOCK
 62
     0
 10
-135.38576
 20
70.599165
 11
-135.38576
 21
70.349165
  0
LINE
  8
補助線
  6
BYBLOCK
 62
     0
 10
-135.51076
 20
70.474165
 11
-135.26076
 21
70.474165
  0
ENDBLK
  0
BLOCK
  2
*GRP_0060
 70
    65
 10
0.0
 20
0.0
  0
LINE
  8
補助線
  6
BYBLOCK
 62
     0
 10
-135.38576
 20
55.599165
 11
-135.38576
 21
55.349165
  0
LINE
  8
補助線
  6
BYBLOCK
 62
     0
 10
-135.51076
 20
55.474165
 11
-135.26076
 21
55.474165
  0
ENDBLK
  0
BLOCK
  2
*GRP_0061
 70
    65
 10
0.0
 20
0.0
  0
LINE
  8
補助線
  6
BYBLOCK
 62
     0
 10
-135.38576
 20
40.599165
 11
-135.38576
 21
40.349165
  0
LINE
  8
補助線
  6
BYBLOCK
 62
     0
 10
-135.51076
 20
40.474165
 11
-135.26076
 21
40.474165
  0
ENDBLK
  0
BLOCK
  2
*GRP_0062
 70
    65
 10
0.0
 20
0.0
  0
LINE
  8
補助線
  6
BYBLOCK
 62
     0
 10
-135.38576
 20
25.599165
 11
-135.38576
 21
25.349165
  0
LINE
  8
補助線
  6
BYBLOCK
 62
     0
 10
-135.51076
 20
25.474165
 11
-135.26076
 21
25.474165
  0
ENDBLK
  0
BLOCK
  2
*GRP_0063
 70
    65
 10
0.0
 20
0.0
  0
LINE
  8
補助線
  6
BYBLOCK
 62
     0
 10
-135.38576
 20
10.349165
 11
-135.38576
 21
10.599165
  0
LINE
  8
補助線
  6
BYBLOCK
 62
     0
 10
-135.51076
 20
10.474165
 11
-135.26076
 21
10.474165
  0
ENDBLK
  0
BLOCK
  2
*GRP_0064
 70
    65
 10
0.0
 20
0.0
  0
LINE
  8
補助線
  6
BYBLOCK
 62
     0
 10
-135.38576
 20
-4.650835
 11
-135.38576
 21
-4.400835
  0
LINE
  8
補助線
  6
BYBLOCK
 62
     0
 10
-135.51076
 20
-4.525835
 11
-135.26076
 21
-4.525835
  0
ENDBLK
  0
BLOCK
  2
*GRP_0065
 70
    65
 10
0.0
 20
0.0
  0
LINE
  8
補助線
  6
BYBLOCK
 62
    64
 10
149.566105
 20
-88.316435
 11
149.739795
 21
-88.49624
  0
LINE
  8
補助線
  6
BYBLOCK
 62
    64
 10
149.742852
 20
-88.319492
 11
149.563047
 21
-88.493182
  0
LINE
  8
補助線
  6
BYBLOCK
 62
    64
 10
138.17161
 20
-76.52129
 11
137.997912
 21
-76.341482
  0
LINE
  8
補助線
  6
BYBLOCK
 62
    64
 10
138.17466
 20
-76.344538
 11
137.994858
 21
-76.518235
  0
LINE
  8
補助線
  6
BYBLOCK
 62
    64
 10
126.603357
 20
-64.546392
 11
126.42966
 21
-64.366593
  0
LINE
  8
補助線
  6
BYBLOCK
 62
    64
 10
126.60641
 20
-64.369645
 11
126.426607
 21
-64.543343
  0
LINE
  8
型材断面
  6
CONTINUOUS
 10
150.899365
 20
-87.897462
 11
150.88104
 21
-88.957963
  0
LINE
  8
型材断面
  6
CONTINUOUS
 10
150.88104
 20
-88.957963
 11
150.161825
 21
-89.652753
  0
LINE
  8
型材断面
  6
CONTINUOUS
 10
150.161825
 20
-89.652753
 11
149.101325
 21
-89.634428
  0
LINE
  8
型材断面
  6
CONTINUOUS
 10
127.06813
 20
-63.228398
 11
126.00763
 21
-63.210083
  0
LINE
  8
型材断面
  6
CONTINUOUS
 10
126.00763
 20
-63.210083
 11
125.288413
 21
-63.904872
  0
LINE
  8
型材断面
  6
CONTINUOUS
 10
125.288413
 20
-63.904872
 11
125.270097
 21
-64.965373
  0
LINE
  8
型材断面
  6
CONTINUOUS
 10
150.899365
 20
-87.897462
 11
127.06825
 21
-63.2284
  0
LINE
  8
型材断面
  6
CONTINUOUS
 10
149.101325
 20
-89.634428
 11
125.2701
 21
-64.965262
  0
LINE
  8
ボルト／ビス
  6
CONTINUOUS
 62
    64
 10
149.98514
 20
-88.085427
 11
150.09696
 21
-88.53357
  0
LINE
  8
ボルト／ビス
  6
CONTINUOUS
 62
    64
 10
149.98514
 20
-88.085427
 11
149.541132
 21
-87.9582
  0
LINE
  8
ボルト／ビス
  6
CONTINUOUS
 62
    64
 10
149.32076
 20
-88.727247
 11
149.764768
 21
-88.854475
  0
LINE
  8
ボルト／ビス
  6
CONTINUOUS
 62
    64
 10
149.32076
 20
-88.727247
 11
149.20894
 21
-88.279105
  0
CIRCLE
  8
ボルト／ビス
  6
CONTINUOUS
 62
    64
 10
149.65295
 20
-88.406337
 40
0.4
  0
LINE
  8
ボルト／ビス
  6
CONTINUOUS
 62
    64
 10
149.541132
 20
-87.9582
 11
149.20894
 21
-88.279105
  0
LINE
  8
ボルト／ビス
  6
CONTINUOUS
 62
    64
 10
150.09696
 20
-88.53357
 11
149.764768
 21
-88.854475
  0
LINE
  8
ボルト／ビス
  6
CONTINUOUS
 62
    64
 10
138.416952
 20
-76.11048
 11
137.97294
 21
-75.983245
  0
LINE
  8
ボルト／ビス
  6
CONTINUOUS
 62
    64
 10
138.416952
 20
-76.11048
 11
138.528773
 21
-76.558618
  0
LINE
  8
ボルト／ビス
  6
CONTINUOUS
 62
    64
 10
137.752568
 20
-76.752293
 11
137.64075
 21
-76.304152
  0
LINE
  8
ボルト／ビス
  6
CONTINUOUS
 62
    64
 10
137.752568
 20
-76.752293
 11
138.196578
 21
-76.879525
  0
CIRCLE
  8
ボルト／ビス
  6
CONTINUOUS
 62
    64
 10
138.084757
 20
-76.431385
 40
0.4
  0
LINE
  8
ボルト／ビス
  6
CONTINUOUS
 62
    64
 10
138.528773
 20
-76.558618
 11
138.196578
 21
-76.879525
  0
LINE
  8
ボルト／ビス
  6
CONTINUOUS
 62
    64
 10
137.97294
 20
-75.983245
 11
137.64075
 21
-76.304152
  0
LINE
  8
ボルト／ビス
  6
CONTINUOUS
 62
    64
 10
126.8487
 20
-64.135582
 11
126.404687
 21
-64.008353
  0
LINE
  8
ボルト／ビス
  6
CONTINUOUS
 62
    64
 10
126.8487
 20
-64.135582
 11
126.960518
 21
-64.583723
  0
LINE
  8
ボルト／ビス
  6
CONTINUOUS
 62
    64
 10
126.184317
 20
-64.777402
 11
126.0725
 21
-64.32926
  0
LINE
  8
ボルト／ビス
  6
CONTINUOUS
 62
    64
 10
126.184317
 20
-64.777402
 11
126.628333
 21
-64.904633
  0
CIRCLE
  8
ボルト／ビス
  6
CONTINUOUS
 62
    64
 10
126.51651
 20
-64.456492
 40
0.4
  0
LINE
  8
ボルト／ビス
  6
CONTINUOUS
 62
    64
 10
126.960518
 20
-64.583723
 11
126.628333
 21
-64.904633
  0
LINE
  8
ボルト／ビス
  6
CONTINUOUS
 62
    64
 10
126.404687
 20
-64.008353
 11
126.0725
 21
-64.32926
  0
ENDBLK
  0
BLOCK
  2
*GRP_0066
 70
    65
 10
0.0
 20
0.0
  0
LINE
  8
補助線
  6
BYBLOCK
 62
    64
 10
126.603415
 20
-88.316435
 11
126.429725
 21
-88.49624
  0
LINE
  8
補助線
  6
BYBLOCK
 62
    64
 10
126.426668
 20
-88.319492
 11
126.606473
 21
-88.493182
  0
LINE
  8
補助線
  6
BYBLOCK
 62
    64
 10
137.99791
 20
-76.52129
 11
138.171608
 21
-76.341482
  0
LINE
  8
補助線
  6
BYBLOCK
 62
    64
 10
137.99486
 20
-76.344538
 11
138.174662
 21
-76.518235
  0
LINE
  8
補助線
  6
BYBLOCK
 62
    64
 10
149.566163
 20
-64.546392
 11
149.73986
 21
-64.366593
  0
LINE
  8
補助線
  6
BYBLOCK
 62
    64
 10
149.56311
 20
-64.369645
 11
149.742913
 21
-64.543343
  0
LINE
  8
型材断面
  6
CONTINUOUS
 10
125.270155
 20
-87.897462
 11
125.28848
 21
-88.957963
  0
LINE
  8
型材断面
  6
CONTINUOUS
 10
125.28848
 20
-88.957963
 11
126.007695
 21
-89.652753
  0
LINE
  8
型材断面
  6
CONTINUOUS
 10
126.007695
 20
-89.652753
 11
127.068195
 21
-89.634428
  0
LINE
  8
型材断面
  6
CONTINUOUS
 10
149.10139
 20
-63.228398
 11
150.16189
 21
-63.210083
  0
LINE
  8
型材断面
  6
CONTINUOUS
 10
150.16189
 20
-63.210083
 11
150.881107
 21
-63.904872
  0
LINE
  8
型材断面
  6
CONTINUOUS
 10
150.881107
 20
-63.904872
 11
150.899423
 21
-64.965373
  0
LINE
  8
型材断面
  6
CONTINUOUS
 10
125.270155
 20
-87.897462
 11
149.10127
 21
-63.2284
  0
LINE
  8
型材断面
  6
CONTINUOUS
 10
127.068195
 20
-89.634428
 11
150.89942
 21
-64.965262
  0
LINE
  8
ボルト／ビス
  6
CONTINUOUS
 62
    64
 10
126.18438
 20
-88.085427
 11
126.07256
 21
-88.53357
  0
LINE
  8
ボルト／ビス
  6
CONTINUOUS
 62
    64
 10
126.18438
 20
-88.085427
 11
126.628387
 21
-87.9582
  0
LINE
  8
ボルト／ビス
  6
CONTINUOUS
 62
    64
 10
126.84876
 20
-88.727247
 11
126.404753
 21
-88.854475
  0
LINE
  8
ボルト／ビス
  6
CONTINUOUS
 62
    64
 10
126.84876
 20
-88.727247
 11
126.96058
 21
-88.279105
  0
CIRCLE
  8
ボルト／ビス
  6
CONTINUOUS
 62
    64
 10
126.51657
 20
-88.406337
 40
0.4
  0
LINE
  8
ボルト／ビス
  6
CONTINUOUS
 62
    64
 10
126.628387
 20
-87.9582
 11
126.96058
 21
-88.279105
  0
LINE
  8
ボルト／ビス
  6
CONTINUOUS
 62
    64
 10
126.07256
 20
-88.53357
 11
126.404753
 21
-88.854475
  0
LINE
  8
ボルト／ビス
  6
CONTINUOUS
 62
    64
 10
137.752568
 20
-76.11048
 11
138.19658
 21
-75.983245
  0
LINE
  8
ボルト／ビス
  6
CONTINUOUS
 62
    64
 10
137.752568
 20
-76.11048
 11
137.640748
 21
-76.558618
  0
LINE
  8
ボルト／ビス
  6
CONTINUOUS
 62
    64
 10
138.416952
 20
-76.752293
 11
138.52877
 21
-76.304152
  0
LINE
  8
ボルト／ビス
  6
CONTINUOUS
 62
    64
 10
138.416952
 20
-76.752293
 11
137.972942
 21
-76.879525
  0
CIRCLE
  8
ボルト／ビス
  6
CONTINUOUS
 62
    64
 10
138.084763
 20
-76.431385
 40
0.4
  0
LINE
  8
ボルト／ビス
  6
CONTINUOUS
 62
    64
 10
137.640748
 20
-76.558618
 11
137.972942
 21
-76.879525
  0
LINE
  8
ボルト／ビス
  6
CONTINUOUS
 62
    64
 10
138.19658
 20
-75.983245
 11
138.52877
 21
-76.304152
  0
LINE
  8
ボルト／ビス
  6
CONTINUOUS
 62
    64
 10
149.32082
 20
-64.135582
 11
149.764833
 21
-64.008353
  0
LINE
  8
ボルト／ビス
  6
CONTINUOUS
 62
    64
 10
149.32082
 20
-64.135582
 11
149.209002
 21
-64.583723
  0
LINE
  8
ボルト／ビス
  6
CONTINUOUS
 62
    64
 10
149.985203
 20
-64.777402
 11
150.09702
 21
-64.32926
  0
LINE
  8
ボルト／ビス
  6
CONTINUOUS
 62
    64
 10
149.985203
 20
-64.777402
 11
149.541187
 21
-64.904633
  0
CIRCLE
  8
ボルト／ビス
  6
CONTINUOUS
 62
    64
 10
149.65301
 20
-64.456492
 40
0.4
  0
LINE
  8
ボルト／ビス
  6
CONTINUOUS
 62
    64
 10
149.209002
 20
-64.583723
 11
149.541187
 21
-64.904633
  0
LINE
  8
ボルト／ビス
  6
CONTINUOUS
 62
    64
 10
149.764833
 20
-64.008353
 11
150.09702
 21
-64.32926
  0
ENDBLK
  0
BLOCK
  2
*GRP_0067
 70
    65
 10
0.0
 20
0.0
  0
LINE
  8
補助線
  6
BYBLOCK
 62
    64
 10
73.709915
 20
-88.316435
 11
73.536225
 21
-88.49624
  0
LINE
  8
補助線
  6
BYBLOCK
 62
    64
 10
73.533167
 20
-88.319492
 11
73.712973
 21
-88.493182
  0
LINE
  8
補助線
  6
BYBLOCK
 62
    64
 10
85.10441
 20
-76.52129
 11
85.278108
 21
-76.341482
  0
LINE
  8
補助線
  6
BYBLOCK
 62
    64
 10
85.10136
 20
-76.344538
 11
85.281163
 21
-76.518235
  0
LINE
  8
補助線
  6
BYBLOCK
 62
    64
 10
96.672662
 20
-64.546392
 11
96.84636
 21
-64.366593
  0
LINE
  8
補助線
  6
BYBLOCK
 62
    64
 10
96.66961
 20
-64.369645
 11
96.849412
 21
-64.543343
  0
LINE
  8
型材断面
  6
CONTINUOUS
 10
72.376655
 20
-87.897462
 11
72.39498
 21
-88.957963
  0
LINE
  8
型材断面
  6
CONTINUOUS
 10
72.39498
 20
-88.957963
 11
73.114195
 21
-89.652753
  0
LINE
  8
型材断面
  6
CONTINUOUS
 10
73.114195
 20
-89.652753
 11
74.174695
 21
-89.634428
  0
LINE
  8
型材断面
  6
CONTINUOUS
 10
96.20789
 20
-63.228398
 11
97.26839
 21
-63.210083
  0
LINE
  8
型材断面
  6
CONTINUOUS
 10
97.26839
 20
-63.210083
 11
97.987608
 21
-63.904872
  0
LINE
  8
型材断面
  6
CONTINUOUS
 10
97.987608
 20
-63.904872
 11
98.005923
 21
-64.965373
  0
LINE
  8
型材断面
  6
CONTINUOUS
 10
72.376655
 20
-87.897462
 11
96.20777
 21
-63.2284
  0
LINE
  8
型材断面
  6
CONTINUOUS
 10
74.174695
 20
-89.634428
 11
98.00592
 21
-64.965262
  0
LINE
  8
ボルト／ビス
  6
CONTINUOUS
 62
    64
 10
73.29088
 20
-88.085427
 11
73.17906
 21
-88.53357
  0
LINE
  8
ボルト／ビス
  6
CONTINUOUS
 62
    64
 10
73.29088
 20
-88.085427
 11
73.734887
 21
-87.9582
  0
LINE
  8
ボルト／ビス
  6
CONTINUOUS
 62
    64
 10
73.95526
 20
-88.727247
 11
73.511253
 21
-88.854475
  0
LINE
  8
ボルト／ビス
  6
CONTINUOUS
 62
    64
 10
73.95526
 20
-88.727247
 11
74.06708
 21
-88.279105
  0
CIRCLE
  8
ボルト／ビス
  6
CONTINUOUS
 62
    64
 10
73.62307
 20
-88.406337
 40
0.4
  0
LINE
  8
ボルト／ビス
  6
CONTINUOUS
 62
    64
 10
73.734887
 20
-87.9582
 11
74.06708
 21
-88.279105
  0
LINE
  8
ボルト／ビス
  6
CONTINUOUS
 62
    64
 10
73.17906
 20
-88.53357
 11
73.511253
 21
-88.854475
  0
LINE
  8
ボルト／ビス
  6
CONTINUOUS
 62
    64
 10
84.859067
 20
-76.11048
 11
85.30308
 21
-75.983245
  0
LINE
  8
ボルト／ビス
  6
CONTINUOUS
 62
    64
 10
84.859067
 20
-76.11048
 11
84.747248
 21
-76.558618
  0
LINE
  8
ボルト／ビス
  6
CONTINUOUS
 62
    64
 10
85.523452
 20
-76.752293
 11
85.63527
 21
-76.304152
  0
LINE
  8
ボルト／ビス
  6
CONTINUOUS
 62
    64
 10
85.523452
 20
-76.752293
 11
85.079442
 21
-76.879525
  0
CIRCLE
  8
ボルト／ビス
  6
CONTINUOUS
 62
    64
 10
85.191263
 20
-76.431385
 40
0.4
  0
LINE
  8
ボルト／ビス
  6
CONTINUOUS
 62
    64
 10
84.747248
 20
-76.558618
 11
85.079442
 21
-76.879525
  0
LINE
  8
ボルト／ビス
  6
CONTINUOUS
 62
    64
 10
85.30308
 20
-75.983245
 11
85.63527
 21
-76.304152
  0
LINE
  8
ボルト／ビス
  6
CONTINUOUS
 62
    64
 10
96.42732
 20
-64.135582
 11
96.871333
 21
-64.008353
  0
LINE
  8
ボルト／ビス
  6
CONTINUOUS
 62
    64
 10
96.42732
 20
-64.135582
 11
96.315503
 21
-64.583723
  0
LINE
  8
ボルト／ビス
  6
CONTINUOUS
 62
    64
 10
97.091703
 20
-64.777402
 11
97.20352
 21
-64.32926
  0
LINE
  8
ボルト／ビス
  6
CONTINUOUS
 62
    64
 10
97.091703
 20
-64.777402
 11
96.647688
 21
-64.904633
  0
CIRCLE
  8
ボルト／ビス
  6
CONTINUOUS
 62
    64
 10
96.75951
 20
-64.456492
 40
0.4
  0
LINE
  8
ボルト／ビス
  6
CONTINUOUS
 62
    64
 10
96.315503
 20
-64.583723
 11
96.647688
 21
-64.904633
  0
LINE
  8
ボルト／ビス
  6
CONTINUOUS
 62
    64
 10
96.871333
 20
-64.008353
 11
97.20352
 21
-64.32926
  0
ENDBLK
  0
BLOCK
  2
*GRP_0068
 70
    65
 10
0.0
 20
0.0
  0
LINE
  8
補助線
  6
BYBLOCK
 62
    64
 10
96.672605
 20
-88.316435
 11
96.846295
 21
-88.49624
  0
LINE
  8
補助線
  6
BYBLOCK
 62
    64
 10
96.849352
 20
-88.319492
 11
96.669548
 21
-88.493182
  0
LINE
  8
補助線
  6
BYBLOCK
 62
    64
 10
85.27811
 20
-76.52129
 11
85.104413
 21
-76.341482
  0
LINE
  8
補助線
  6
BYBLOCK
 62
    64
 10
85.28116
 20
-76.344538
 11
85.101358
 21
-76.518235
  0
LINE
  8
補助線
  6
BYBLOCK
 62
    64
 10
73.709857
 20
-64.546392
 11
73.53616
 21
-64.366593
  0
LINE
  8
補助線
  6
BYBLOCK
 62
    64
 10
73.71291
 20
-64.369645
 11
73.533108
 21
-64.543343
  0
LINE
  8
型材断面
  6
CONTINUOUS
 10
98.005865
 20
-87.897462
 11
97.98754
 21
-88.957963
  0
LINE
  8
型材断面
  6
CONTINUOUS
 10
97.98754
 20
-88.957963
 11
97.268325
 21
-89.652753
  0
LINE
  8
型材断面
  6
CONTINUOUS
 10
97.268325
 20
-89.652753
 11
96.207825
 21
-89.634428
  0
LINE
  8
型材断面
  6
CONTINUOUS
 10
74.17463
 20
-63.228398
 11
73.11413
 21
-63.210083
  0
LINE
  8
型材断面
  6
CONTINUOUS
 10
73.11413
 20
-63.210083
 11
72.394912
 21
-63.904872
  0
LINE
  8
型材断面
  6
CONTINUOUS
 10
72.394912
 20
-63.904872
 11
72.376598
 21
-64.965373
  0
LINE
  8
型材断面
  6
CONTINUOUS
 10
98.005865
 20
-87.897462
 11
74.17475
 21
-63.2284
  0
LINE
  8
型材断面
  6
CONTINUOUS
 10
96.207825
 20
-89.634428
 11
72.3766
 21
-64.965262
  0
LINE
  8
ボルト／ビス
  6
CONTINUOUS
 62
    64
 10
97.09164
 20
-88.085427
 11
97.20346
 21
-88.53357
  0
LINE
  8
ボルト／ビス
  6
CONTINUOUS
 62
    64
 10
97.09164
 20
-88.085427
 11
96.647632
 21
-87.9582
  0
LINE
  8
ボルト／ビス
  6
CONTINUOUS
 62
    64
 10
96.42726
 20
-88.727247
 11
96.871268
 21
-88.854475
  0
LINE
  8
ボルト／ビス
  6
CONTINUOUS
 62
    64
 10
96.42726
 20
-88.727247
 11
96.31544
 21
-88.279105
  0
CIRCLE
  8
ボルト／ビス
  6
CONTINUOUS
 62
    64
 10
96.75945
 20
-88.406337
 40
0.4
  0
LINE
  8
ボルト／ビス
  6
CONTINUOUS
 62
    64
 10
96.647632
 20
-87.9582
 11
96.31544
 21
-88.279105
  0
LINE
  8
ボルト／ビス
  6
CONTINUOUS
 62
    64
 10
97.20346
 20
-88.53357
 11
96.871268
 21
-88.854475
  0
LINE
  8
ボルト／ビス
  6
CONTINUOUS
 62
    64
 10
85.523452
 20
-76.11048
 11
85.07944
 21
-75.983245
  0
LINE
  8
ボルト／ビス
  6
CONTINUOUS
 62
    64
 10
85.523452
 20
-76.11048
 11
85.635273
 21
-76.558618
  0
LINE
  8
ボルト／ビス
  6
CONTINUOUS
 62
    64
 10
84.859067
 20
-76.752293
 11
84.74725
 21
-76.304152
  0
LINE
  8
ボルト／ビス
  6
CONTINUOUS
 62
    64
 10
84.859067
 20
-76.752293
 11
85.303077
 21
-76.879525
  0
CIRCLE
  8
ボルト／ビス
  6
CONTINUOUS
 62
    64
 10
85.191258
 20
-76.431385
 40
0.4
  0
LINE
  8
ボルト／ビス
  6
CONTINUOUS
 62
    64
 10
85.635273
 20
-76.558618
 11
85.303077
 21
-76.879525
  0
LINE
  8
ボルト／ビス
  6
CONTINUOUS
 62
    64
 10
85.07944
 20
-75.983245
 11
84.74725
 21
-76.304152
  0
LINE
  8
ボルト／ビス
  6
CONTINUOUS
 62
    64
 10
73.9552
 20
-64.135582
 11
73.511188
 21
-64.008353
  0
LINE
  8
ボルト／ビス
  6
CONTINUOUS
 62
    64
 10
73.9552
 20
-64.135582
 11
74.067017
 21
-64.583723
  0
LINE
  8
ボルト／ビス
  6
CONTINUOUS
 62
    64
 10
73.290818
 20
-64.777402
 11
73.179
 21
-64.32926
  0
LINE
  8
ボルト／ビス
  6
CONTINUOUS
 62
    64
 10
73.290818
 20
-64.777402
 11
73.734833
 21
-64.904633
  0
CIRCLE
  8
ボルト／ビス
  6
CONTINUOUS
 62
    64
 10
73.62301
 20
-64.456492
 40
0.4
  0
LINE
  8
ボルト／ビス
  6
CONTINUOUS
 62
    64
 10
74.067017
 20
-64.583723
 11
73.734833
 21
-64.904633
  0
LINE
  8
ボルト／ビス
  6
CONTINUOUS
 62
    64
 10
73.511188
 20
-64.008353
 11
73.179
 21
-64.32926
  0
ENDBLK
  0
BLOCK
  2
*GRP_0070
 70
    65
 10
0.0
 20
0.0
  0
LINE
  8
ボルト／ビス
  6
CONTINUOUS
 10
-135.38576
 20
-80.966093
 11
-135.38576
 21
-80.266093
  0
LINE
  8
ボルト／ビス
  6
CONTINUOUS
 10
-135.93576
 20
-80.966093
 11
-135.93576
 21
-80.866093
  0
LINE
  8
ボルト／ビス
  6
CONTINUOUS
 10
-135.93576
 20
-80.866093
 11
-134.83576
 21
-80.866093
  0
LINE
  8
ボルト／ビス
  6
CONTINUOUS
 10
-134.83576
 20
-80.866093
 11
-134.83576
 21
-80.966093
  0
LINE
  8
ボルト／ビス
  6
CONTINUOUS
 10
-135.93576
 20
-80.966093
 11
-134.83576
 21
-80.966093
  0
LINE
  8
ボルト／ビス
  6
CONTINUOUS
 10
-135.83576
 20
-80.816093
 11
-135.83576
 21
-80.866093
  0
LINE
  8
ボルト／ビス
  6
CONTINUOUS
 10
-135.83576
 20
-80.816093
 11
-134.93576
 21
-80.816093
  0
LINE
  8
ボルト／ビス
  6
CONTINUOUS
 10
-134.93576
 20
-80.816093
 11
-134.93576
 21
-80.866093
  0
LINE
  8
ボルト／ビス
  6
CONTINUOUS
 62
    64
 10
-135.626322
 20
-80.516093
 11
-135.674435
 21
-80.533605
  0
ARC
  8
ボルト／ビス
  6
CONTINUOUS
 62
    64
 10
-135.602265
 20
-80.67356
 40
0.157468
 50
62.721967
 51
90.0
  0
ARC
  8
ボルト／ビス
  6
CONTINUOUS
 62
    64
 10
-135.385759
 20
-81.119696
 40
0.603603
 50
76.165002
 51
103.834985
  0
LINE
  8
ボルト／ビス
  6
CONTINUOUS
 62
    64
 10
-135.145197
 20
-80.516093
 11
-135.097085
 21
-80.533605
  0
ARC
  8
ボルト／ビス
  6
CONTINUOUS
 62
    64
 10
-135.169252
 20
-80.67356
 40
0.157468
 50
90.0
 51
117.278033
  0
LINE
  8
ボルト／ビス
  6
CONTINUOUS
 62
    64
 10
-135.626322
 20
-80.516093
 11
-135.145197
 21
-80.516093
  0
LINE
  8
ボルト／ビス
  6
CONTINUOUS
 62
    64
 10
-135.097085
 20
-80.533605
 11
-135.097085
 21
-80.716093
  0
LINE
  8
ボルト／ビス
  6
CONTINUOUS
 62
    64
 10
-135.241423
 20
-80.533605
 11
-135.241423
 21
-80.716093
  0
LINE
  8
ボルト／ビス
  6
CONTINUOUS
 62
    64
 10
-135.674435
 20
-80.533605
 11
-135.674435
 21
-80.716093
  0
LINE
  8
ボルト／ビス
  6
CONTINUOUS
 62
    64
 10
-135.530098
 20
-80.533605
 11
-135.530098
 21
-80.716093
  0
LINE
  8
ボルト／ビス
  6
CONTINUOUS
 10
-135.674435
 20
-80.716093
 11
-135.097085
 21
-80.716093
  0
LINE
  8
ボルト／ビス
  6
CONTINUOUS
 10
-135.68576
 20
-80.716093
 11
-135.68576
 21
-80.816093
  0
LINE
  8
ボルト／ビス
  6
CONTINUOUS
 10
-135.68576
 20
-80.716093
 11
-135.08576
 21
-80.716093
  0
LINE
  8
ボルト／ビス
  6
CONTINUOUS
 10
-135.08576
 20
-80.716093
 11
-135.08576
 21
-80.816093
  0
ENDBLK
  0
BLOCK
  2
*GRP_0071
 70
    65
 10
0.0
 20
0.0
  0
LINE
  8
ボルト／ビス
  6
CONTINUOUS
 10
-43.38576
 20
-80.966093
 11
-43.38576
 21
-80.266093
  0
LINE
  8
ボルト／ビス
  6
CONTINUOUS
 10
-43.93576
 20
-80.966093
 11
-43.93576
 21
-80.866093
  0
LINE
  8
ボルト／ビス
  6
CONTINUOUS
 10
-43.93576
 20
-80.866093
 11
-42.83576
 21
-80.866093
  0
LINE
  8
ボルト／ビス
  6
CONTINUOUS
 10
-42.83576
 20
-80.866093
 11
-42.83576
 21
-80.966093
  0
LINE
  8
ボルト／ビス
  6
CONTINUOUS
 10
-43.93576
 20
-80.966093
 11
-42.83576
 21
-80.966093
  0
LINE
  8
ボルト／ビス
  6
CONTINUOUS
 10
-43.83576
 20
-80.816093
 11
-43.83576
 21
-80.866093
  0
LINE
  8
ボルト／ビス
  6
CONTINUOUS
 10
-43.83576
 20
-80.816093
 11
-42.93576
 21
-80.816093
  0
LINE
  8
ボルト／ビス
  6
CONTINUOUS
 10
-42.93576
 20
-80.816093
 11
-42.93576
 21
-80.866093
  0
LINE
  8
ボルト／ビス
  6
CONTINUOUS
 62
    64
 10
-43.626322
 20
-80.516093
 11
-43.674435
 21
-80.533605
  0
ARC
  8
ボルト／ビス
  6
CONTINUOUS
 62
    64
 10
-43.602265
 20
-80.67356
 40
0.157468
 50
62.721967
 51
90.0
  0
ARC
  8
ボルト／ビス
  6
CONTINUOUS
 62
    64
 10
-43.385759
 20
-81.119696
 40
0.603603
 50
76.165002
 51
103.834985
  0
LINE
  8
ボルト／ビス
  6
CONTINUOUS
 62
    64
 10
-43.145197
 20
-80.516093
 11
-43.097085
 21
-80.533605
  0
ARC
  8
ボルト／ビス
  6
CONTINUOUS
 62
    64
 10
-43.169253
 20
-80.67356
 40
0.157468
 50
90.0
 51
117.278033
  0
LINE
  8
ボルト／ビス
  6
CONTINUOUS
 62
    64
 10
-43.626322
 20
-80.516093
 11
-43.145197
 21
-80.516093
  0
LINE
  8
ボルト／ビス
  6
CONTINUOUS
 62
    64
 10
-43.097085
 20
-80.533605
 11
-43.097085
 21
-80.716093
  0
LINE
  8
ボルト／ビス
  6
CONTINUOUS
 62
    64
 10
-43.241423
 20
-80.533605
 11
-43.241423
 21
-80.716093
  0
LINE
  8
ボルト／ビス
  6
CONTINUOUS
 62
    64
 10
-43.674435
 20
-80.533605
 11
-43.674435
 21
-80.716093
  0
LINE
  8
ボルト／ビス
  6
CONTINUOUS
 62
    64
 10
-43.530098
 20
-80.533605
 11
-43.530098
 21
-80.716093
  0
LINE
  8
ボルト／ビス
  6
CONTINUOUS
 10
-43.674435
 20
-80.716093
 11
-43.097085
 21
-80.716093
  0
LINE
  8
ボルト／ビス
  6
CONTINUOUS
 10
-43.68576
 20
-80.716093
 11
-43.68576
 21
-80.816093
  0
LINE
  8
ボルト／ビス
  6
CONTINUOUS
 10
-43.68576
 20
-80.716093
 11
-43.08576
 21
-80.716093
  0
LINE
  8
ボルト／ビス
  6
CONTINUOUS
 10
-43.08576
 20
-80.716093
 11
-43.08576
 21
-80.816093
  0
ENDBLK
  0
BLOCK
  2
*GRP_0072
 70
    65
 10
0.0
 20
0.0
  0
LINE
  8
ボルト／ビス
  6
CONTINUOUS
 10
65.653012
 20
-80.966093
 11
65.653012
 21
-80.266093
  0
LINE
  8
ボルト／ビス
  6
CONTINUOUS
 10
65.103012
 20
-80.966093
 11
65.103012
 21
-80.866093
  0
LINE
  8
ボルト／ビス
  6
CONTINUOUS
 10
65.103012
 20
-80.866093
 11
66.203012
 21
-80.866093
  0
LINE
  8
ボルト／ビス
  6
CONTINUOUS
 10
66.203012
 20
-80.866093
 11
66.203012
 21
-80.966093
  0
LINE
  8
ボルト／ビス
  6
CONTINUOUS
 10
65.103012
 20
-80.966093
 11
66.203012
 21
-80.966093
  0
LINE
  8
ボルト／ビス
  6
CONTINUOUS
 10
65.203012
 20
-80.816093
 11
65.203012
 21
-80.866093
  0
LINE
  8
ボルト／ビス
  6
CONTINUOUS
 10
65.203012
 20
-80.816093
 11
66.103012
 21
-80.816093
  0
LINE
  8
ボルト／ビス
  6
CONTINUOUS
 10
66.103012
 20
-80.816093
 11
66.103012
 21
-80.866093
  0
LINE
  8
ボルト／ビス
  6
CONTINUOUS
 62
    64
 10
65.41245
 20
-80.516093
 11
65.364337
 21
-80.533605
  0
ARC
  8
ボルト／ビス
  6
CONTINUOUS
 62
    64
 10
65.436508
 20
-80.67356
 40
0.157468
 50
62.721967
 51
90.0
  0
ARC
  8
ボルト／ビス
  6
CONTINUOUS
 62
    64
 10
65.653015
 20
-81.119696
 40
0.603603
 50
76.165002
 51
103.834985
  0
LINE
  8
ボルト／ビス
  6
CONTINUOUS
 62
    64
 10
65.893575
 20
-80.516093
 11
65.941688
 21
-80.533605
  0
ARC
  8
ボルト／ビス
  6
CONTINUOUS
 62
    64
 10
65.869521
 20
-80.67356
 40
0.157468
 50
90.0
 51
117.278033
  0
LINE
  8
ボルト／ビス
  6
CONTINUOUS
 62
    64
 10
65.41245
 20
-80.516093
 11
65.893575
 21
-80.516093
  0
LINE
  8
ボルト／ビス
  6
CONTINUOUS
 62
    64
 10
65.941688
 20
-80.533605
 11
65.941688
 21
-80.716093
  0
LINE
  8
ボルト／ビス
  6
CONTINUOUS
 62
    64
 10
65.79735
 20
-80.533605
 11
65.79735
 21
-80.716093
  0
LINE
  8
ボルト／ビス
  6
CONTINUOUS
 62
    64
 10
65.364337
 20
-80.533605
 11
65.364337
 21
-80.716093
  0
LINE
  8
ボルト／ビス
  6
CONTINUOUS
 62
    64
 10
65.508675
 20
-80.533605
 11
65.508675
 21
-80.716093
  0
LINE
  8
ボルト／ビス
  6
CONTINUOUS
 10
65.364337
 20
-80.716093
 11
65.941688
 21
-80.716093
  0
LINE
  8
ボルト／ビス
  6
CONTINUOUS
 10
65.353012
 20
-80.716093
 11
65.353012
 21
-80.816093
  0
LINE
  8
ボルト／ビス
  6
CONTINUOUS
 10
65.353012
 20
-80.716093
 11
65.953012
 21
-80.716093
  0
LINE
  8
ボルト／ビス
  6
CONTINUOUS
 10
65.953012
 20
-80.716093
 11
65.953012
 21
-80.816093
  0
ENDBLK
  0
BLOCK
  2
*GRP_0073
 70
    65
 10
0.0
 20
0.0
  0
LINE
  8
ボルト／ビス
  6
CONTINUOUS
 10
157.653012
 20
-80.966093
 11
157.653012
 21
-80.266093
  0
LINE
  8
ボルト／ビス
  6
CONTINUOUS
 10
157.103012
 20
-80.966093
 11
157.103012
 21
-80.866093
  0
LINE
  8
ボルト／ビス
  6
CONTINUOUS
 10
157.103012
 20
-80.866093
 11
158.203012
 21
-80.866093
  0
LINE
  8
ボルト／ビス
  6
CONTINUOUS
 10
158.203012
 20
-80.866093
 11
158.203012
 21
-80.966093
  0
LINE
  8
ボルト／ビス
  6
CONTINUOUS
 10
157.103012
 20
-80.966093
 11
158.203012
 21
-80.966093
  0
LINE
  8
ボルト／ビス
  6
CONTINUOUS
 10
157.203012
 20
-80.816093
 11
157.203012
 21
-80.866093
  0
LINE
  8
ボルト／ビス
  6
CONTINUOUS
 10
157.203012
 20
-80.816093
 11
158.103012
 21
-80.816093
  0
LINE
  8
ボルト／ビス
  6
CONTINUOUS
 10
158.103012
 20
-80.816093
 11
158.103012
 21
-80.866093
  0
LINE
  8
ボルト／ビス
  6
CONTINUOUS
 62
    64
 10
157.41245
 20
-80.516093
 11
157.364337
 21
-80.533605
  0
ARC
  8
ボルト／ビス
  6
CONTINUOUS
 62
    64
 10
157.436507
 20
-80.673559
 40
0.157468
 50
62.721967
 51
90.0
  0
ARC
  8
ボルト／ビス
  6
CONTINUOUS
 62
    64
 10
157.653014
 20
-81.119694
 40
0.603603
 50
76.165002
 51
103.834985
  0
LINE
  8
ボルト／ビス
  6
CONTINUOUS
 62
    64
 10
157.893575
 20
-80.516093
 11
157.941688
 21
-80.533605
  0
ARC
  8
ボルト／ビス
  6
CONTINUOUS
 62
    64
 10
157.86952
 20
-80.673559
 40
0.157468
 50
90.0
 51
117.278033
  0
LINE
  8
ボルト／ビス
  6
CONTINUOUS
 62
    64
 10
157.41245
 20
-80.516093
 11
157.893575
 21
-80.516093
  0
LINE
  8
ボルト／ビス
  6
CONTINUOUS
 62
    64
 10
157.941688
 20
-80.533605
 11
157.941688
 21
-80.716093
  0
LINE
  8
ボルト／ビス
  6
CONTINUOUS
 62
    64
 10
157.79735
 20
-80.533605
 11
157.79735
 21
-80.716093
  0
LINE
  8
ボルト／ビス
  6
CONTINUOUS
 62
    64
 10
157.364337
 20
-80.533605
 11
157.364337
 21
-80.716093
  0
LINE
  8
ボルト／ビス
  6
CONTINUOUS
 62
    64
 10
157.508675
 20
-80.533605
 11
157.508675
 21
-80.716093
  0
LINE
  8
ボルト／ビス
  6
CONTINUOUS
 10
157.364337
 20
-80.716093
 11
157.941688
 21
-80.716093
  0
LINE
  8
ボルト／ビス
  6
CONTINUOUS
 10
157.353012
 20
-80.716093
 11
157.353012
 21
-80.816093
  0
LINE
  8
ボルト／ビス
  6
CONTINUOUS
 10
157.353012
 20
-80.716093
 11
157.953012
 21
-80.716093
  0
LINE
  8
ボルト／ビス
  6
CONTINUOUS
 10
157.953012
 20
-80.716093
 11
157.953012
 21
-80.816093
  0
ENDBLK
  0
BLOCK
  2
*GRP_0074
 70
    65
 10
0.0
 20
0.0
  0
LINE
  8
型材断面
  6
DOT
 62
    47
 10
63.678012
 20
-63.781268
 11
63.678012
 21
-67.041267
  0
LINE
  8
型材断面
  6
DOT
 62
    47
 10
65.003012
 20
-63.781268
 11
65.003012
 21
-63.21609
  0
LINE
  8
型材断面
  6
DOT
 62
    47
 10
159.628012
 20
-63.781268
 11
159.628012
 21
-67.041267
  0
LINE
  8
型材断面
  6
DOT
 62
    47
 10
158.303012
 20
-63.781268
 11
158.303012
 21
-63.21609
  0
LINE
  8
型材断面
  6
DOT
 62
    47
 10
111.653012
 20
-67.041267
 11
63.678012
 21
-67.041267
  0
LINE
  8
型材断面
  6
DOT
 62
    47
 10
111.653012
 20
-63.781268
 11
63.678012
 21
-63.781268
  0
LINE
  8
型材断面
  6
DOT
 62
    47
 10
111.653012
 20
-67.041267
 11
159.628012
 21
-67.041267
  0
LINE
  8
型材断面
  6
DOT
 62
    47
 10
111.653012
 20
-63.781268
 11
159.628012
 21
-63.781268
  0
LINE
  8
別途部材
  6
DOT
 62
    96
 10
64.153012
 20
-61.71609
 11
63.553012
 21
-63.21609
  0
LINE
  8
別途部材
  6
DOT
 62
    96
 10
159.153012
 20
-61.71609
 11
159.753012
 21
-63.21609
  0
LINE
  8
別途部材
  6
DOT
 10
111.653012
 20
-63.21609
 11
63.553012
 21
-63.21609
  0
LINE
  8
別途部材
  6
DOT
 62
    96
 10
111.653012
 20
-61.71609
 11
64.153012
 21
-61.71609
  0
LINE
  8
別途部材
  6
DOT
 10
111.653012
 20
-63.21609
 11
159.753012
 21
-63.21609
  0
LINE
  8
別途部材
  6
DOT
 62
    96
 10
111.653012
 20
-61.71609
 11
159.153012
 21
-61.71609
  0
ARC
  8
別途部材
  6
DOT
 10
111.653012
 20
-95.466091
 40
56.25
 50
36.869898
 51
143.130102
  0
INSERT
  2
*GRP_0075
  8
別途部材
  6
DOT
 10
0.0
 20
0.0
  0
INSERT
  2
*GRP_0076
  8
別途部材
  6
DOT
 10
0.0
 20
0.0
  0
ENDBLK
  0
BLOCK
  2
*GRP_0075
 70
    65
 10
0.0
 20
0.0
  0
LINE
  8
ボルト／ビス
  6
DOT
 10
65.653012
 20
-61.716093
 11
65.653012
 21
-61.016093
  0
LINE
  8
ボルト／ビス
  6
DOT
 10
65.103012
 20
-61.716093
 11
65.103012
 21
-61.616093
  0
LINE
  8
ボルト／ビス
  6
DOT
 10
65.103012
 20
-61.616093
 11
66.203012
 21
-61.616093
  0
LINE
  8
ボルト／ビス
  6
DOT
 10
66.203012
 20
-61.616093
 11
66.203012
 21
-61.716093
  0
LINE
  8
ボルト／ビス
  6
DOT
 10
65.103012
 20
-61.716093
 11
66.203012
 21
-61.716093
  0
LINE
  8
ボルト／ビス
  6
DOT
 10
65.203012
 20
-61.566093
 11
65.203012
 21
-61.616093
  0
LINE
  8
ボルト／ビス
  6
DOT
 10
65.203012
 20
-61.566093
 11
66.103012
 21
-61.566093
  0
LINE
  8
ボルト／ビス
  6
DOT
 10
66.103012
 20
-61.566093
 11
66.103012
 21
-61.616093
  0
LINE
  8
ボルト／ビス
  6
DOT
 62
    64
 10
65.41245
 20
-61.266093
 11
65.364337
 21
-61.283605
  0
ARC
  8
ボルト／ビス
  6
DOT
 62
    64
 10
65.436508
 20
-61.42356
 40
0.157468
 50
62.721967
 51
90.0
  0
ARC
  8
ボルト／ビス
  6
DOT
 62
    64
 10
65.653015
 20
-61.869696
 40
0.603603
 50
76.165002
 51
103.834985
  0
LINE
  8
ボルト／ビス
  6
DOT
 62
    64
 10
65.893575
 20
-61.266093
 11
65.941688
 21
-61.283605
  0
ARC
  8
ボルト／ビス
  6
DOT
 62
    64
 10
65.869521
 20
-61.42356
 40
0.157468
 50
90.0
 51
117.278033
  0
LINE
  8
ボルト／ビス
  6
DOT
 62
    64
 10
65.41245
 20
-61.266093
 11
65.893575
 21
-61.266093
  0
LINE
  8
ボルト／ビス
  6
DOT
 62
    64
 10
65.941688
 20
-61.283605
 11
65.941688
 21
-61.466093
  0
LINE
  8
ボルト／ビス
  6
DOT
 62
    64
 10
65.79735
 20
-61.283605
 11
65.79735
 21
-61.466093
  0
LINE
  8
ボルト／ビス
  6
DOT
 62
    64
 10
65.364337
 20
-61.283605
 11
65.364337
 21
-61.466093
  0
LINE
  8
ボルト／ビス
  6
DOT
 62
    64
 10
65.508675
 20
-61.283605
 11
65.508675
 21
-61.466093
  0
LINE
  8
ボルト／ビス
  6
DOT
 10
65.364337
 20
-61.466093
 11
65.941688
 21
-61.466093
  0
LINE
  8
ボルト／ビス
  6
DOT
 10
65.353012
 20
-61.466093
 11
65.353012
 21
-61.566093
  0
LINE
  8
ボルト／ビス
  6
DOT
 10
65.353012
 20
-61.466093
 11
65.953012
 21
-61.466093
  0
LINE
  8
ボルト／ビス
  6
DOT
 10
65.953012
 20
-61.466093
 11
65.953012
 21
-61.566093
  0
ENDBLK
  0
BLOCK
  2
*GRP_0076
 70
    65
 10
0.0
 20
0.0
  0
LINE
  8
ボルト／ビス
  6
DOT
 10
157.653012
 20
-61.716093
 11
157.653012
 21
-61.016093
  0
LINE
  8
ボルト／ビス
  6
DOT
 10
157.103012
 20
-61.716093
 11
157.103012
 21
-61.616093
  0
LINE
  8
ボルト／ビス
  6
DOT
 10
157.103012
 20
-61.616093
 11
158.203012
 21
-61.616093
  0
LINE
  8
ボルト／ビス
  6
DOT
 10
158.203012
 20
-61.616093
 11
158.203012
 21
-61.716093
  0
LINE
  8
ボルト／ビス
  6
DOT
 10
157.103012
 20
-61.716093
 11
158.203012
 21
-61.716093
  0
LINE
  8
ボルト／ビス
  6
DOT
 10
157.203012
 20
-61.566093
 11
157.203012
 21
-61.616093
  0
LINE
  8
ボルト／ビス
  6
DOT
 10
157.203012
 20
-61.566093
 11
158.103012
 21
-61.566093
  0
LINE
  8
ボルト／ビス
  6
DOT
 10
158.103012
 20
-61.566093
 11
158.103012
 21
-61.616093
  0
LINE
  8
ボルト／ビス
  6
DOT
 62
    64
 10
157.41245
 20
-61.266093
 11
157.364337
 21
-61.283605
  0
ARC
  8
ボルト／ビス
  6
DOT
 62
    64
 10
157.436507
 20
-61.423559
 40
0.157468
 50
62.721967
 51
90.0
  0
ARC
  8
ボルト／ビス
  6
DOT
 62
    64
 10
157.653014
 20
-61.869695
 40
0.603603
 50
76.165002
 51
103.834985
  0
LINE
  8
ボルト／ビス
  6
DOT
 62
    64
 10
157.893575
 20
-61.266093
 11
157.941688
 21
-61.283605
  0
ARC
  8
ボルト／ビス
  6
DOT
 62
    64
 10
157.86952
 20
-61.423559
 40
0.157468
 50
90.0
 51
117.278033
  0
LINE
  8
ボルト／ビス
  6
DOT
 62
    64
 10
157.41245
 20
-61.266093
 11
157.893575
 21
-61.266093
  0
LINE
  8
ボルト／ビス
  6
DOT
 62
    64
 10
157.941688
 20
-61.283605
 11
157.941688
 21
-61.466093
  0
LINE
  8
ボルト／ビス
  6
DOT
 62
    64
 10
157.79735
 20
-61.283605
 11
157.79735
 21
-61.466093
  0
LINE
  8
ボルト／ビス
  6
DOT
 62
    64
 10
157.364337
 20
-61.283605
 11
157.364337
 21
-61.466093
  0
LINE
  8
ボルト／ビス
  6
DOT
 62
    64
 10
157.508675
 20
-61.283605
 11
157.508675
 21
-61.466093
  0
LINE
  8
ボルト／ビス
  6
DOT
 10
157.364337
 20
-61.466093
 11
157.941688
 21
-61.466093
  0
LINE
  8
ボルト／ビス
  6
DOT
 10
157.353012
 20
-61.466093
 11
157.353012
 21
-61.566093
  0
LINE
  8
ボルト／ビス
  6
DOT
 10
157.353012
 20
-61.466093
 11
157.953012
 21
-61.466093
  0
LINE
  8
ボルト／ビス
  6
DOT
 10
157.953012
 20
-61.466093
 11
157.953012
 21
-61.566093
  0
ENDBLK
  0
ENDSEC
  0
SECTION
  2
ENTITIES
  0
POLYLINE
  8
通り芯
  6
CONTINUOUS
 66
     1
 70
     1
  0
VERTEX
  8
通り芯
 10
-210.0
 20
-148.5
  0
VERTEX
  8
通り芯
 10
210.0
 20
-148.5
  0
VERTEX
  8
通り芯
 10
210.0
 20
148.5
  0
VERTEX
  8
通り芯
 10
-210.0
 20
148.5
  0
SEQEND
  0
INSERT
  2
*GRP_0001
  8
型材断面
  6
CONTINUOUS
 10
0.0
 20
0.0
  0
LINE
  8
型材断面
  6
CONTINUOUS
 10
-89.38576
 20
-25.04971
 11
-91.629205
 21
-28.93547
  0
LINE
  8
型材断面
  6
CONTINUOUS
 10
-89.38576
 20
-25.04971
 11
-87.142315
 21
-28.93547
  0
LINE
  8
型材断面
  6
CONTINUOUS
 10
-87.142315
 20
-28.93547
 11
-91.629205
 21
-28.93547
  0
LINE
  8
型材断面
  6
CONTINUOUS
 10
-1.119228
 20
-11.256877
 11
-3.362673
 21
-15.142638
  0
LINE
  8
型材断面
  6
CONTINUOUS
 10
-1.119228
 20
-11.256877
 11
1.124217
 21
-15.142638
  0
LINE
  8
型材断面
  6
CONTINUOUS
 10
1.124217
 20
-15.142638
 11
-3.362673
 21
-15.142638
  0
LINE
  8
型材断面
  6
CONTINUOUS
 10
-1.119228
 20
-18.946425
 11
-0.225143
 21
-22.832185
  0
LINE
  8
型材断面
  6
CONTINUOUS
 10
-1.119228
 20
-18.946425
 11
-2.013313
 21
-22.832185
  0
LINE
  8
型材断面
  6
CONTINUOUS
 10
-2.013313
 20
-22.832185
 11
-0.225143
 21
-22.832185
  0
LINE
  8
型材断面
  6
CONTINUOUS
 10
-10.153107
 20
-16.55053
 11
42.503572
 21
-16.55053
  0
LINE
  8
型材断面
  6
CONTINUOUS
 10
-10.153107
 20
-27.750522
 11
42.503572
 21
-27.750522
  0
LINE
  8
型材断面
  6
CONTINUOUS
 10
-10.153107
 20
-34.590467
 11
42.503572
 21
-34.590467
  0
POLYLINE
  8
型材断面
  6
CONTINUOUS
 66
     1
 70
     1
  0
VERTEX
  8
型材断面
 10
-79.903643
 20
-30.263357
  0
VERTEX
  8
型材断面
 10
-98.458855
 20
-30.263357
  0
VERTEX
  8
型材断面
 10
-98.458855
 20
-35.055393
  0
VERTEX
  8
型材断面
 10
-79.903643
 20
-35.055393
  0
SEQEND
  0
LINE
  8
型材断面
  6
CONTINUOUS
 10
-10.153107
 20
-41.430412
 11
42.503572
 21
-41.430412
  0
LINE
  8
型材断面
  6
CONTINUOUS
 10
-142.409638
 20
32.974165
 11
-146.295398
 21
30.73072
  0
LINE
  8
型材断面
  6
CONTINUOUS
 10
-142.409638
 20
32.974165
 11
-146.295398
 21
35.21761
  0
LINE
  8
型材断面
  6
CONTINUOUS
 10
-146.295398
 20
35.21761
 11
-146.295398
 21
30.73072
  0
LINE
  8
型材断面
  6
CONTINUOUS
 62
    47
 10
-136.61076
 20
-92.266342
 11
-136.61076
 21
-91.516342
  0
LINE
  8
型材断面
  6
CONTINUOUS
 62
    47
 10
-137.36076
 20
-91.516342
 11
-137.36076
 21
-86.541342
  0
LINE
  8
型材断面
  6
CONTINUOUS
 62
    47
 10
-137.36076
 20
-83.031268
 11
-137.36076
 21
-86.291267
  0
LINE
  8
型材断面
  6
CONTINUOUS
 62
    47
 10
-136.03576
 20
-83.031268
 11
-136.03576
 21
-82.46609
  0
LINE
  8
型材断面
  6
CONTINUOUS
 10
-36.361882
 20
32.974165
 11
-32.476123
 21
30.73072
  0
LINE
  8
型材断面
  6
CONTINUOUS
 10
-36.361882
 20
32.974165
 11
-32.476123
 21
35.21761
  0
LINE
  8
型材断面
  6
CONTINUOUS
 10
-32.476123
 20
35.21761
 11
-32.476123
 21
30.73072
  0
LINE
  8
型材断面
  6
CONTINUOUS
 62
    47
 10
-42.16076
 20
-92.266342
 11
-42.16076
 21
-91.516342
  0
LINE
  8
型材断面
  6
CONTINUOUS
 62
    47
 10
-41.41076
 20
-91.516342
 11
-41.41076
 21
-86.541342
  0
LINE
  8
型材断面
  6
CONTINUOUS
 62
    47
 10
-41.41076
 20
-83.031268
 11
-41.41076
 21
-86.291267
  0
LINE
  8
型材断面
  6
CONTINUOUS
 62
    47
 10
-42.73576
 20
-83.031268
 11
-42.73576
 21
-82.46609
  0
LINE
  8
型材断面
  6
CONTINUOUS
 10
-89.38576
 20
85.99804
 11
-91.629205
 21
89.8838
  0
LINE
  8
型材断面
  6
CONTINUOUS
 10
-89.38576
 20
85.99804
 11
-87.142315
 21
89.8838
  0
LINE
  8
型材断面
  6
CONTINUOUS
 10
-87.142315
 20
89.8838
 11
-91.629205
 21
89.8838
  0
POLYLINE
  8
型材断面
  6
CONTINUOUS
 66
     1
 70
     1
  0
VERTEX
  8
型材断面
 10
-79.903643
 20
96.00222
  0
VERTEX
  8
型材断面
 10
-98.458855
 20
96.00222
  0
VERTEX
  8
型材断面
 10
-98.458855
 20
91.210185
  0
VERTEX
  8
型材断面
 10
-79.903643
 20
91.210185
  0
SEQEND
  0
LINE
  8
型材断面
  6
CONTINUOUS
 10
-142.409635
 20
72.424167
 11
-146.295395
 21
71.530083
  0
LINE
  8
型材断面
  6
CONTINUOUS
 10
-142.409635
 20
72.424167
 11
-146.295395
 21
73.318253
  0
LINE
  8
型材断面
  6
CONTINUOUS
 10
-146.295395
 20
73.318253
 11
-146.295395
 21
71.530083
  0
LINE
  8
型材断面
  6
CONTINUOUS
 10
-36.361885
 20
72.424167
 11
-32.476125
 21
71.530083
  0
LINE
  8
型材断面
  6
CONTINUOUS
 10
-36.361885
 20
72.424167
 11
-32.476125
 21
73.318253
  0
LINE
  8
型材断面
  6
CONTINUOUS
 10
-32.476125
 20
73.318253
 11
-32.476125
 21
71.530083
  0
LINE
  8
型材断面
  6
CONTINUOUS
 10
-142.409635
 20
-6.475838
 11
-146.295395
 21
-5.581753
  0
LINE
  8
型材断面
  6
CONTINUOUS
 10
-142.409635
 20
-6.475838
 11
-146.295395
 21
-7.369923
  0
LINE
  8
型材断面
  6
CONTINUOUS
 10
-146.295395
 20
-7.369923
 11
-146.295395
 21
-5.581753
  0
LINE
  8
型材断面
  6
CONTINUOUS
 10
-36.361885
 20
-6.475838
 11
-32.476125
 21
-5.581753
  0
LINE
  8
型材断面
  6
CONTINUOUS
 10
-36.361885
 20
-6.475838
 11
-32.476125
 21
-7.369923
  0
LINE
  8
型材断面
  6
CONTINUOUS
 10
-32.476125
 20
-7.369923
 11
-32.476125
 21
-5.581753
  0
LINE
  8
型材断面
  6
DASHDOT
 10
-134.38576
 20
-96.480105
 11
-134.38576
 21
77.974165
  0
LINE
  8
型材断面
  6
DASHDOT
 10
-89.38576
 20
-96.480105
 11
-89.38576
 21
77.974165
  0
LINE
  8
型材断面
  6
DASHDOT
 10
-44.38576
 20
-96.480105
 11
-44.38576
 21
77.974165
  0
LINE
  8
型材断面
  6
DASHDOT
 10
-134.38576
 20
77.974165
 11
-44.38576
 21
77.974165
  0
LINE
  8
型材断面
  6
DOT
 10
-49.401998
 20
77.974165
 11
-49.401998
 21
-12.025835
  0
LINE
  8
型材断面
  6
DOT
 10
-47.401998
 20
77.974165
 11
-47.401998
 21
-12.025835
  0
LINE
  8
型材断面
  6
DOT
 10
-129.369523
 20
77.974165
 11
-129.369523
 21
-12.025835
  0
LINE
  8
型材断面
  6
DOT
 10
-131.369523
 20
77.974165
 11
-131.369523
 21
-12.025835
  0
LINE
  8
型材断面
  6
DASHDOT
 10
-44.38576
 20
-12.025835
 11
-134.38576
 21
-12.025835
  0
LINE
  8
型材断面
  6
CONTINUOUS
 62
    47
 10
-89.38576
 20
-92.266342
 11
-136.61076
 21
-92.266342
  0
LINE
  8
型材断面
  6
CONTINUOUS
 62
    47
 10
-89.38576
 20
-91.516342
 11
-137.36076
 21
-91.516342
  0
LINE
  8
型材断面
  6
CONTINUOUS
 62
    47
 10
-89.38576
 20
-86.541237
 11
-137.36076
 21
-86.541333
  0
LINE
  8
型材断面
  6
CONTINUOUS
 62
    47
 10
-89.38576
 20
-86.291267
 11
-137.36076
 21
-86.291267
  0
LINE
  8
型材断面
  6
CONTINUOUS
 62
    47
 10
-89.38576
 20
-83.031268
 11
-137.36076
 21
-83.031268
  0
LINE
  8
型材断面
  6
CONTINUOUS
 62
    47
 10
-89.38576
 20
-92.266342
 11
-42.16076
 21
-92.266342
  0
LINE
  8
型材断面
  6
CONTINUOUS
 62
    47
 10
-89.38576
 20
-91.516342
 11
-41.41076
 21
-91.516342
  0
LINE
  8
型材断面
  6
CONTINUOUS
 62
    47
 10
-89.38576
 20
-86.541237
 11
-41.41076
 21
-86.541333
  0
LINE
  8
型材断面
  6
CONTINUOUS
 62
    47
 10
-89.38576
 20
-86.291267
 11
-41.41076
 21
-86.291267
  0
LINE
  8
型材断面
  6
CONTINUOUS
 62
    47
 10
-89.38576
 20
-83.031268
 11
-41.41076
 21
-83.031268
  0
LINE
  8
型材断面
  6
DASHDOT
 10
-44.38576
 20
32.974165
 11
-134.38576
 21
32.974165
  0
LINE
  8
型材断面
  6
CONTINUOUS
 62
    47
 10
64.428012
 20
-92.266342
 11
64.428012
 21
-91.516342
  0
LINE
  8
型材断面
  6
CONTINUOUS
 62
    47
 10
63.678012
 20
-91.516342
 11
63.678012
 21
-86.541342
  0
LINE
  8
型材断面
  6
CONTINUOUS
 62
    47
 10
63.678012
 20
-83.031268
 11
63.678012
 21
-86.291267
  0
LINE
  8
型材断面
  6
CONTINUOUS
 62
    47
 10
65.003012
 20
-83.031268
 11
65.003012
 21
-82.46609
  0
LINE
  8
型材断面
  6
CONTINUOUS
 62
    47
 10
158.878012
 20
-92.266342
 11
158.878012
 21
-91.516342
  0
LINE
  8
型材断面
  6
CONTINUOUS
 62
    47
 10
159.628012
 20
-91.516342
 11
159.628012
 21
-86.541342
  0
LINE
  8
型材断面
  6
CONTINUOUS
 62
    47
 10
159.628012
 20
-83.031268
 11
159.628012
 21
-86.291267
  0
LINE
  8
型材断面
  6
CONTINUOUS
 62
    47
 10
158.303012
 20
-83.031268
 11
158.303012
 21
-82.46609
  0
LINE
  8
型材断面
  6
CONTINUOUS
 62
    47
 10
111.653012
 20
-92.266342
 11
64.428012
 21
-92.266342
  0
LINE
  8
型材断面
  6
CONTINUOUS
 62
    47
 10
111.653012
 20
-91.516342
 11
63.678012
 21
-91.516342
  0
LINE
  8
型材断面
  6
CONTINUOUS
 62
    47
 10
111.653012
 20
-86.541237
 11
63.678012
 21
-86.541333
  0
LINE
  8
型材断面
  6
CONTINUOUS
 62
    47
 10
111.653012
 20
-86.291267
 11
63.678012
 21
-86.291267
  0
LINE
  8
型材断面
  6
CONTINUOUS
 62
    47
 10
111.653012
 20
-83.031268
 11
63.678012
 21
-83.031268
  0
LINE
  8
型材断面
  6
CONTINUOUS
 62
    47
 10
111.653012
 20
-92.266342
 11
158.878012
 21
-92.266342
  0
LINE
  8
型材断面
  6
CONTINUOUS
 62
    47
 10
111.653012
 20
-91.516342
 11
159.628012
 21
-91.516342
  0
LINE
  8
型材断面
  6
CONTINUOUS
 62
    47
 10
111.653012
 20
-86.541237
 11
159.628012
 21
-86.541333
  0
LINE
  8
型材断面
  6
CONTINUOUS
 62
    47
 10
111.653012
 20
-86.291267
 11
159.628012
 21
-86.291267
  0
LINE
  8
型材断面
  6
CONTINUOUS
 62
    47
 10
111.653012
 20
-83.031268
 11
159.628012
 21
-83.031268
  0
INSERT
  2
*GRP_0065
  8
型材断面
  6
CONTINUOUS
 10
0.0
 20
0.0
  0
INSERT
  2
*GRP_0066
  8
型材断面
  6
CONTINUOUS
 10
0.0
 20
0.0
  0
INSERT
  2
*GRP_0067
  8
型材断面
  6
CONTINUOUS
 10
0.0
 20
0.0
  0
INSERT
  2
*GRP_0068
  8
型材断面
  6
CONTINUOUS
 10
0.0
 20
0.0
  0
LINE
  8
型材断面
  6
DOT
 10
-87.51076
 20
-12.025835
 11
-87.51076
 21
32.974165
  0
LINE
  8
型材断面
  6
DOT
 10
-91.26076
 20
-12.025835
 11
-91.26076
 21
32.974165
  0
LINE
  8
型材断面
  6
DOT
 10
-91.26076
 20
77.974165
 11
-91.26076
 21
32.974165
  0
LINE
  8
型材断面
  6
DOT
 10
-87.51076
 20
77.974165
 11
-87.51076
 21
32.974165
  0
LINE
  8
型材断面
  6
DOT
 10
-44.38576
 20
31.099165
 11
-87.51076
 21
31.099165
  0
LINE
  8
型材断面
  6
DOT
 10
-91.26076
 20
31.099165
 11
-134.38576
 21
31.099165
  0
LINE
  8
型材断面
  6
DOT
 10
-44.38576
 20
34.849165
 11
-87.51076
 21
34.849165
  0
LINE
  8
型材断面
  6
DOT
 10
-91.26076
 20
34.849165
 11
-134.38576
 21
34.849165
  0
POLYLINE
  8
ガラス
  6
CONTINUOUS
 66
     1
 70
     1
  0
VERTEX
  8
ガラス
 10
127.681547
 20
64.359745
  0
VERTEX
  8
ガラス
 10
83.981547
 20
64.359745
  0
VERTEX
  8
ガラス
 10
83.981547
 20
20.659745
  0
VERTEX
  8
ガラス
 10
127.681547
 20
20.659745
  0
SEQEND
  0
INSERT
  2
*GRP_0074
  8
ガラス
  6
DOT
 10
0.0
 20
0.0
  0
CIRCLE
  8
ボルト／ビス
  6
CONTINUOUS
 10
-126.88576
 20
78.974165
 40
0.288675
  0
CIRCLE
  8
ボルト／ビス
  6
CONTINUOUS
 10
-126.88576
 20
78.974165
 40
0.455885
  0
CIRCLE
  8
ボルト／ビス
  6
CONTINUOUS
 10
-111.88576
 20
78.974165
 40
0.288675
  0
CIRCLE
  8
ボルト／ビス
  6
CONTINUOUS
 10
-111.88576
 20
78.974165
 40
0.455885
  0
CIRCLE
  8
ボルト／ビス
  6
CONTINUOUS
 10
-96.88576
 20
78.974165
 40
0.288675
  0
CIRCLE
  8
ボルト／ビス
  6
CONTINUOUS
 10
-96.88576
 20
78.974165
 40
0.455885
  0
CIRCLE
  8
ボルト／ビス
  6
CONTINUOUS
 10
-81.88576
 20
78.974165
 40
0.288675
  0
CIRCLE
  8
ボルト／ビス
  6
CONTINUOUS
 10
-81.88576
 20
78.974165
 40
0.455885
  0
CIRCLE
  8
ボルト／ビス
  6
CONTINUOUS
 10
-66.88576
 20
78.974165
 40
0.288675
  0
CIRCLE
  8
ボルト／ビス
  6
CONTINUOUS
 10
-66.88576
 20
78.974165
 40
0.455885
  0
CIRCLE
  8
ボルト／ビス
  6
CONTINUOUS
 10
-51.88576
 20
78.974165
 40
0.288675
  0
CIRCLE
  8
ボルト／ビス
  6
CONTINUOUS
 10
-51.88576
 20
78.974165
 40
0.455885
  0
CIRCLE
  8
ボルト／ビス
  6
CONTINUOUS
 10
-43.38576
 20
-4.525835
 40
0.288675
  0
CIRCLE
  8
ボルト／ビス
  6
CONTINUOUS
 10
-43.38576
 20
-4.525835
 40
0.455885
  0
CIRCLE
  8
ボルト／ビス
  6
CONTINUOUS
 10
-43.38576
 20
10.474165
 40
0.288675
  0
CIRCLE
  8
ボルト／ビス
  6
CONTINUOUS
 10
-43.38576
 20
10.474165
 40
0.455885
  0
CIRCLE
  8
ボルト／ビス
  6
CONTINUOUS
 10
-43.38576
 20
25.474165
 40
0.288675
  0
CIRCLE
  8
ボルト／ビス
  6
CONTINUOUS
 10
-43.38576
 20
25.474165
 40
0.455885
  0
CIRCLE
  8
ボルト／ビス
  6
CONTINUOUS
 10
-43.38576
 20
40.474165
 40
0.288675
  0
CIRCLE
  8
ボルト／ビス
  6
CONTINUOUS
 10
-43.38576
 20
40.474165
 40
0.455885
  0
CIRCLE
  8
ボルト／ビス
  6
CONTINUOUS
 10
-43.38576
 20
55.474165
 40
0.288675
  0
CIRCLE
  8
ボルト／ビス
  6
CONTINUOUS
 10
-43.38576
 20
55.474165
 40
0.455885
  0
CIRCLE
  8
ボルト／ビス
  6
CONTINUOUS
 10
-43.38576
 20
70.474165
 40
0.288675
  0
CIRCLE
  8
ボルト／ビス
  6
CONTINUOUS
 10
-43.38576
 20
70.474165
 40
0.455885
  0
CIRCLE
  8
ボルト／ビス
  6
CONTINUOUS
 10
-51.88576
 20
-13.025835
 40
0.288675
  0
CIRCLE
  8
ボルト／ビス
  6
CONTINUOUS
 10
-51.88576
 20
-13.025835
 40
0.455885
  0
CIRCLE
  8
ボルト／ビス
  6
CONTINUOUS
 10
-66.88576
 20
-13.025835
 40
0.288675
  0
CIRCLE
  8
ボルト／ビス
  6
CONTINUOUS
 10
-66.88576
 20
-13.025835
 40
0.455885
  0
CIRCLE
  8
ボルト／ビス
  6
CONTINUOUS
 10
-81.88576
 20
-13.025835
 40
0.288675
  0
CIRCLE
  8
ボルト／ビス
  6
CONTINUOUS
 10
-81.88576
 20
-13.025835
 40
0.455885
  0
CIRCLE
  8
ボルト／ビス
  6
CONTINUOUS
 10
-96.88576
 20
-13.025835
 40
0.288675
  0
CIRCLE
  8
ボルト／ビス
  6
CONTINUOUS
 10
-96.88576
 20
-13.025835
 40
0.455885
  0
CIRCLE
  8
ボルト／ビス
  6
CONTINUOUS
 10
-111.88576
 20
-13.025835
 40
0.288675
  0
CIRCLE
  8
ボルト／ビス
  6
CONTINUOUS
 10
-111.88576
 20
-13.025835
 40
0.455885
  0
CIRCLE
  8
ボルト／ビス
  6
CONTINUOUS
 10
-126.88576
 20
-13.025835
 40
0.288675
  0
CIRCLE
  8
ボルト／ビス
  6
CONTINUOUS
 10
-126.88576
 20
-13.025835
 40
0.455885
  0
CIRCLE
  8
ボルト／ビス
  6
CONTINUOUS
 10
-135.38576
 20
70.474165
 40
0.288675
  0
CIRCLE
  8
ボルト／ビス
  6
CONTINUOUS
 10
-135.38576
 20
70.474165
 40
0.455885
  0
CIRCLE
  8
ボルト／ビス
  6
CONTINUOUS
 10
-135.38576
 20
55.474165
 40
0.288675
  0
CIRCLE
  8
ボルト／ビス
  6
CONTINUOUS
 10
-135.38576
 20
55.474165
 40
0.455885
  0
CIRCLE
  8
ボルト／ビス
  6
CONTINUOUS
 10
-135.38576
 20
40.474165
 40
0.288675
  0
CIRCLE
  8
ボルト／ビス
  6
CONTINUOUS
 10
-135.38576
 20
40.474165
 40
0.455885
  0
CIRCLE
  8
ボルト／ビス
  6
CONTINUOUS
 10
-135.38576
 20
25.474165
 40
0.288675
  0
CIRCLE
  8
ボルト／ビス
  6
CONTINUOUS
 10
-135.38576
 20
25.474165
 40
0.455885
  0
CIRCLE
  8
ボルト／ビス
  6
CONTINUOUS
 10
-135.38576
 20
10.474165
 40
0.288675
  0
CIRCLE
  8
ボルト／ビス
  6
CONTINUOUS
 10
-135.38576
 20
10.474165
 40
0.455885
  0
CIRCLE
  8
ボルト／ビス
  6
CONTINUOUS
 10
-135.38576
 20
-4.525835
 40
0.288675
  0
CIRCLE
  8
ボルト／ビス
  6
CONTINUOUS
 10
-135.38576
 20
-4.525835
 40
0.455885
  0
TEXT
  7
TextStyle03
  8
文字
  6
CONTINUOUS
 10
3.175
 20
-14.8
  1
は排水穴位置を示す
 40
3.0
 72
     5
 11
33.175
 21
-14.8
  0
TEXT
  7
TextStyle03
  8
文字
  6
CONTINUOUS
 10
3.175
 20
-22.65
  1
はケーシング位置を示す
 40
3.0
 72
     5
 11
39.925
 21
-22.65
  0
TEXT
  7
TextStyle03
  8
文字
  6
CONTINUOUS
 10
3.175
 20
-26.025
  1
４ヶ所中1ヶ所に設定
 40
3.0
 72
     5
 11
34.8625
 21
-26.025
  0
TEXT
  7
TextStyle03
  8
文字
  6
CONTINUOUS
 10
-125.55
 20
35.55
  1
中桟
 40
3.0
 72
     5
 11
-119.175
 21
35.55
  0
TEXT
  7
TextStyle03
  8
文字
  6
CONTINUOUS
 10
-86.825
 20
70.7
  1
中桟
 40
3.0
 50
270.0
 72
     5
 11
-86.825
 21
64.325
  0
TEXT
  7
TextStyle03
  8
文字
  6
CONTINUOUS
 10
-97.5
 20
-34.075
  1
可動装置側
 40
3.0
 72
     5
 11
-81.0
 21
-34.075
  0
TEXT
  7
TextStyle03
  8
文字
  6
CONTINUOUS
 10
85.55
 20
107.225
  1
ＮＳコード：ＮＳＤＺ
 40
5.0
 72
     5
 11
141.175
 21
107.225
  0
TEXT
  7
TextStyle03
  8
文字
  6
CONTINUOUS
 10
-2.425
 20
-33.175
  1
アンカー数量　１２ヶ所
 40
3.0
 72
     5
 11
34.325
 21
-33.175
  0
TEXT
  7
TextStyle03
  8
文字
  6
CONTINUOUS
 10
-2.475
 20
-40.025
  1
アームユニット数　４ヶ所
 40
3.0
 72
     5
 11
37.65
 21
-40.025
  0
TEXT
  7
TextStyle03
  8
文字
  6
CONTINUOUS
 10
-167.35
 20
-26.75
  1
アンカーピッチ
 40
3.0
 50
90.0
 72
     5
 11
-167.35
 21
-3.5
  0
TEXT
  7
TextStyle03
  8
文字
  6
CONTINUOUS
 10
-34.8
 20
1.7
  1
ﾊﾞﾗﾝｽｽﾃｰ
 40
3.0
 72
     5
 11
-21.4875
 21
1.7
  0
TEXT
  7
TextStyle03
  8
文字
  6
CONTINUOUS
 10
-97.5
 20
92.175
  1
可動装置側
 40
3.0
 72
     5
 11
-81.0
 21
92.175
  0
TEXT
  7
TextStyle03
  8
文字
  6
CONTINUOUS
 10
-151.625
 20
109.75
  1
アンカーピッチ
 40
3.0
 72
     5
 11
-128.375
 21
109.75
  0
TEXT
  7
TextStyle03
  8
文字
  6
CONTINUOUS
 10
-157.3125
 20
66.975
  1
ﾊﾞﾗﾝｽｽﾃｰ
 40
3.0
 50
360.0
 72
     5
 11
-144.0
 21
66.975
  0
TEXT
  7
TextStyle03
  8
文字
  6
CONTINUOUS
 10
105.45
 20
29.925
  1
網入り6.8t
 40
3.0
 72
     5
 11
122.1375
 21
29.925
  0
TEXT
  7
TextStyle03
  8
文字
  6
CONTINUOUS
 10
112.6
 20
25.9
  1
×４枚
 40
3.0
 72
     5
 11
122.35
 21
25.9
  0
INSERT
  2
*GRP_0017
  8
文字
  6
CONTINUOUS
 10
0.0
 20
0.0
  0
INSERT
  2
*GRP_0019
  8
文字
  6
CONTINUOUS
 10
0.0
 20
0.0
  0
INSERT
  2
*GRP_0021
  8
文字
  6
CONTINUOUS
 10
0.0
 20
0.0
  0
INSERT
  2
*GRP_0023
  8
文字
  6
CONTINUOUS
 10
0.0
 20
0.0
  0
INSERT
  2
*GRP_0025
  8
文字
  6
CONTINUOUS
 10
0.0
 20
0.0
  0
INSERT
  2
*GRP_0027
  8
文字
  6
CONTINUOUS
 10
0.0
 20
0.0
  0
INSERT
  2
*GRP_0029
  8
文字
  6
CONTINUOUS
 10
0.0
 20
0.0
  0
INSERT
  2
*GRP_0030
  8
文字
  6
CONTINUOUS
 10
0.0
 20
0.0
  0
INSERT
  2
*GRP_0031
  8
文字
  6
CONTINUOUS
 10
0.0
 20
0.0
  0
INSERT
  2
*GRP_0032
  8
文字
  6
CONTINUOUS
 10
0.0
 20
0.0
  0
INSERT
  2
*GRP_0033
  8
文字
  6
CONTINUOUS
 10
0.0
 20
0.0
  0
INSERT
  2
*GRP_0034
  8
文字
  6
CONTINUOUS
 10
0.0
 20
0.0
  0
INSERT
  2
*GRP_0041
  8
文字
  6
CONTINUOUS
 10
0.0
 20
0.0
  0
INSERT
  2
*GRP_0042
  8
文字
  6
CONTINUOUS
 10
0.0
 20
0.0
  0
INSERT
  2
*GRP_0043
  8
文字
  6
CONTINUOUS
 10
0.0
 20
0.0
  0
INSERT
  2
*GRP_0044
  8
文字
  6
CONTINUOUS
 10
0.0
 20
0.0
  0
INSERT
  2
*GRP_0045
  8
文字
  6
CONTINUOUS
 10
0.0
 20
0.0
  0
INSERT
  2
*GRP_0046
  8
文字
  6
CONTINUOUS
 10
0.0
 20
0.0
  0
INSERT
  2
*GRP_0053
  8
文字
  6
CONTINUOUS
 10
0.0
 20
0.0
  0
INSERT
  2
*GRP_0054
  8
文字
  6
CONTINUOUS
 10
0.0
 20
0.0
  0
INSERT
  2
*GRP_0055
  8
文字
  6
CONTINUOUS
 10
0.0
 20
0.0
  0
INSERT
  2
*GRP_0056
  8
文字
  6
CONTINUOUS
 10
0.0
 20
0.0
  0
INSERT
  2
*GRP_0057
  8
文字
  6
CONTINUOUS
 10
0.0
 20
0.0
  0
INSERT
  2
*GRP_0058
  8
文字
  6
CONTINUOUS
 10
0.0
 20
0.0
  0
TEXT
  7
TextStyle03
  8
文字
  6
CONTINUOUS
 10
87.6
 20
126.05
  1
シリーズ：ＴＤ２
 40
5.0
 72
     5
 11
131.975
 21
126.05
  0
TEXT
  7
TextStyle03
  8
文字
  6
CONTINUOUS
 10
87.6
 20
120.425
  1
　　　　　（上下可動）1800×1800タイプ
 40
5.0
 72
     5
 11
193.85
 21
120.425
  0
TEXT
  7
TextStyle03
  8
文字
  6
CONTINUOUS
 10
87.6
 20
114.8
  1
図面名　：外観姿図
 40
5.0
 72
     5
 11
137.6
 21
114.8
  0
TEXT
  7
TextStyle03
  8
文字
  6
CONTINUOUS
 10
87.6
 20
109.175
  1
　　　　　　
 40
5.0
 72
     5
 11
120.725
 21
109.175
  0
INSERT
  2
*DIM_0002
  8
寸法
  6
CONTINUOUS
 10
0.0
 20
0.0
  0
INSERT
  2
*DIM_0003
  8
寸法
  6
CONTINUOUS
 10
0.0
 20
0.0
  0
INSERT
  2
*DIM_0004
  8
寸法
  6
CONTINUOUS
 10
0.0
 20
0.0
  0
INSERT
  2
*GRP_0005
  8
寸法
  6
CONTINUOUS
 10
0.0
 20
0.0
  0
INSERT
  2
*DIM_0006
  8
寸法
  6
CONTINUOUS
 10
0.0
 20
0.0
  0
INSERT
  2
*DIM_0007
  8
寸法
  6
CONTINUOUS
 10
0.0
 20
0.0
  0
INSERT
  2
*DIM_0008
  8
寸法
  6
CONTINUOUS
 10
0.0
 20
0.0
  0
INSERT
  2
*DIM_0009
  8
寸法
  6
CONTINUOUS
 10
0.0
 20
0.0
  0
INSERT
  2
*GRP_0010
  8
寸法
  6
CONTINUOUS
 10
0.0
 20
0.0
  0
INSERT
  2
*DIM_0011
  8
寸法
  6
CONTINUOUS
 10
0.0
 20
0.0
  0
INSERT
  2
*DIM_0012
  8
寸法
  6
CONTINUOUS
 10
0.0
 20
0.0
  0
INSERT
  2
*DIM_0013
  8
寸法
  6
CONTINUOUS
 10
0.0
 20
0.0
  0
INSERT
  2
*DIM_0014
  8
寸法
  6
CONTINUOUS
 10
0.0
 20
0.0
  0
INSERT
  2
*DIM_0015
  8
寸法
  6
CONTINUOUS
 10
0.0
 20
0.0
  0
INSERT
  2
*DIM_0016
  8
寸法
  6
CONTINUOUS
 10
0.0
 20
0.0
  0
LINE
  8
別途部材
  6
CONTINUOUS
 62
    96
 10
-136.88576
 20
-80.96609
 11
-137.48576
 21
-82.46609
  0
LINE
  8
別途部材
  6
CONTINUOUS
 62
    96
 10
-41.88576
 20
-80.96609
 11
-41.28576
 21
-82.46609
  0
LINE
  8
別途部材
  6
CONTINUOUS
 10
-137.48576
 20
81.074165
 11
-136.88576
 21
80.474165
  0
LINE
  8
別途部材
  6
CONTINUOUS
 10
-134.38576
 20
77.974165
 11
-122.296875
 21
65.88528
  0
LINE
  8
別途部材
  6
CONTINUOUS
 10
-41.28576
 20
81.074165
 11
-41.88576
 21
80.474165
  0
LINE
  8
別途部材
  6
CONTINUOUS
 10
-44.38576
 20
77.974165
 11
-56.474645
 21
65.88528
  0
LINE
  8
別途部材
  6
CONTINUOUS
 10
-137.48576
 20
-15.125835
 11
-136.88576
 21
-14.525835
  0
LINE
  8
別途部材
  6
CONTINUOUS
 10
-134.38576
 20
-12.025835
 11
-122.296875
 21
0.06305
  0
LINE
  8
別途部材
  6
CONTINUOUS
 10
-41.28576
 20
-15.125835
 11
-41.88576
 21
-14.525835
  0
LINE
  8
別途部材
  6
CONTINUOUS
 10
-44.38576
 20
-12.025835
 11
-56.474645
 21
0.06305
  0
LINE
  8
別途部材
  6
CONTINUOUS
 10
-137.48576
 20
32.974165
 11
-137.48576
 21
81.074165
  0
LINE
  8
別途部材
  6
CONTINUOUS
 10
-89.38576
 20
81.074165
 11
-137.48576
 21
81.074165
  0
LINE
  8
別途部材
  6
CONTINUOUS
 10
-136.88576
 20
32.974165
 11
-136.88576
 21
80.474165
  0
LINE
  8
別途部材
  6
CONTINUOUS
 10
-89.38576
 20
80.474165
 11
-136.88576
 21
80.474165
  0
LINE
  8
別途部材
  6
CONTINUOUS
 10
-41.88576
 20
32.974165
 11
-41.88576
 21
80.474165
  0
LINE
  8
別途部材
  6
CONTINUOUS
 10
-89.38576
 20
80.474165
 11
-41.88576
 21
80.474165
  0
LINE
  8
別途部材
  6
CONTINUOUS
 10
-41.28576
 20
32.974165
 11
-41.28576
 21
81.074165
  0
LINE
  8
別途部材
  6
CONTINUOUS
 10
-89.38576
 20
81.074165
 11
-41.28576
 21
81.074165
  0
LINE
  8
別途部材
  6
CONTINUOUS
 10
-89.38576
 20
-14.525835
 11
-41.88576
 21
-14.525835
  0
LINE
  8
別途部材
  6
CONTINUOUS
 10
-41.88576
 20
32.974165
 11
-41.88576
 21
-14.525835
  0
LINE
  8
別途部材
  6
CONTINUOUS
 10
-89.38576
 20
-15.125835
 11
-41.28576
 21
-15.125835
  0
LINE
  8
別途部材
  6
CONTINUOUS
 10
-41.28576
 20
32.974165
 11
-41.28576
 21
-15.125835
  0
LINE
  8
別途部材
  6
CONTINUOUS
 10
-89.38576
 20
-14.525835
 11
-136.88576
 21
-14.525835
  0
LINE
  8
別途部材
  6
CONTINUOUS
 10
-136.88576
 20
32.974165
 11
-136.88576
 21
-14.525835
  0
LINE
  8
別途部材
  6
CONTINUOUS
 10
-89.38576
 20
-15.125835
 11
-137.48576
 21
-15.125835
  0
LINE
  8
別途部材
  6
CONTINUOUS
 10
-137.48576
 20
32.974165
 11
-137.48576
 21
-15.125835
  0
LINE
  8
別途部材
  6
CONTINUOUS
 10
-89.38576
 20
-82.46609
 11
-137.48576
 21
-82.46609
  0
LINE
  8
別途部材
  6
CONTINUOUS
 62
    96
 10
-89.38576
 20
-80.96609
 11
-136.88576
 21
-80.96609
  0
LINE
  8
別途部材
  6
CONTINUOUS
 10
-89.38576
 20
-82.46609
 11
-41.28576
 21
-82.46609
  0
LINE
  8
別途部材
  6
CONTINUOUS
 62
    96
 10
-89.38576
 20
-80.96609
 11
-41.88576
 21
-80.96609
  0
ARC
  8
別途部材
  6
CONTINUOUS
 10
-89.38576
 20
-114.71609
 40
56.25
 50
36.869898
 51
143.130102
  0
LINE
  8
別途部材
  6
CONTINUOUS
 62
    96
 10
64.153012
 20
-80.96609
 11
63.553012
 21
-82.46609
  0
LINE
  8
別途部材
  6
CONTINUOUS
 62
    96
 10
159.153012
 20
-80.96609
 11
159.753012
 21
-82.46609
  0
LINE
  8
別途部材
  6
CONTINUOUS
 10
111.653012
 20
-82.46609
 11
63.553012
 21
-82.46609
  0
LINE
  8
別途部材
  6
CONTINUOUS
 62
    96
 10
111.653012
 20
-80.96609
 11
64.153012
 21
-80.96609
  0
LINE
  8
別途部材
  6
CONTINUOUS
 10
111.653012
 20
-82.46609
 11
159.753012
 21
-82.46609
  0
LINE
  8
別途部材
  6
CONTINUOUS
 62
    96
 10
111.653012
 20
-80.96609
 11
159.153012
 21
-80.96609
  0
ARC
  8
別途部材
  6
CONTINUOUS
 10
111.653012
 20
-114.71609
 40
56.25
 50
36.869898
 51
143.130102
  0
INSERT
  2
*GRP_0070
  8
別途部材
  6
DOT
 10
0.0
 20
0.0
  0
INSERT
  2
*GRP_0071
  8
別途部材
  6
DOT
 10
0.0
 20
0.0
  0
INSERT
  2
*GRP_0072
  8
別途部材
  6
DOT
 10
0.0
 20
0.0
  0
INSERT
  2
*GRP_0073
  8
別途部材
  6
DOT
 10
0.0
 20
0.0
  0
ENDSEC
  0
EOF
