  0
SECTION
  2
HEADER
  9
$EXTMIN
 10
-210.0
 20
-148.5
  9
$EXTMAX
 10
210.0
 20
148.5
  9
$PDMODE
 70
    32
  9
$PDSIZE
 40
1.5
  9
$LTSCALE
 40
10.0
  0
ENDSEC
  0
SECTION
  2
TABLES
  0
TABLE
  2
LTYPE
 70
    15
  0
LTYPE
  2
CONTINUOUS
 70
    64
  3
実線
 72
    65
 73
     0
 40
0.0
  0
LTYPE
  2
DASHED
 70
    64
  3
破線A
 72
    65
 73
     2
 40
0.6
 49
0.4
 49
-0.2
  0
LTYPE
  2
DASHEDX2
 70
    64
  3
破線B
 72
    65
 73
     2
 40
1.3
 49
0.9
 49
-0.4
  0
LTYPE
  2
DASHDOT
 70
    64
  3
１点鎖線A
 72
    65
 73
     4
 40
0.5375
 49
0.375
 49
-0.05
 49
0.0625
 49
-0.05
  0
LTYPE
  2
DASHDOTX2
 70
    64
  3
１点鎖線B
 72
    65
 73
     4
 40
1.075
 49
0.75
 49
-0.1
 49
0.125
 49
-0.1
  0
LTYPE
  2
DIVIDE2
 70
    64
  3
２点鎖線A
 72
    65
 73
     6
 40
0.5125
 49
0.3
 49
-0.0375
 49
0.05
 49
-0.0375
 49
0.05
 49
-0.0375
  0
LTYPE
  2
DIVIDE
 70
    64
  3
２点鎖線B
 72
    65
 73
     6
 40
1.05
 49
0.55
 49
-0.1
 49
0.1
 49
-0.1
 49
0.1
 49
-0.1
  0
LTYPE
  2
DOT
 70
    64
  3
点線A
 72
    65
 73
     2
 40
0.1125
 49
0.0625
 49
-0.05
  0
LTYPE
  2
DOTX2
 70
    64
  3
点線B
 72
    65
 73
     2
 40
0.275
 49
0.15
 49
-0.125
  0
LTYPE
  2
CONTINUOUS
 70
    64
  3
実線
 72
    65
 73
     0
 40
0.0
  0
LTYPE
  2
CONTINUOUS
 70
    64
  3
実線
 72
    65
 73
     0
 40
0.0
  0
LTYPE
  2
CONTINUOUS
 70
    64
  3
実線
 72
    65
 73
     0
 40
0.0
  0
LTYPE
  2
CONTINUOUS
 70
    64
  3
実線
 72
    65
 73
     0
 40
0.0
  0
LTYPE
  2
CONTINUOUS
 70
    64
  3
実線
 72
    65
 73
     0
 40
0.0
  0
LTYPE
  2
CONTINUOUS
 70
    64
  3
実線
 72
    65
 73
     0
 40
0.0
  0
ENDTAB
  0
TABLE
  2
LAYER
 70
    34
  0
LAYER
  2
通り芯
 70
     0
 62
    15
  6
CONTINUOUS
  0
LAYER
  2
補助線
 70
     0
 62
    16
  6
DOT
  0
LAYER
  2
躯体
 70
     0
 62
    31
  6
CONTINUOUS
  0
LAYER
  2
型材
 70
     0
 62
    32
  6
CONTINUOUS
  0
LAYER
  2
型材断面
 70
     0
 62
    47
  6
CONTINUOUS
  0
LAYER
  2
ガラス
 70
     0
 62
    48
  6
CONTINUOUS
  0
LAYER
  2
ゴム等
 70
     0
 62
    63
  6
CONTINUOUS
  0
LAYER
  2
ボルト／ビス
 70
     0
 62
    64
  6
CONTINUOUS
  0
LAYER
  2
文字
 70
     0
 62
    79
  6
CONTINUOUS
  0
LAYER
  2
寸法
 70
     0
 62
    80
  6
CONTINUOUS
  0
LAYER
  2
ﾊｯﾁﾝｸﾞ
 70
     0
 62
    95
  6
CONTINUOUS
  0
LAYER
  2
別途部材
 70
     0
 62
    96
  6
CONTINUOUS
  0
LAYER
  2
曲げ物
 70
     0
 62
   111
  6
CONTINUOUS
  0
LAYER
  2
鉄骨等
 70
     0
 62
   112
  6
CONTINUOUS
  0
LAYER
  2
St
 70
     0
 62
   127
  6
CONTINUOUS
  0
LAYER
  2
その他部品等
 70
     0
 62
   128
  6
CONTINUOUS
  0
LAYER
  2
ｶﾞｽｹｯﾄ
 70
     0
 62
   143
  6
CONTINUOUS
  0
LAYER
  2
ｽｹｯﾁ
 70
     0
 62
    14
  6
CONTINUOUS
  0
LAYER
  2
0
 70
     0
 62
    17
  6
CONTINUOUS
  0
LAYER
  2
1
 70
     0
 62
    30
  6
CONTINUOUS
  0
LAYER
  2
4
 70
     0
 62
    33
  6
CONTINUOUS
  0
LAYER
  2
ﾚｲﾔ3
 70
     0
 62
    46
  6
CONTINUOUS
  0
LAYER
  2
外形線
 70
     0
 62
    49
  6
CONTINUOUS
  0
LAYER
  2
部品
 70
     0
 62
    14
  6
CONTINUOUS
  0
LAYER
  2
サッシ芯
 70
     0
 62
    17
  6
DASHDOTX2
  0
LAYER
  2
寸法線
 70
     0
 62
    62
  6
CONTINUOUS
  0
LAYER
  2
姿図外形線
 70
     0
 62
    65
  6
CONTINUOUS
  0
LAYER
  2
姿補助線
 70
     0
 62
    30
  6
CONTINUOUS
  0
LAYER
  2
透視線
 70
     0
 62
    78
  6
DOT
  0
LAYER
  2
用紙
 70
     0
 62
    81
  6
CONTINUOUS
  0
LAYER
  2
実線図枠
 70
     0
 62
    94
  6
CONTINUOUS
  0
LAYER
  2
補助図枠
 70
     0
 62
    97
  6
CONTINUOUS
  0
LAYER
  2
建具記号
 70
     0
 62
   110
  6
CONTINUOUS
  0
LAYER
  2
補助文字
 70
     0
 62
   113
  6
CONTINUOUS
  0
ENDTAB
  0
TABLE
  2
STYLE
 70
    10
  0
STYLE
  2
STANDARD
 70
     0
 40
1.0
 41
1.0
 42
1.0
 50
0.0
 71
     0
  3
TXT
  4
BIGFONT
  0
STYLE
  2
TATE
 70
     4
 40
1.0
 41
1.0
 42
1.0
 50
0.0
 71
     0
  3
TXT
  4
BIGFONT
  0
STYLE
  2
TextStyle03
 70
     0
 40
1.0
 41
1.0
 42
1.0
 50
0.0
 71
     0
  3
MONOTXT
  4
BIGFONT
  0
STYLE
  2
TextStyle04
 70
     0
 40
1.0
 41
1.0
 42
1.0
 50
0.0
 71
     0
  3
MONOTXT
  4
BIGFONT
  0
STYLE
  2
TextStyle05
 70
     0
 40
1.0
 41
1.0
 42
1.0
 50
0.0
 71
     0
  3
MONOTXT
  4
BIGFONT
  0
STYLE
  2
TextStyle06
 70
     0
 40
1.0
 41
1.0
 42
1.0
 50
0.0
 71
     0
  3
MONOTXT
  4
BIGFONT
  0
STYLE
  2
TextStyle07
 70
     0
 40
1.0
 41
1.0
 42
1.0
 50
0.0
 71
     0
  3
MONOTXT
  4
BIGFONT
  0
STYLE
  2
TextStyle08
 70
     0
 40
1.0
 41
1.0
 42
1.0
 50
0.0
 71
     0
  3
MONOTXT
  4
BIGFONT
  0
STYLE
  2
TextStyle09
 70
     0
 40
1.0
 41
1.0
 42
1.0
 50
0.0
 71
     0
  3
MONOTXT
  4
BIGFONT
  0
STYLE
  2
TextStyle10
 70
     0
 40
1.0
 41
1.0
 42
1.0
 50
0.0
 71
     0
  3
MONOTXT
  4
BIGFONT
  0
ENDTAB
  0
ENDSEC
  0
SECTION
  2
BLOCKS
  0
BLOCK
  2
*GRP_0001
 70
    65
 10
0.0
 20
0.0
  0
LINE
  8
型材断面
  6
CONTINUOUS
 10
195.0
 20
133.5
 11
195.0
 21
-133.5
  0
LINE
  8
型材断面
  6
CONTINUOUS
 10
195.0
 20
-133.5
 11
-185.0
 21
-133.5
  0
LINE
  8
型材断面
  6
CONTINUOUS
 10
-185.0
 20
-133.5
 11
-185.0
 21
133.5
  0
LINE
  8
型材断面
  6
CONTINUOUS
 10
195.0
 20
133.5
 11
-185.0
 21
133.5
  0
LINE
  8
型材断面
  6
CONTINUOUS
 10
145.0
 20
-133.5
 11
145.0
 21
-118.5
  0
LINE
  8
型材断面
  6
CONTINUOUS
 10
195.0
 20
-118.5
 11
145.0
 21
-118.5
  0
ENDBLK
  0
BLOCK
  2
*GRP_0002
 70
    65
 10
0.0
 20
0.0
  0
LINE
  8
補助線
  6
BYBLOCK
 62
    64
 10
128.90669
 20
-78.10916
 11
129.08038
 21
-78.288965
  0
LINE
  8
補助線
  6
BYBLOCK
 62
    64
 10
129.083438
 20
-78.112218
 11
128.903632
 21
-78.285908
  0
LINE
  8
補助線
  6
BYBLOCK
 62
    64
 10
117.512195
 20
-66.314015
 11
117.338498
 21
-66.134207
  0
LINE
  8
補助線
  6
BYBLOCK
 62
    64
 10
117.515245
 20
-66.137262
 11
117.335442
 21
-66.31096
  0
LINE
  8
補助線
  6
BYBLOCK
 62
    64
 10
105.943943
 20
-54.339117
 11
105.770245
 21
-54.159318
  0
LINE
  8
補助線
  6
BYBLOCK
 62
    64
 10
105.946995
 20
-54.16237
 11
105.767193
 21
-54.336067
  0
LINE
  8
型材断面
  6
CONTINUOUS
 10
130.23995
 20
-77.690187
 11
130.221625
 21
-78.750687
  0
LINE
  8
型材断面
  6
CONTINUOUS
 10
130.221625
 20
-78.750687
 11
129.50241
 21
-79.445478
  0
LINE
  8
型材断面
  6
CONTINUOUS
 10
129.50241
 20
-79.445478
 11
128.44191
 21
-79.427153
  0
LINE
  8
型材断面
  6
CONTINUOUS
 10
106.408715
 20
-53.021123
 11
105.348215
 21
-53.002808
  0
LINE
  8
型材断面
  6
CONTINUOUS
 10
105.348215
 20
-53.002808
 11
104.628997
 21
-53.697598
  0
LINE
  8
型材断面
  6
CONTINUOUS
 10
104.628997
 20
-53.697598
 11
104.610683
 21
-54.758097
  0
LINE
  8
型材断面
  6
CONTINUOUS
 10
130.23995
 20
-77.690187
 11
106.408835
 21
-53.021125
  0
LINE
  8
型材断面
  6
CONTINUOUS
 10
128.44191
 20
-79.427153
 11
104.610685
 21
-54.757988
  0
LINE
  8
ボルト／ビス
  6
CONTINUOUS
 62
    64
 10
129.325725
 20
-77.878153
 11
129.437545
 21
-78.326295
  0
LINE
  8
ボルト／ビス
  6
CONTINUOUS
 62
    64
 10
129.325725
 20
-77.878153
 11
128.881718
 21
-77.750925
  0
LINE
  8
ボルト／ビス
  6
CONTINUOUS
 62
    64
 10
128.661345
 20
-78.519973
 11
129.105352
 21
-78.6472
  0
LINE
  8
ボルト／ビス
  6
CONTINUOUS
 62
    64
 10
128.661345
 20
-78.519973
 11
128.549525
 21
-78.07183
  0
CIRCLE
  8
ボルト／ビス
  6
CONTINUOUS
 62
    64
 10
128.993535
 20
-78.199063
 40
0.4
  0
LINE
  8
ボルト／ビス
  6
CONTINUOUS
 62
    64
 10
128.881718
 20
-77.750925
 11
128.549525
 21
-78.07183
  0
LINE
  8
ボルト／ビス
  6
CONTINUOUS
 62
    64
 10
129.437545
 20
-78.326295
 11
129.105352
 21
-78.6472
  0
LINE
  8
ボルト／ビス
  6
CONTINUOUS
 62
    64
 10
117.757538
 20
-65.903205
 11
117.313525
 21
-65.77597
  0
LINE
  8
ボルト／ビス
  6
CONTINUOUS
 62
    64
 10
117.757538
 20
-65.903205
 11
117.869357
 21
-66.351343
  0
LINE
  8
ボルト／ビス
  6
CONTINUOUS
 62
    64
 10
117.093153
 20
-66.545018
 11
116.981335
 21
-66.096878
  0
LINE
  8
ボルト／ビス
  6
CONTINUOUS
 62
    64
 10
117.093153
 20
-66.545018
 11
117.537162
 21
-66.67225
  0
CIRCLE
  8
ボルト／ビス
  6
CONTINUOUS
 62
    64
 10
117.425343
 20
-66.22411
 40
0.4
  0
LINE
  8
ボルト／ビス
  6
CONTINUOUS
 62
    64
 10
117.869357
 20
-66.351343
 11
117.537162
 21
-66.67225
  0
LINE
  8
ボルト／ビス
  6
CONTINUOUS
 62
    64
 10
117.313525
 20
-65.77597
 11
116.981335
 21
-66.096878
  0
LINE
  8
ボルト／ビス
  6
CONTINUOUS
 62
    64
 10
106.189285
 20
-53.928308
 11
105.745272
 21
-53.801077
  0
LINE
  8
ボルト／ビス
  6
CONTINUOUS
 62
    64
 10
106.189285
 20
-53.928308
 11
106.301102
 21
-54.376447
  0
LINE
  8
ボルト／ビス
  6
CONTINUOUS
 62
    64
 10
105.524902
 20
-54.570128
 11
105.413085
 21
-54.121985
  0
LINE
  8
ボルト／ビス
  6
CONTINUOUS
 62
    64
 10
105.524902
 20
-54.570128
 11
105.968917
 21
-54.697357
  0
CIRCLE
  8
ボルト／ビス
  6
CONTINUOUS
 62
    64
 10
105.857095
 20
-54.249218
 40
0.4
  0
LINE
  8
ボルト／ビス
  6
CONTINUOUS
 62
    64
 10
106.301102
 20
-54.376447
 11
105.968917
 21
-54.697357
  0
LINE
  8
ボルト／ビス
  6
CONTINUOUS
 62
    64
 10
105.745272
 20
-53.801077
 11
105.413085
 21
-54.121985
  0
ENDBLK
  0
BLOCK
  2
*GRP_0003
 70
    65
 10
0.0
 20
0.0
  0
LINE
  8
補助線
  6
BYBLOCK
 62
    64
 10
105.944
 20
-78.10916
 11
105.77031
 21
-78.288965
  0
LINE
  8
補助線
  6
BYBLOCK
 62
    64
 10
105.767253
 20
-78.112218
 11
105.947057
 21
-78.285908
  0
LINE
  8
補助線
  6
BYBLOCK
 62
    64
 10
117.338495
 20
-66.314015
 11
117.512192
 21
-66.134207
  0
LINE
  8
補助線
  6
BYBLOCK
 62
    64
 10
117.335445
 20
-66.137262
 11
117.515248
 21
-66.31096
  0
LINE
  8
補助線
  6
BYBLOCK
 62
    64
 10
128.906747
 20
-54.339117
 11
129.080445
 21
-54.159318
  0
LINE
  8
補助線
  6
BYBLOCK
 62
    64
 10
128.903695
 20
-54.16237
 11
129.083497
 21
-54.336067
  0
LINE
  8
型材断面
  6
CONTINUOUS
 10
104.61074
 20
-77.690187
 11
104.629065
 21
-78.750687
  0
LINE
  8
型材断面
  6
CONTINUOUS
 10
104.629065
 20
-78.750687
 11
105.34828
 21
-79.445478
  0
LINE
  8
型材断面
  6
CONTINUOUS
 10
105.34828
 20
-79.445478
 11
106.40878
 21
-79.427153
  0
LINE
  8
型材断面
  6
CONTINUOUS
 10
128.441975
 20
-53.021123
 11
129.502475
 21
-53.002808
  0
LINE
  8
型材断面
  6
CONTINUOUS
 10
129.502475
 20
-53.002808
 11
130.221693
 21
-53.697598
  0
LINE
  8
型材断面
  6
CONTINUOUS
 10
130.221693
 20
-53.697598
 11
130.240007
 21
-54.758097
  0
LINE
  8
型材断面
  6
CONTINUOUS
 10
104.61074
 20
-77.690187
 11
128.441855
 21
-53.021125
  0
LINE
  8
型材断面
  6
CONTINUOUS
 10
106.40878
 20
-79.427153
 11
130.240005
 21
-54.757988
  0
LINE
  8
ボルト／ビス
  6
CONTINUOUS
 62
    64
 10
105.524965
 20
-77.878153
 11
105.413145
 21
-78.326295
  0
LINE
  8
ボルト／ビス
  6
CONTINUOUS
 62
    64
 10
105.524965
 20
-77.878153
 11
105.968973
 21
-77.750925
  0
LINE
  8
ボルト／ビス
  6
CONTINUOUS
 62
    64
 10
106.189345
 20
-78.519973
 11
105.745337
 21
-78.6472
  0
LINE
  8
ボルト／ビス
  6
CONTINUOUS
 62
    64
 10
106.189345
 20
-78.519973
 11
106.301165
 21
-78.07183
  0
CIRCLE
  8
ボルト／ビス
  6
CONTINUOUS
 62
    64
 10
105.857155
 20
-78.199063
 40
0.4
  0
LINE
  8
ボルト／ビス
  6
CONTINUOUS
 62
    64
 10
105.968973
 20
-77.750925
 11
106.301165
 21
-78.07183
  0
LINE
  8
ボルト／ビス
  6
CONTINUOUS
 62
    64
 10
105.413145
 20
-78.326295
 11
105.745337
 21
-78.6472
  0
LINE
  8
ボルト／ビス
  6
CONTINUOUS
 62
    64
 10
117.093153
 20
-65.903205
 11
117.537165
 21
-65.77597
  0
LINE
  8
ボルト／ビス
  6
CONTINUOUS
 62
    64
 10
117.093153
 20
-65.903205
 11
116.981332
 21
-66.351343
  0
LINE
  8
ボルト／ビス
  6
CONTINUOUS
 62
    64
 10
117.757538
 20
-66.545018
 11
117.869355
 21
-66.096878
  0
LINE
  8
ボルト／ビス
  6
CONTINUOUS
 62
    64
 10
117.757538
 20
-66.545018
 11
117.313528
 21
-66.67225
  0
CIRCLE
  8
ボルト／ビス
  6
CONTINUOUS
 62
    64
 10
117.425347
 20
-66.22411
 40
0.4
  0
LINE
  8
ボルト／ビス
  6
CONTINUOUS
 62
    64
 10
116.981332
 20
-66.351343
 11
117.313528
 21
-66.67225
  0
LINE
  8
ボルト／ビス
  6
CONTINUOUS
 62
    64
 10
117.537165
 20
-65.77597
 11
117.869355
 21
-66.096878
  0
LINE
  8
ボルト／ビス
  6
CONTINUOUS
 62
    64
 10
128.661405
 20
-53.928308
 11
129.105417
 21
-53.801077
  0
LINE
  8
ボルト／ビス
  6
CONTINUOUS
 62
    64
 10
128.661405
 20
-53.928308
 11
128.549588
 21
-54.376447
  0
LINE
  8
ボルト／ビス
  6
CONTINUOUS
 62
    64
 10
129.325787
 20
-54.570128
 11
129.437605
 21
-54.121985
  0
LINE
  8
ボルト／ビス
  6
CONTINUOUS
 62
    64
 10
129.325787
 20
-54.570128
 11
128.881773
 21
-54.697357
  0
CIRCLE
  8
ボルト／ビス
  6
CONTINUOUS
 62
    64
 10
128.993595
 20
-54.249218
 40
0.4
  0
LINE
  8
ボルト／ビス
  6
CONTINUOUS
 62
    64
 10
128.549588
 20
-54.376447
 11
128.881773
 21
-54.697357
  0
LINE
  8
ボルト／ビス
  6
CONTINUOUS
 62
    64
 10
129.105417
 20
-53.801077
 11
129.437605
 21
-54.121985
  0
ENDBLK
  0
BLOCK
  2
*GRP_0004
 70
    65
 10
0.0
 20
0.0
  0
LINE
  8
補助線
  6
BYBLOCK
 62
    64
 10
53.0505
 20
-78.10916
 11
52.87681
 21
-78.288965
  0
LINE
  8
補助線
  6
BYBLOCK
 62
    64
 10
52.873753
 20
-78.112218
 11
53.053557
 21
-78.285908
  0
LINE
  8
補助線
  6
BYBLOCK
 62
    64
 10
64.444995
 20
-66.314015
 11
64.618692
 21
-66.134207
  0
LINE
  8
補助線
  6
BYBLOCK
 62
    64
 10
64.441945
 20
-66.137262
 11
64.621747
 21
-66.31096
  0
LINE
  8
補助線
  6
BYBLOCK
 62
    64
 10
76.013248
 20
-54.339117
 11
76.186945
 21
-54.159318
  0
LINE
  8
補助線
  6
BYBLOCK
 62
    64
 10
76.010195
 20
-54.16237
 11
76.189998
 21
-54.336067
  0
LINE
  8
型材断面
  6
CONTINUOUS
 10
51.71724
 20
-77.690187
 11
51.735565
 21
-78.750687
  0
LINE
  8
型材断面
  6
CONTINUOUS
 10
51.735565
 20
-78.750687
 11
52.45478
 21
-79.445478
  0
LINE
  8
型材断面
  6
CONTINUOUS
 10
52.45478
 20
-79.445478
 11
53.51528
 21
-79.427153
  0
LINE
  8
型材断面
  6
CONTINUOUS
 10
75.548475
 20
-53.021123
 11
76.608975
 21
-53.002808
  0
LINE
  8
型材断面
  6
CONTINUOUS
 10
76.608975
 20
-53.002808
 11
77.328192
 21
-53.697598
  0
LINE
  8
型材断面
  6
CONTINUOUS
 10
77.328192
 20
-53.697598
 11
77.346508
 21
-54.758097
  0
LINE
  8
型材断面
  6
CONTINUOUS
 10
51.71724
 20
-77.690187
 11
75.548355
 21
-53.021125
  0
LINE
  8
型材断面
  6
CONTINUOUS
 10
53.51528
 20
-79.427153
 11
77.346505
 21
-54.757988
  0
LINE
  8
ボルト／ビス
  6
CONTINUOUS
 62
    64
 10
52.631465
 20
-77.878153
 11
52.519645
 21
-78.326295
  0
LINE
  8
ボルト／ビス
  6
CONTINUOUS
 62
    64
 10
52.631465
 20
-77.878153
 11
53.075473
 21
-77.750925
  0
LINE
  8
ボルト／ビス
  6
CONTINUOUS
 62
    64
 10
53.295845
 20
-78.519973
 11
52.851837
 21
-78.6472
  0
LINE
  8
ボルト／ビス
  6
CONTINUOUS
 62
    64
 10
53.295845
 20
-78.519973
 11
53.407665
 21
-78.07183
  0
CIRCLE
  8
ボルト／ビス
  6
CONTINUOUS
 62
    64
 10
52.963655
 20
-78.199063
 40
0.4
  0
LINE
  8
ボルト／ビス
  6
CONTINUOUS
 62
    64
 10
53.075473
 20
-77.750925
 11
53.407665
 21
-78.07183
  0
LINE
  8
ボルト／ビス
  6
CONTINUOUS
 62
    64
 10
52.519645
 20
-78.326295
 11
52.851837
 21
-78.6472
  0
LINE
  8
ボルト／ビス
  6
CONTINUOUS
 62
    64
 10
64.199653
 20
-65.903205
 11
64.643665
 21
-65.77597
  0
LINE
  8
ボルト／ビス
  6
CONTINUOUS
 62
    64
 10
64.199653
 20
-65.903205
 11
64.087832
 21
-66.351343
  0
LINE
  8
ボルト／ビス
  6
CONTINUOUS
 62
    64
 10
64.864038
 20
-66.545018
 11
64.975855
 21
-66.096878
  0
LINE
  8
ボルト／ビス
  6
CONTINUOUS
 62
    64
 10
64.864038
 20
-66.545018
 11
64.420027
 21
-66.67225
  0
CIRCLE
  8
ボルト／ビス
  6
CONTINUOUS
 62
    64
 10
64.531847
 20
-66.22411
 40
0.4
  0
LINE
  8
ボルト／ビス
  6
CONTINUOUS
 62
    64
 10
64.087832
 20
-66.351343
 11
64.420027
 21
-66.67225
  0
LINE
  8
ボルト／ビス
  6
CONTINUOUS
 62
    64
 10
64.643665
 20
-65.77597
 11
64.975855
 21
-66.096878
  0
LINE
  8
ボルト／ビス
  6
CONTINUOUS
 62
    64
 10
75.767905
 20
-53.928308
 11
76.211917
 21
-53.801077
  0
LINE
  8
ボルト／ビス
  6
CONTINUOUS
 62
    64
 10
75.767905
 20
-53.928308
 11
75.656087
 21
-54.376447
  0
LINE
  8
ボルト／ビス
  6
CONTINUOUS
 62
    64
 10
76.432287
 20
-54.570128
 11
76.544105
 21
-54.121985
  0
LINE
  8
ボルト／ビス
  6
CONTINUOUS
 62
    64
 10
76.432287
 20
-54.570128
 11
75.988272
 21
-54.697357
  0
CIRCLE
  8
ボルト／ビス
  6
CONTINUOUS
 62
    64
 10
76.100095
 20
-54.249218
 40
0.4
  0
LINE
  8
ボルト／ビス
  6
CONTINUOUS
 62
    64
 10
75.656087
 20
-54.376447
 11
75.988272
 21
-54.697357
  0
LINE
  8
ボルト／ビス
  6
CONTINUOUS
 62
    64
 10
76.211917
 20
-53.801077
 11
76.544105
 21
-54.121985
  0
ENDBLK
  0
BLOCK
  2
*GRP_0005
 70
    65
 10
0.0
 20
0.0
  0
LINE
  8
補助線
  6
BYBLOCK
 62
    64
 10
76.01319
 20
-78.10916
 11
76.18688
 21
-78.288965
  0
LINE
  8
補助線
  6
BYBLOCK
 62
    64
 10
76.189938
 20
-78.112218
 11
76.010132
 21
-78.285908
  0
LINE
  8
補助線
  6
BYBLOCK
 62
    64
 10
64.618695
 20
-66.314015
 11
64.444997
 21
-66.134207
  0
LINE
  8
補助線
  6
BYBLOCK
 62
    64
 10
64.621745
 20
-66.137262
 11
64.441943
 21
-66.31096
  0
LINE
  8
補助線
  6
BYBLOCK
 62
    64
 10
53.050442
 20
-54.339117
 11
52.876745
 21
-54.159318
  0
LINE
  8
補助線
  6
BYBLOCK
 62
    64
 10
53.053495
 20
-54.16237
 11
52.873692
 21
-54.336067
  0
LINE
  8
型材断面
  6
CONTINUOUS
 10
77.34645
 20
-77.690187
 11
77.328125
 21
-78.750687
  0
LINE
  8
型材断面
  6
CONTINUOUS
 10
77.328125
 20
-78.750687
 11
76.60891
 21
-79.445478
  0
LINE
  8
型材断面
  6
CONTINUOUS
 10
76.60891
 20
-79.445478
 11
75.54841
 21
-79.427153
  0
LINE
  8
型材断面
  6
CONTINUOUS
 10
53.515215
 20
-53.021123
 11
52.454715
 21
-53.002808
  0
LINE
  8
型材断面
  6
CONTINUOUS
 10
52.454715
 20
-53.002808
 11
51.735498
 21
-53.697598
  0
LINE
  8
型材断面
  6
CONTINUOUS
 10
51.735498
 20
-53.697598
 11
51.717182
 21
-54.758097
  0
LINE
  8
型材断面
  6
CONTINUOUS
 10
77.34645
 20
-77.690187
 11
53.515335
 21
-53.021125
  0
LINE
  8
型材断面
  6
CONTINUOUS
 10
75.54841
 20
-79.427153
 11
51.717185
 21
-54.757988
  0
LINE
  8
ボルト／ビス
  6
CONTINUOUS
 62
    64
 10
76.432225
 20
-77.878153
 11
76.544045
 21
-78.326295
  0
LINE
  8
ボルト／ビス
  6
CONTINUOUS
 62
    64
 10
76.432225
 20
-77.878153
 11
75.988218
 21
-77.750925
  0
LINE
  8
ボルト／ビス
  6
CONTINUOUS
 62
    64
 10
75.767845
 20
-78.519973
 11
76.211852
 21
-78.6472
  0
LINE
  8
ボルト／ビス
  6
CONTINUOUS
 62
    64
 10
75.767845
 20
-78.519973
 11
75.656025
 21
-78.07183
  0
CIRCLE
  8
ボルト／ビス
  6
CONTINUOUS
 62
    64
 10
76.100035
 20
-78.199063
 40
0.4
  0
LINE
  8
ボルト／ビス
  6
CONTINUOUS
 62
    64
 10
75.988218
 20
-77.750925
 11
75.656025
 21
-78.07183
  0
LINE
  8
ボルト／ビス
  6
CONTINUOUS
 62
    64
 10
76.544045
 20
-78.326295
 11
76.211852
 21
-78.6472
  0
LINE
  8
ボルト／ビス
  6
CONTINUOUS
 62
    64
 10
64.864038
 20
-65.903205
 11
64.420025
 21
-65.77597
  0
LINE
  8
ボルト／ビス
  6
CONTINUOUS
 62
    64
 10
64.864038
 20
-65.903205
 11
64.975857
 21
-66.351343
  0
LINE
  8
ボルト／ビス
  6
CONTINUOUS
 62
    64
 10
64.199653
 20
-66.545018
 11
64.087835
 21
-66.096878
  0
LINE
  8
ボルト／ビス
  6
CONTINUOUS
 62
    64
 10
64.199653
 20
-66.545018
 11
64.643663
 21
-66.67225
  0
CIRCLE
  8
ボルト／ビス
  6
CONTINUOUS
 62
    64
 10
64.531842
 20
-66.22411
 40
0.4
  0
LINE
  8
ボルト／ビス
  6
CONTINUOUS
 62
    64
 10
64.975857
 20
-66.351343
 11
64.643663
 21
-66.67225
  0
LINE
  8
ボルト／ビス
  6
CONTINUOUS
 62
    64
 10
64.420025
 20
-65.77597
 11
64.087835
 21
-66.096878
  0
LINE
  8
ボルト／ビス
  6
CONTINUOUS
 62
    64
 10
53.295785
 20
-53.928308
 11
52.851772
 21
-53.801077
  0
LINE
  8
ボルト／ビス
  6
CONTINUOUS
 62
    64
 10
53.295785
 20
-53.928308
 11
53.407603
 21
-54.376447
  0
LINE
  8
ボルト／ビス
  6
CONTINUOUS
 62
    64
 10
52.631402
 20
-54.570128
 11
52.519585
 21
-54.121985
  0
LINE
  8
ボルト／ビス
  6
CONTINUOUS
 62
    64
 10
52.631402
 20
-54.570128
 11
53.075418
 21
-54.697357
  0
CIRCLE
  8
ボルト／ビス
  6
CONTINUOUS
 62
    64
 10
52.963595
 20
-54.249218
 40
0.4
  0
LINE
  8
ボルト／ビス
  6
CONTINUOUS
 62
    64
 10
53.407603
 20
-54.376447
 11
53.075418
 21
-54.697357
  0
LINE
  8
ボルト／ビス
  6
CONTINUOUS
 62
    64
 10
52.851772
 20
-53.801077
 11
52.519585
 21
-54.121985
  0
ENDBLK
  0
BLOCK
  2
*GRP_0006
 70
    65
 10
0.0
 20
0.0
  0
INSERT
  2
*GRP_0031
  8
補助線
  6
CONTINUOUS
 10
0.0
 20
0.0
  0
LINE
  8
ボルト／ビス
  6
CONTINUOUS
 10
-55.755937
 20
-8.107235
 11
-55.505937
 21
-7.962897
  0
LINE
  8
ボルト／ビス
  6
CONTINUOUS
 10
-55.755937
 20
-8.107235
 11
-56.005937
 21
-7.962897
  0
LINE
  8
ボルト／ビス
  6
CONTINUOUS
 10
-55.505937
 20
-7.674222
 11
-55.755937
 21
-7.529885
  0
LINE
  8
ボルト／ビス
  6
CONTINUOUS
 10
-56.005937
 20
-7.674222
 11
-55.755937
 21
-7.529885
  0
CIRCLE
  8
ボルト／ビス
  6
CONTINUOUS
 10
-55.755937
 20
-7.81856
 40
0.25
  0
LINE
  8
ボルト／ビス
  6
CONTINUOUS
 10
-56.005937
 20
-7.962897
 11
-56.005937
 21
-7.674222
  0
LINE
  8
ボルト／ビス
  6
CONTINUOUS
 10
-55.505937
 20
-7.674222
 11
-55.505937
 21
-7.962897
  0
ENDBLK
  0
BLOCK
  2
*GRP_0007
 70
    65
 10
0.0
 20
0.0
  0
INSERT
  2
*GRP_0032
  8
補助線
  6
CONTINUOUS
 10
0.0
 20
0.0
  0
LINE
  8
ボルト／ビス
  6
CONTINUOUS
 10
-70.755937
 20
-8.107235
 11
-70.505937
 21
-7.962897
  0
LINE
  8
ボルト／ビス
  6
CONTINUOUS
 10
-70.755937
 20
-8.107235
 11
-71.005937
 21
-7.962897
  0
LINE
  8
ボルト／ビス
  6
CONTINUOUS
 10
-70.505937
 20
-7.674222
 11
-70.755937
 21
-7.529885
  0
LINE
  8
ボルト／ビス
  6
CONTINUOUS
 10
-71.005937
 20
-7.674222
 11
-70.755937
 21
-7.529885
  0
CIRCLE
  8
ボルト／ビス
  6
CONTINUOUS
 10
-70.755937
 20
-7.81856
 40
0.25
  0
LINE
  8
ボルト／ビス
  6
CONTINUOUS
 10
-71.005937
 20
-7.962897
 11
-71.005937
 21
-7.674222
  0
LINE
  8
ボルト／ビス
  6
CONTINUOUS
 10
-70.505937
 20
-7.674222
 11
-70.505937
 21
-7.962897
  0
ENDBLK
  0
BLOCK
  2
*GRP_0008
 70
    65
 10
0.0
 20
0.0
  0
INSERT
  2
*GRP_0033
  8
補助線
  6
CONTINUOUS
 10
0.0
 20
0.0
  0
LINE
  8
ボルト／ビス
  6
CONTINUOUS
 10
-85.755937
 20
-8.107235
 11
-85.505937
 21
-7.962897
  0
LINE
  8
ボルト／ビス
  6
CONTINUOUS
 10
-85.755937
 20
-8.107235
 11
-86.005937
 21
-7.962897
  0
LINE
  8
ボルト／ビス
  6
CONTINUOUS
 10
-85.505937
 20
-7.674222
 11
-85.755937
 21
-7.529885
  0
LINE
  8
ボルト／ビス
  6
CONTINUOUS
 10
-86.005937
 20
-7.674222
 11
-85.755937
 21
-7.529885
  0
CIRCLE
  8
ボルト／ビス
  6
CONTINUOUS
 10
-85.755937
 20
-7.81856
 40
0.25
  0
LINE
  8
ボルト／ビス
  6
CONTINUOUS
 10
-86.005937
 20
-7.962897
 11
-86.005937
 21
-7.674222
  0
LINE
  8
ボルト／ビス
  6
CONTINUOUS
 10
-85.505937
 20
-7.674222
 11
-85.505937
 21
-7.962897
  0
ENDBLK
  0
BLOCK
  2
*GRP_0009
 70
    65
 10
0.0
 20
0.0
  0
INSERT
  2
*GRP_0034
  8
補助線
  6
CONTINUOUS
 10
0.0
 20
0.0
  0
LINE
  8
ボルト／ビス
  6
CONTINUOUS
 10
-97.044613
 20
33.18144
 11
-96.900275
 21
33.43144
  0
LINE
  8
ボルト／ビス
  6
CONTINUOUS
 10
-97.044613
 20
33.18144
 11
-96.900275
 21
32.93144
  0
LINE
  8
ボルト／ビス
  6
CONTINUOUS
 10
-96.6116
 20
33.43144
 11
-96.467263
 21
33.18144
  0
LINE
  8
ボルト／ビス
  6
CONTINUOUS
 10
-96.6116
 20
32.93144
 11
-96.467263
 21
33.18144
  0
CIRCLE
  8
ボルト／ビス
  6
CONTINUOUS
 10
-96.755937
 20
33.18144
 40
0.25
  0
LINE
  8
ボルト／ビス
  6
CONTINUOUS
 10
-96.900275
 20
32.93144
 11
-96.6116
 21
32.93144
  0
LINE
  8
ボルト／ビス
  6
CONTINUOUS
 10
-96.6116
 20
33.43144
 11
-96.900275
 21
33.43144
  0
ENDBLK
  0
BLOCK
  2
*GRP_0010
 70
    65
 10
0.0
 20
0.0
  0
INSERT
  2
*GRP_0035
  8
補助線
  6
CONTINUOUS
 10
0.0
 20
0.0
  0
LINE
  8
ボルト／ビス
  6
CONTINUOUS
 10
-97.044613
 20
18.18144
 11
-96.900275
 21
18.43144
  0
LINE
  8
ボルト／ビス
  6
CONTINUOUS
 10
-97.044613
 20
18.18144
 11
-96.900275
 21
17.93144
  0
LINE
  8
ボルト／ビス
  6
CONTINUOUS
 10
-96.6116
 20
18.43144
 11
-96.467263
 21
18.18144
  0
LINE
  8
ボルト／ビス
  6
CONTINUOUS
 10
-96.6116
 20
17.93144
 11
-96.467263
 21
18.18144
  0
CIRCLE
  8
ボルト／ビス
  6
CONTINUOUS
 10
-96.755937
 20
18.18144
 40
0.25
  0
LINE
  8
ボルト／ビス
  6
CONTINUOUS
 10
-96.900275
 20
17.93144
 11
-96.6116
 21
17.93144
  0
LINE
  8
ボルト／ビス
  6
CONTINUOUS
 10
-96.6116
 20
18.43144
 11
-96.900275
 21
18.43144
  0
ENDBLK
  0
BLOCK
  2
*GRP_0011
 70
    65
 10
0.0
 20
0.0
  0
INSERT
  2
*GRP_0036
  8
補助線
  6
CONTINUOUS
 10
0.0
 20
0.0
  0
LINE
  8
ボルト／ビス
  6
CONTINUOUS
 10
-97.044613
 20
3.18144
 11
-96.900275
 21
3.43144
  0
LINE
  8
ボルト／ビス
  6
CONTINUOUS
 10
-97.044613
 20
3.18144
 11
-96.900275
 21
2.93144
  0
LINE
  8
ボルト／ビス
  6
CONTINUOUS
 10
-96.6116
 20
3.43144
 11
-96.467263
 21
3.18144
  0
LINE
  8
ボルト／ビス
  6
CONTINUOUS
 10
-96.6116
 20
2.93144
 11
-96.467263
 21
3.18144
  0
CIRCLE
  8
ボルト／ビス
  6
CONTINUOUS
 10
-96.755937
 20
3.18144
 40
0.25
  0
LINE
  8
ボルト／ビス
  6
CONTINUOUS
 10
-96.900275
 20
2.93144
 11
-96.6116
 21
2.93144
  0
LINE
  8
ボルト／ビス
  6
CONTINUOUS
 10
-96.6116
 20
3.43144
 11
-96.900275
 21
3.43144
  0
ENDBLK
  0
BLOCK
  2
*GRP_0012
 70
    65
 10
0.0
 20
0.0
  0
INSERT
  2
*GRP_0037
  8
補助線
  6
CONTINUOUS
 10
0.0
 20
0.0
  0
LINE
  8
ボルト／ビス
  6
CONTINUOUS
 10
-70.755937
 20
74.470115
 11
-70.505937
 21
74.325778
  0
LINE
  8
ボルト／ビス
  6
CONTINUOUS
 10
-70.755937
 20
74.470115
 11
-71.005937
 21
74.325778
  0
LINE
  8
ボルト／ビス
  6
CONTINUOUS
 10
-70.505937
 20
74.037103
 11
-70.755937
 21
73.892765
  0
LINE
  8
ボルト／ビス
  6
CONTINUOUS
 10
-71.005937
 20
74.037103
 11
-70.755937
 21
73.892765
  0
CIRCLE
  8
ボルト／ビス
  6
CONTINUOUS
 10
-70.755937
 20
74.18144
 40
0.25
  0
LINE
  8
ボルト／ビス
  6
CONTINUOUS
 10
-71.005937
 20
74.325778
 11
-71.005937
 21
74.037103
  0
LINE
  8
ボルト／ビス
  6
CONTINUOUS
 10
-70.505937
 20
74.037103
 11
-70.505937
 21
74.325778
  0
ENDBLK
  0
BLOCK
  2
*GRP_0013
 70
    65
 10
0.0
 20
0.0
  0
INSERT
  2
*GRP_0038
  8
補助線
  6
CONTINUOUS
 10
0.0
 20
0.0
  0
LINE
  8
ボルト／ビス
  6
CONTINUOUS
 10
-85.755937
 20
74.470115
 11
-85.505937
 21
74.325778
  0
LINE
  8
ボルト／ビス
  6
CONTINUOUS
 10
-85.755937
 20
74.470115
 11
-86.005937
 21
74.325778
  0
LINE
  8
ボルト／ビス
  6
CONTINUOUS
 10
-85.505937
 20
74.037103
 11
-85.755937
 21
73.892765
  0
LINE
  8
ボルト／ビス
  6
CONTINUOUS
 10
-86.005937
 20
74.037103
 11
-85.755937
 21
73.892765
  0
CIRCLE
  8
ボルト／ビス
  6
CONTINUOUS
 10
-85.755937
 20
74.18144
 40
0.25
  0
LINE
  8
ボルト／ビス
  6
CONTINUOUS
 10
-86.005937
 20
74.325778
 11
-86.005937
 21
74.037103
  0
LINE
  8
ボルト／ビス
  6
CONTINUOUS
 10
-85.505937
 20
74.037103
 11
-85.505937
 21
74.325778
  0
ENDBLK
  0
BLOCK
  2
*GRP_0014
 70
    65
 10
0.0
 20
0.0
  0
INSERT
  2
*GRP_0039
  8
補助線
  6
CONTINUOUS
 10
0.0
 20
0.0
  0
LINE
  8
ボルト／ビス
  6
CONTINUOUS
 10
-97.044613
 20
48.18144
 11
-96.900275
 21
47.93144
  0
LINE
  8
ボルト／ビス
  6
CONTINUOUS
 10
-97.044613
 20
48.18144
 11
-96.900275
 21
48.43144
  0
LINE
  8
ボルト／ビス
  6
CONTINUOUS
 10
-96.6116
 20
47.93144
 11
-96.467263
 21
48.18144
  0
LINE
  8
ボルト／ビス
  6
CONTINUOUS
 10
-96.6116
 20
48.43144
 11
-96.467263
 21
48.18144
  0
CIRCLE
  8
ボルト／ビス
  6
CONTINUOUS
 10
-96.755937
 20
48.18144
 40
0.25
  0
LINE
  8
ボルト／ビス
  6
CONTINUOUS
 10
-96.900275
 20
48.43144
 11
-96.6116
 21
48.43144
  0
LINE
  8
ボルト／ビス
  6
CONTINUOUS
 10
-96.6116
 20
47.93144
 11
-96.900275
 21
47.93144
  0
ENDBLK
  0
BLOCK
  2
*GRP_0015
 70
    65
 10
0.0
 20
0.0
  0
INSERT
  2
*GRP_0040
  8
補助線
  6
CONTINUOUS
 10
0.0
 20
0.0
  0
LINE
  8
ボルト／ビス
  6
CONTINUOUS
 10
-97.044613
 20
63.18144
 11
-96.900275
 21
62.93144
  0
LINE
  8
ボルト／ビス
  6
CONTINUOUS
 10
-97.044613
 20
63.18144
 11
-96.900275
 21
63.43144
  0
LINE
  8
ボルト／ビス
  6
CONTINUOUS
 10
-96.6116
 20
62.93144
 11
-96.467263
 21
63.18144
  0
LINE
  8
ボルト／ビス
  6
CONTINUOUS
 10
-96.6116
 20
63.43144
 11
-96.467263
 21
63.18144
  0
CIRCLE
  8
ボルト／ビス
  6
CONTINUOUS
 10
-96.755937
 20
63.18144
 40
0.25
  0
LINE
  8
ボルト／ビス
  6
CONTINUOUS
 10
-96.900275
 20
63.43144
 11
-96.6116
 21
63.43144
  0
LINE
  8
ボルト／ビス
  6
CONTINUOUS
 10
-96.6116
 20
62.93144
 11
-96.900275
 21
62.93144
  0
ENDBLK
  0
BLOCK
  2
*GRP_0016
 70
    65
 10
0.0
 20
0.0
  0
INSERT
  2
*GRP_0041
  8
補助線
  6
CONTINUOUS
 10
0.0
 20
0.0
  0
LINE
  8
ボルト／ビス
  6
CONTINUOUS
 10
-40.755937
 20
-8.107235
 11
-41.005937
 21
-7.962897
  0
LINE
  8
ボルト／ビス
  6
CONTINUOUS
 10
-40.755937
 20
-8.107235
 11
-40.505937
 21
-7.962897
  0
LINE
  8
ボルト／ビス
  6
CONTINUOUS
 10
-41.005937
 20
-7.674222
 11
-40.755937
 21
-7.529885
  0
LINE
  8
ボルト／ビス
  6
CONTINUOUS
 10
-40.505937
 20
-7.674222
 11
-40.755937
 21
-7.529885
  0
CIRCLE
  8
ボルト／ビス
  6
CONTINUOUS
 10
-40.755937
 20
-7.81856
 40
0.25
  0
LINE
  8
ボルト／ビス
  6
CONTINUOUS
 10
-40.505937
 20
-7.962897
 11
-40.505937
 21
-7.674222
  0
LINE
  8
ボルト／ビス
  6
CONTINUOUS
 10
-41.005937
 20
-7.674222
 11
-41.005937
 21
-7.962897
  0
ENDBLK
  0
BLOCK
  2
*GRP_0017
 70
    65
 10
0.0
 20
0.0
  0
INSERT
  2
*GRP_0042
  8
補助線
  6
CONTINUOUS
 10
0.0
 20
0.0
  0
LINE
  8
ボルト／ビス
  6
CONTINUOUS
 10
-25.755937
 20
-8.107235
 11
-26.005937
 21
-7.962897
  0
LINE
  8
ボルト／ビス
  6
CONTINUOUS
 10
-25.755937
 20
-8.107235
 11
-25.505937
 21
-7.962897
  0
LINE
  8
ボルト／ビス
  6
CONTINUOUS
 10
-26.005937
 20
-7.674222
 11
-25.755937
 21
-7.529885
  0
LINE
  8
ボルト／ビス
  6
CONTINUOUS
 10
-25.505937
 20
-7.674222
 11
-25.755937
 21
-7.529885
  0
CIRCLE
  8
ボルト／ビス
  6
CONTINUOUS
 10
-25.755937
 20
-7.81856
 40
0.25
  0
LINE
  8
ボルト／ビス
  6
CONTINUOUS
 10
-25.505937
 20
-7.962897
 11
-25.505937
 21
-7.674222
  0
LINE
  8
ボルト／ビス
  6
CONTINUOUS
 10
-26.005937
 20
-7.674222
 11
-26.005937
 21
-7.962897
  0
ENDBLK
  0
BLOCK
  2
*GRP_0018
 70
    65
 10
0.0
 20
0.0
  0
INSERT
  2
*GRP_0043
  8
補助線
  6
CONTINUOUS
 10
0.0
 20
0.0
  0
LINE
  8
ボルト／ビス
  6
CONTINUOUS
 10
-14.467263
 20
18.18144
 11
-14.6116
 21
18.43144
  0
LINE
  8
ボルト／ビス
  6
CONTINUOUS
 10
-14.467263
 20
18.18144
 11
-14.6116
 21
17.93144
  0
LINE
  8
ボルト／ビス
  6
CONTINUOUS
 10
-14.900275
 20
18.43144
 11
-15.044613
 21
18.18144
  0
LINE
  8
ボルト／ビス
  6
CONTINUOUS
 10
-14.900275
 20
17.93144
 11
-15.044613
 21
18.18144
  0
CIRCLE
  8
ボルト／ビス
  6
CONTINUOUS
 10
-14.755937
 20
18.18144
 40
0.25
  0
LINE
  8
ボルト／ビス
  6
CONTINUOUS
 10
-14.6116
 20
17.93144
 11
-14.900275
 21
17.93144
  0
LINE
  8
ボルト／ビス
  6
CONTINUOUS
 10
-14.900275
 20
18.43144
 11
-14.6116
 21
18.43144
  0
ENDBLK
  0
BLOCK
  2
*GRP_0019
 70
    65
 10
0.0
 20
0.0
  0
INSERT
  2
*GRP_0044
  8
補助線
  6
CONTINUOUS
 10
0.0
 20
0.0
  0
LINE
  8
ボルト／ビス
  6
CONTINUOUS
 10
-14.467263
 20
3.18144
 11
-14.6116
 21
3.43144
  0
LINE
  8
ボルト／ビス
  6
CONTINUOUS
 10
-14.467263
 20
3.18144
 11
-14.6116
 21
2.93144
  0
LINE
  8
ボルト／ビス
  6
CONTINUOUS
 10
-14.900275
 20
3.43144
 11
-15.044613
 21
3.18144
  0
LINE
  8
ボルト／ビス
  6
CONTINUOUS
 10
-14.900275
 20
2.93144
 11
-15.044613
 21
3.18144
  0
CIRCLE
  8
ボルト／ビス
  6
CONTINUOUS
 10
-14.755937
 20
3.18144
 40
0.25
  0
LINE
  8
ボルト／ビス
  6
CONTINUOUS
 10
-14.6116
 20
2.93144
 11
-14.900275
 21
2.93144
  0
LINE
  8
ボルト／ビス
  6
CONTINUOUS
 10
-14.900275
 20
3.43144
 11
-14.6116
 21
3.43144
  0
ENDBLK
  0
BLOCK
  2
*GRP_0020
 70
    65
 10
0.0
 20
0.0
  0
INSERT
  2
*GRP_0045
  8
補助線
  6
CONTINUOUS
 10
0.0
 20
0.0
  0
LINE
  8
ボルト／ビス
  6
CONTINUOUS
 10
-40.755937
 20
74.470115
 11
-41.005937
 21
74.325778
  0
LINE
  8
ボルト／ビス
  6
CONTINUOUS
 10
-40.755937
 20
74.470115
 11
-40.505937
 21
74.325778
  0
LINE
  8
ボルト／ビス
  6
CONTINUOUS
 10
-41.005937
 20
74.037103
 11
-40.755937
 21
73.892765
  0
LINE
  8
ボルト／ビス
  6
CONTINUOUS
 10
-40.505937
 20
74.037103
 11
-40.755937
 21
73.892765
  0
CIRCLE
  8
ボルト／ビス
  6
CONTINUOUS
 10
-40.755937
 20
74.18144
 40
0.25
  0
LINE
  8
ボルト／ビス
  6
CONTINUOUS
 10
-40.505937
 20
74.325778
 11
-40.505937
 21
74.037103
  0
LINE
  8
ボルト／ビス
  6
CONTINUOUS
 10
-41.005937
 20
74.037103
 11
-41.005937
 21
74.325778
  0
ENDBLK
  0
BLOCK
  2
*GRP_0021
 70
    65
 10
0.0
 20
0.0
  0
INSERT
  2
*GRP_0046
  8
補助線
  6
CONTINUOUS
 10
0.0
 20
0.0
  0
LINE
  8
ボルト／ビス
  6
CONTINUOUS
 10
-25.755937
 20
74.470115
 11
-26.005937
 21
74.325778
  0
LINE
  8
ボルト／ビス
  6
CONTINUOUS
 10
-25.755937
 20
74.470115
 11
-25.505937
 21
74.325778
  0
LINE
  8
ボルト／ビス
  6
CONTINUOUS
 10
-26.005937
 20
74.037103
 11
-25.755937
 21
73.892765
  0
LINE
  8
ボルト／ビス
  6
CONTINUOUS
 10
-25.505937
 20
74.037103
 11
-25.755937
 21
73.892765
  0
CIRCLE
  8
ボルト／ビス
  6
CONTINUOUS
 10
-25.755937
 20
74.18144
 40
0.25
  0
LINE
  8
ボルト／ビス
  6
CONTINUOUS
 10
-25.505937
 20
74.325778
 11
-25.505937
 21
74.037103
  0
LINE
  8
ボルト／ビス
  6
CONTINUOUS
 10
-26.005937
 20
74.037103
 11
-26.005937
 21
74.325778
  0
ENDBLK
  0
BLOCK
  2
*GRP_0022
 70
    65
 10
0.0
 20
0.0
  0
INSERT
  2
*GRP_0047
  8
補助線
  6
CONTINUOUS
 10
0.0
 20
0.0
  0
LINE
  8
ボルト／ビス
  6
CONTINUOUS
 10
-14.467263
 20
48.18144
 11
-14.6116
 21
47.93144
  0
LINE
  8
ボルト／ビス
  6
CONTINUOUS
 10
-14.467263
 20
48.18144
 11
-14.6116
 21
48.43144
  0
LINE
  8
ボルト／ビス
  6
CONTINUOUS
 10
-14.900275
 20
47.93144
 11
-15.044613
 21
48.18144
  0
LINE
  8
ボルト／ビス
  6
CONTINUOUS
 10
-14.900275
 20
48.43144
 11
-15.044613
 21
48.18144
  0
CIRCLE
  8
ボルト／ビス
  6
CONTINUOUS
 10
-14.755937
 20
48.18144
 40
0.25
  0
LINE
  8
ボルト／ビス
  6
CONTINUOUS
 10
-14.6116
 20
48.43144
 11
-14.900275
 21
48.43144
  0
LINE
  8
ボルト／ビス
  6
CONTINUOUS
 10
-14.900275
 20
47.93144
 11
-14.6116
 21
47.93144
  0
ENDBLK
  0
BLOCK
  2
*GRP_0023
 70
    65
 10
0.0
 20
0.0
  0
INSERT
  2
*GRP_0048
  8
補助線
  6
CONTINUOUS
 10
0.0
 20
0.0
  0
LINE
  8
ボルト／ビス
  6
CONTINUOUS
 10
-14.467263
 20
63.18144
 11
-14.6116
 21
62.93144
  0
LINE
  8
ボルト／ビス
  6
CONTINUOUS
 10
-14.467263
 20
63.18144
 11
-14.6116
 21
63.43144
  0
LINE
  8
ボルト／ビス
  6
CONTINUOUS
 10
-14.900275
 20
62.93144
 11
-15.044613
 21
63.18144
  0
LINE
  8
ボルト／ビス
  6
CONTINUOUS
 10
-14.900275
 20
63.43144
 11
-15.044613
 21
63.18144
  0
CIRCLE
  8
ボルト／ビス
  6
CONTINUOUS
 10
-14.755937
 20
63.18144
 40
0.25
  0
LINE
  8
ボルト／ビス
  6
CONTINUOUS
 10
-14.6116
 20
63.43144
 11
-14.900275
 21
63.43144
  0
LINE
  8
ボルト／ビス
  6
CONTINUOUS
 10
-14.900275
 20
62.93144
 11
-14.6116
 21
62.93144
  0
ENDBLK
  0
BLOCK
  2
*GRP_0024
 70
    65
 10
0.0
 20
0.0
  0
INSERT
  2
*GRP_0049
  8
補助線
  6
CONTINUOUS
 10
0.0
 20
0.0
  0
LINE
  8
ボルト／ビス
  6
CONTINUOUS
 10
-14.467263
 20
33.18144
 11
-14.6116
 21
33.43144
  0
LINE
  8
ボルト／ビス
  6
CONTINUOUS
 10
-14.467263
 20
33.18144
 11
-14.6116
 21
32.93144
  0
LINE
  8
ボルト／ビス
  6
CONTINUOUS
 10
-14.900275
 20
33.43144
 11
-15.044613
 21
33.18144
  0
LINE
  8
ボルト／ビス
  6
CONTINUOUS
 10
-14.900275
 20
32.93144
 11
-15.044613
 21
33.18144
  0
CIRCLE
  8
ボルト／ビス
  6
CONTINUOUS
 10
-14.755937
 20
33.18144
 40
0.25
  0
LINE
  8
ボルト／ビス
  6
CONTINUOUS
 10
-14.6116
 20
32.93144
 11
-14.900275
 21
32.93144
  0
LINE
  8
ボルト／ビス
  6
CONTINUOUS
 10
-14.900275
 20
33.43144
 11
-14.6116
 21
33.43144
  0
ENDBLK
  0
BLOCK
  2
*GRP_0025
 70
    65
 10
0.0
 20
0.0
  0
INSERT
  2
*GRP_0050
  8
補助線
  6
CONTINUOUS
 10
0.0
 20
0.0
  0
LINE
  8
ボルト／ビス
  6
CONTINUOUS
 10
-55.755937
 20
74.470115
 11
-55.505937
 21
74.325778
  0
LINE
  8
ボルト／ビス
  6
CONTINUOUS
 10
-55.755937
 20
74.470115
 11
-56.005937
 21
74.325778
  0
LINE
  8
ボルト／ビス
  6
CONTINUOUS
 10
-55.505937
 20
74.037103
 11
-55.755937
 21
73.892765
  0
LINE
  8
ボルト／ビス
  6
CONTINUOUS
 10
-56.005937
 20
74.037103
 11
-55.755937
 21
73.892765
  0
CIRCLE
  8
ボルト／ビス
  6
CONTINUOUS
 10
-55.755937
 20
74.18144
 40
0.25
  0
LINE
  8
ボルト／ビス
  6
CONTINUOUS
 10
-56.005937
 20
74.325778
 11
-56.005937
 21
74.037103
  0
LINE
  8
ボルト／ビス
  6
CONTINUOUS
 10
-55.505937
 20
74.037103
 11
-55.505937
 21
74.325778
  0
ENDBLK
  0
BLOCK
  2
*DIM_0026
 70
    65
 10
0.0
 20
0.0
  0
LINE
  8
寸法
  6
BYBLOCK
 62
     0
 10
-95.755937
 20
-34.605008
 11
-15.755937
 21
-34.605008
  0
POINT
  8
寸法
 62
     0
 10
-95.755937
 20
-34.605008
  0
POINT
  8
寸法
 62
     0
 10
-15.755937
 20
-34.605008
  0
TEXT
  7
TextStyle03
  8
寸法
  6
CONTINUOUS
 62
     0
 10
-67.49375
 20
-34.25
  1
呼称寸法　1600
 40
3.0
 72
     5
 11
-44.05625
 21
-34.25
  0
ENDBLK
  0
BLOCK
  2
*DIM_0027
 70
    65
 10
0.0
 20
0.0
  0
LINE
  8
寸法
  6
BYBLOCK
 62
     0
 10
-54.755937
 20
-48.258815
 11
6.907452
 21
-48.258815
  0
LINE
  8
寸法
  6
BYBLOCK
 62
     0
 10
6.907452
 20
-70.758815
 11
6.907452
 21
-48.258815
  0
POINT
  8
寸法
 62
     0
 10
6.907452
 20
-70.758815
  0
POINT
  8
寸法
 62
     0
 10
6.907452
 20
-48.258815
  0
TEXT
  7
TextStyle03
  8
寸法
  6
CONTINUOUS
 62
     0
 10
6.525
 20
-61.9625
  1
450
 40
3.0
 50
90.0
 72
     5
 11
6.525
 21
-57.0875
  0
ENDBLK
  0
BLOCK
  2
*DIM_0028
 70
    65
 10
0.0
 20
0.0
  0
LINE
  8
寸法
  6
BYBLOCK
 62
     0
 10
-15.32874
 20
73.181443
 11
5.220687
 21
73.181443
  0
LINE
  8
寸法
  6
BYBLOCK
 62
     0
 10
-7.304865
 20
67.631443
 11
5.220687
 21
67.631443
  0
LINE
  8
寸法
  6
BYBLOCK
 62
     0
 10
5.220687
 20
73.181443
 11
5.220687
 21
67.631443
  0
POINT
  8
寸法
 62
     0
 10
5.220687
 20
73.181443
  0
POINT
  8
寸法
 62
     0
 10
5.220687
 20
67.631443
  0
TEXT
  7
TextStyle03
  8
寸法
  6
CONTINUOUS
 62
     0
 10
4.825
 20
67.9625
  1
111
 40
3.0
 50
90.0
 72
     5
 11
4.825
 21
72.8375
  0
ENDBLK
  0
BLOCK
  2
*GRP_0029
 70
    65
 10
0.0
 20
0.0
  0
POLYLINE
  8
寸法
  6
BYBLOCK
 62
     0
 66
     1
  0
VERTEX
  8
寸法
 10
-18.995277
 20
19.46541
  0
VERTEX
  8
寸法
 10
-12.578775
 20
13.048907
  0
VERTEX
  8
寸法
 10
-6.671648
 20
13.048907
  0
SEQEND
  0
ENDBLK
  0
BLOCK
  2
*DIM_0030
 70
    65
 10
0.0
 20
0.0
  0
LINE
  8
寸法
  6
BYBLOCK
 62
     0
 10
-15.32874
 20
-6.818563
 11
5.220687
 21
-6.818563
  0
LINE
  8
寸法
  6
BYBLOCK
 62
     0
 10
-7.304865
 20
-1.268563
 11
5.220687
 21
-1.268563
  0
LINE
  8
寸法
  6
BYBLOCK
 62
     0
 10
5.220687
 20
-6.818563
 11
5.220687
 21
-1.268563
  0
POINT
  8
寸法
 62
     0
 10
5.220687
 20
-6.818563
  0
POINT
  8
寸法
 62
     0
 10
5.220687
 20
-1.268563
  0
TEXT
  7
TextStyle03
  8
寸法
  6
CONTINUOUS
 62
     0
 10
4.825
 20
-6.4875
  1
111
 40
3.0
 50
90.0
 72
     5
 11
4.825
 21
-1.6125
  0
ENDBLK
  0
BLOCK
  2
*GRP_0031
 70
    65
 10
0.0
 20
0.0
  0
LINE
  8
補助線
  6
BYBLOCK
 62
     0
 10
-55.880937
 20
-7.81856
 11
-55.630937
 21
-7.81856
  0
LINE
  8
補助線
  6
BYBLOCK
 62
     0
 10
-55.755937
 20
-7.94356
 11
-55.755937
 21
-7.69356
  0
ENDBLK
  0
BLOCK
  2
*GRP_0032
 70
    65
 10
0.0
 20
0.0
  0
LINE
  8
補助線
  6
BYBLOCK
 62
     0
 10
-70.880937
 20
-7.81856
 11
-70.630937
 21
-7.81856
  0
LINE
  8
補助線
  6
BYBLOCK
 62
     0
 10
-70.755937
 20
-7.94356
 11
-70.755937
 21
-7.69356
  0
ENDBLK
  0
BLOCK
  2
*GRP_0033
 70
    65
 10
0.0
 20
0.0
  0
LINE
  8
補助線
  6
BYBLOCK
 62
     0
 10
-85.880937
 20
-7.81856
 11
-85.630937
 21
-7.81856
  0
LINE
  8
補助線
  6
BYBLOCK
 62
     0
 10
-85.755937
 20
-7.94356
 11
-85.755937
 21
-7.69356
  0
ENDBLK
  0
BLOCK
  2
*GRP_0034
 70
    65
 10
0.0
 20
0.0
  0
LINE
  8
補助線
  6
BYBLOCK
 62
     0
 10
-96.755937
 20
33.05644
 11
-96.755937
 21
33.30644
  0
LINE
  8
補助線
  6
BYBLOCK
 62
     0
 10
-96.880937
 20
33.18144
 11
-96.630937
 21
33.18144
  0
ENDBLK
  0
BLOCK
  2
*GRP_0035
 70
    65
 10
0.0
 20
0.0
  0
LINE
  8
補助線
  6
BYBLOCK
 62
     0
 10
-96.755937
 20
18.05644
 11
-96.755937
 21
18.30644
  0
LINE
  8
補助線
  6
BYBLOCK
 62
     0
 10
-96.880937
 20
18.18144
 11
-96.630937
 21
18.18144
  0
ENDBLK
  0
BLOCK
  2
*GRP_0036
 70
    65
 10
0.0
 20
0.0
  0
LINE
  8
補助線
  6
BYBLOCK
 62
     0
 10
-96.755937
 20
3.05644
 11
-96.755937
 21
3.30644
  0
LINE
  8
補助線
  6
BYBLOCK
 62
     0
 10
-96.880937
 20
3.18144
 11
-96.630937
 21
3.18144
  0
ENDBLK
  0
BLOCK
  2
*GRP_0037
 70
    65
 10
0.0
 20
0.0
  0
LINE
  8
補助線
  6
BYBLOCK
 62
     0
 10
-70.880937
 20
74.18144
 11
-70.630937
 21
74.18144
  0
LINE
  8
補助線
  6
BYBLOCK
 62
     0
 10
-70.755937
 20
74.30644
 11
-70.755937
 21
74.05644
  0
ENDBLK
  0
BLOCK
  2
*GRP_0038
 70
    65
 10
0.0
 20
0.0
  0
LINE
  8
補助線
  6
BYBLOCK
 62
     0
 10
-85.880937
 20
74.18144
 11
-85.630937
 21
74.18144
  0
LINE
  8
補助線
  6
BYBLOCK
 62
     0
 10
-85.755937
 20
74.30644
 11
-85.755937
 21
74.05644
  0
ENDBLK
  0
BLOCK
  2
*GRP_0039
 70
    65
 10
0.0
 20
0.0
  0
LINE
  8
補助線
  6
BYBLOCK
 62
     0
 10
-96.755937
 20
48.30644
 11
-96.755937
 21
48.05644
  0
LINE
  8
補助線
  6
BYBLOCK
 62
     0
 10
-96.880937
 20
48.18144
 11
-96.630937
 21
48.18144
  0
ENDBLK
  0
BLOCK
  2
*GRP_0040
 70
    65
 10
0.0
 20
0.0
  0
LINE
  8
補助線
  6
BYBLOCK
 62
     0
 10
-96.755937
 20
63.30644
 11
-96.755937
 21
63.05644
  0
LINE
  8
補助線
  6
BYBLOCK
 62
     0
 10
-96.880937
 20
63.18144
 11
-96.630937
 21
63.18144
  0
ENDBLK
  0
BLOCK
  2
*GRP_0041
 70
    65
 10
0.0
 20
0.0
  0
LINE
  8
補助線
  6
BYBLOCK
 62
     0
 10
-40.630937
 20
-7.81856
 11
-40.880937
 21
-7.81856
  0
LINE
  8
補助線
  6
BYBLOCK
 62
     0
 10
-40.755937
 20
-7.94356
 11
-40.755937
 21
-7.69356
  0
ENDBLK
  0
BLOCK
  2
*GRP_0042
 70
    65
 10
0.0
 20
0.0
  0
LINE
  8
補助線
  6
BYBLOCK
 62
     0
 10
-25.630937
 20
-7.81856
 11
-25.880937
 21
-7.81856
  0
LINE
  8
補助線
  6
BYBLOCK
 62
     0
 10
-25.755937
 20
-7.94356
 11
-25.755937
 21
-7.69356
  0
ENDBLK
  0
BLOCK
  2
*GRP_0043
 70
    65
 10
0.0
 20
0.0
  0
LINE
  8
補助線
  6
BYBLOCK
 62
     0
 10
-14.755937
 20
18.05644
 11
-14.755937
 21
18.30644
  0
LINE
  8
補助線
  6
BYBLOCK
 62
     0
 10
-14.630937
 20
18.18144
 11
-14.880937
 21
18.18144
  0
ENDBLK
  0
BLOCK
  2
*GRP_0044
 70
    65
 10
0.0
 20
0.0
  0
LINE
  8
補助線
  6
BYBLOCK
 62
     0
 10
-14.755937
 20
3.05644
 11
-14.755937
 21
3.30644
  0
LINE
  8
補助線
  6
BYBLOCK
 62
     0
 10
-14.630937
 20
3.18144
 11
-14.880937
 21
3.18144
  0
ENDBLK
  0
BLOCK
  2
*GRP_0045
 70
    65
 10
0.0
 20
0.0
  0
LINE
  8
補助線
  6
BYBLOCK
 62
     0
 10
-40.630937
 20
74.18144
 11
-40.880937
 21
74.18144
  0
LINE
  8
補助線
  6
BYBLOCK
 62
     0
 10
-40.755937
 20
74.30644
 11
-40.755937
 21
74.05644
  0
ENDBLK
  0
BLOCK
  2
*GRP_0046
 70
    65
 10
0.0
 20
0.0
  0
LINE
  8
補助線
  6
BYBLOCK
 62
     0
 10
-25.630937
 20
74.18144
 11
-25.880937
 21
74.18144
  0
LINE
  8
補助線
  6
BYBLOCK
 62
     0
 10
-25.755937
 20
74.30644
 11
-25.755937
 21
74.05644
  0
ENDBLK
  0
BLOCK
  2
*GRP_0047
 70
    65
 10
0.0
 20
0.0
  0
LINE
  8
補助線
  6
BYBLOCK
 62
     0
 10
-14.755937
 20
48.30644
 11
-14.755937
 21
48.05644
  0
LINE
  8
補助線
  6
BYBLOCK
 62
     0
 10
-14.630937
 20
48.18144
 11
-14.880937
 21
48.18144
  0
ENDBLK
  0
BLOCK
  2
*GRP_0048
 70
    65
 10
0.0
 20
0.0
  0
LINE
  8
補助線
  6
BYBLOCK
 62
     0
 10
-14.755937
 20
63.30644
 11
-14.755937
 21
63.05644
  0
LINE
  8
補助線
  6
BYBLOCK
 62
     0
 10
-14.630937
 20
63.18144
 11
-14.880937
 21
63.18144
  0
ENDBLK
  0
BLOCK
  2
*GRP_0049
 70
    65
 10
0.0
 20
0.0
  0
LINE
  8
補助線
  6
BYBLOCK
 62
     0
 10
-14.755937
 20
33.05644
 11
-14.755937
 21
33.30644
  0
LINE
  8
補助線
  6
BYBLOCK
 62
     0
 10
-14.630937
 20
33.18144
 11
-14.880937
 21
33.18144
  0
ENDBLK
  0
BLOCK
  2
*GRP_0050
 70
    65
 10
0.0
 20
0.0
  0
LINE
  8
補助線
  6
BYBLOCK
 62
     0
 10
-55.880937
 20
74.18144
 11
-55.630937
 21
74.18144
  0
LINE
  8
補助線
  6
BYBLOCK
 62
     0
 10
-55.755937
 20
74.30644
 11
-55.755937
 21
74.05644
  0
ENDBLK
  0
BLOCK
  2
*DIM_0051
 70
    65
 10
0.0
 20
0.0
  0
LINE
  8
寸法
  6
BYBLOCK
 62
     0
 10
38.66375
 20
73.68144
 11
38.66375
 21
84.35632
  0
LINE
  8
寸法
  6
BYBLOCK
 62
     0
 10
117.66375
 20
73.68144
 11
117.66375
 21
84.35632
  0
LINE
  8
寸法
  6
BYBLOCK
 62
     0
 10
38.66375
 20
84.35632
 11
117.66375
 21
84.35632
  0
POINT
  8
寸法
 62
     0
 10
38.66375
 20
84.35632
  0
POINT
  8
寸法
 62
     0
 10
117.66375
 20
84.35632
  0
TEXT
  7
TextStyle03
  8
寸法
  6
CONTINUOUS
 62
     0
 10
74.86875
 20
84.725
  1
1580
 40
3.0
 72
     5
 11
81.43125
 21
84.725
  0
ENDBLK
  0
BLOCK
  2
*DIM_0052
 70
    65
 10
0.0
 20
0.0
  0
LINE
  8
寸法
  6
BYBLOCK
 62
     0
 10
118.66375
 20
72.68144
 11
130.651087
 21
72.68144
  0
LINE
  8
寸法
  6
BYBLOCK
 62
     0
 10
118.66375
 20
33.98144
 11
130.651087
 21
33.98144
  0
LINE
  8
寸法
  6
BYBLOCK
 62
     0
 10
130.651087
 20
72.68144
 11
130.651087
 21
33.98144
  0
POINT
  8
寸法
 62
     0
 10
130.651087
 20
72.68144
  0
POINT
  8
寸法
 62
     0
 10
130.651087
 20
33.98144
  0
TEXT
  7
TextStyle03
  8
寸法
  6
CONTINUOUS
 62
     0
 10
130.275
 20
50.8875
  1
774
 40
3.0
 50
90.0
 72
     5
 11
130.275
 21
55.7625
  0
ENDBLK
  0
BLOCK
  2
*DIM_0053
 70
    65
 10
0.0
 20
0.0
  0
LINE
  8
寸法
  6
BYBLOCK
 62
     0
 10
-120.350937
 20
50.68144
 11
-131.174237
 21
50.68144
  0
LINE
  8
寸法
  6
BYBLOCK
 62
     0
 10
-120.350937
 20
15.68144
 11
-131.174237
 21
15.68144
  0
LINE
  8
寸法
  6
BYBLOCK
 62
     0
 10
-131.174237
 20
50.68144
 11
-131.174237
 21
15.68144
  0
POINT
  8
寸法
 62
     0
 10
-131.174237
 20
50.68144
  0
POINT
  8
寸法
 62
     0
 10
-131.174237
 20
15.68144
  0
TEXT
  7
TextStyle03
  8
寸法
  6
CONTINUOUS
 62
     0
 10
-131.5
 20
30.7375
  1
700
 40
3.0
 50
90.0
 72
     5
 11
-131.5
 21
35.6125
  0
ENDBLK
  0
BLOCK
  2
*GRP_0054
 70
    65
 10
0.0
 20
0.0
  0
POLYLINE
  8
寸法
  6
BYBLOCK
 62
     0
 66
     1
  0
VERTEX
  8
寸法
 10
-92.516597
 20
53.66247
  0
VERTEX
  8
寸法
 10
-98.9331
 20
60.078973
  0
VERTEX
  8
寸法
 10
-104.840228
 20
60.078973
  0
SEQEND
  0
ENDBLK
  0
BLOCK
  2
*DIM_0055
 70
    65
 10
0.0
 20
0.0
  0
LINE
  8
寸法
  6
BYBLOCK
 62
     0
 10
-85.755937
 20
102.283265
 11
-85.755937
 21
110.058775
  0
LINE
  8
寸法
  6
BYBLOCK
 62
     0
 10
-55.755937
 20
102.283265
 11
-55.755937
 21
110.058775
  0
LINE
  8
寸法
  6
BYBLOCK
 62
     0
 10
-85.755937
 20
110.058775
 11
-55.755937
 21
110.058775
  0
POINT
  8
寸法
 62
     0
 10
-85.755937
 20
110.058775
  0
POINT
  8
寸法
 62
     0
 10
-55.755937
 20
110.058775
  0
TEXT
  7
TextStyle03
  8
寸法
  6
CONTINUOUS
 62
     0
 10
-73.2125
 20
110.425
  1
600
 40
3.0
 72
     5
 11
-68.3375
 21
110.425
  0
ENDBLK
  0
BLOCK
  2
*DIM_0056
 70
    65
 10
0.0
 20
0.0
  0
LINE
  8
寸法
  6
BYBLOCK
 62
     0
 10
-25.755937
 20
102.283265
 11
-25.755937
 21
110.058775
  0
LINE
  8
寸法
  6
BYBLOCK
 62
     0
 10
-55.755937
 20
110.058775
 11
-25.755937
 21
110.058775
  0
POINT
  8
寸法
 62
     0
 10
-25.755937
 20
110.058775
  0
TEXT
  7
TextStyle03
  8
寸法
  6
CONTINUOUS
 62
     0
 10
-43.2125
 20
110.425
  1
600
 40
3.0
 72
     5
 11
-38.3375
 21
110.425
  0
ENDBLK
  0
BLOCK
  2
*DIM_0057
 70
    65
 10
0.0
 20
0.0
  0
LINE
  8
寸法
  6
BYBLOCK
 62
     0
 10
-12.780937
 20
-69.823992
 11
-12.780937
 21
-34.605008
  0
LINE
  8
寸法
  6
BYBLOCK
 62
     0
 10
-15.755937
 20
-34.605008
 11
-12.780937
 21
-34.605008
  0
POINT
  8
寸法
 62
     0
 10
-15.755937
 20
-34.605008
  0
POINT
  8
寸法
 62
     0
 10
-12.780937
 20
-34.605008
  0
TEXT
  7
TextStyle03
  8
寸法
  6
CONTINUOUS
 62
     0
 10
-10.80625
 20
-34.25
  1
59.5
 40
3.0
 72
     5
 11
-4.24375
 21
-34.25
  0
ENDBLK
  0
BLOCK
  2
*DIM_0058
 70
    65
 10
0.0
 20
0.0
  0
LINE
  8
寸法
  6
BYBLOCK
 62
     0
 10
-98.730937
 20
-69.823992
 11
-98.730937
 21
-34.605008
  0
LINE
  8
寸法
  6
BYBLOCK
 62
     0
 10
-95.755937
 20
-34.605008
 11
-98.730937
 21
-34.605008
  0
POINT
  8
寸法
 62
     0
 10
-95.755937
 20
-34.605008
  0
POINT
  8
寸法
 62
     0
 10
-98.730937
 20
-34.605008
  0
TEXT
  7
TextStyle03
  8
寸法
  6
CONTINUOUS
 62
     0
 10
-107.28125
 20
-34.25
  1
59.5
 40
3.0
 72
     5
 11
-100.71875
 21
-34.25
  0
ENDBLK
  0
BLOCK
  2
*DIM_0059
 70
    65
 10
0.0
 20
0.0
  0
LINE
  8
寸法
  6
BYBLOCK
 62
     0
 10
-10.255937
 20
-70.758815
 11
6.907452
 21
-70.758815
  0
LINE
  8
寸法
  6
BYBLOCK
 62
     0
 10
-9.780937
 20
-81.309068
 11
6.907452
 21
-81.309068
  0
LINE
  8
寸法
  6
BYBLOCK
 62
     0
 10
6.907452
 20
-70.758815
 11
6.907452
 21
-81.309068
  0
POINT
  8
寸法
 62
     0
 10
6.907452
 20
-70.758815
  0
POINT
  8
寸法
 62
     0
 10
6.907452
 20
-81.309068
  0
TEXT
  7
TextStyle03
  8
寸法
  6
CONTINUOUS
 62
     0
 10
6.525
 20
-78.4875
  1
211
 40
3.0
 50
90.0
 72
     5
 11
6.525
 21
-73.6125
  0
ENDBLK
  0
BLOCK
  2
*GRP_0061
 70
    65
 10
0.0
 20
0.0
  0
LINE
  8
ボルト／ビス
  6
CONTINUOUS
 10
-96.755937
 20
-70.758817
 11
-96.755937
 21
-70.058817
  0
LINE
  8
ボルト／ビス
  6
CONTINUOUS
 10
-97.305937
 20
-70.758817
 11
-97.305937
 21
-70.658817
  0
LINE
  8
ボルト／ビス
  6
CONTINUOUS
 10
-97.305937
 20
-70.658817
 11
-96.205937
 21
-70.658817
  0
LINE
  8
ボルト／ビス
  6
CONTINUOUS
 10
-96.205937
 20
-70.658817
 11
-96.205937
 21
-70.758817
  0
LINE
  8
ボルト／ビス
  6
CONTINUOUS
 10
-97.305937
 20
-70.758817
 11
-96.205937
 21
-70.758817
  0
LINE
  8
ボルト／ビス
  6
CONTINUOUS
 10
-97.205937
 20
-70.608817
 11
-97.205937
 21
-70.658817
  0
LINE
  8
ボルト／ビス
  6
CONTINUOUS
 10
-97.205937
 20
-70.608817
 11
-96.305937
 21
-70.608817
  0
LINE
  8
ボルト／ビス
  6
CONTINUOUS
 10
-96.305937
 20
-70.608817
 11
-96.305937
 21
-70.658817
  0
LINE
  8
ボルト／ビス
  6
CONTINUOUS
 62
    64
 10
-96.9965
 20
-70.308817
 11
-97.044613
 21
-70.32633
  0
ARC
  8
ボルト／ビス
  6
CONTINUOUS
 62
    64
 10
-96.972443
 20
-70.466286
 40
0.157468
 50
62.721967
 51
90.0
  0
ARC
  8
ボルト／ビス
  6
CONTINUOUS
 62
    64
 10
-96.755937
 20
-70.912422
 40
0.603603
 50
76.165002
 51
103.834985
  0
LINE
  8
ボルト／ビス
  6
CONTINUOUS
 62
    64
 10
-96.515375
 20
-70.308817
 11
-96.467263
 21
-70.32633
  0
ARC
  8
ボルト／ビス
  6
CONTINUOUS
 62
    64
 10
-96.53943
 20
-70.466286
 40
0.157468
 50
90.0
 51
117.278033
  0
LINE
  8
ボルト／ビス
  6
CONTINUOUS
 62
    64
 10
-96.9965
 20
-70.308817
 11
-96.515375
 21
-70.308817
  0
LINE
  8
ボルト／ビス
  6
CONTINUOUS
 62
    64
 10
-96.467263
 20
-70.32633
 11
-96.467263
 21
-70.508817
  0
LINE
  8
ボルト／ビス
  6
CONTINUOUS
 62
    64
 10
-96.6116
 20
-70.32633
 11
-96.6116
 21
-70.508817
  0
LINE
  8
ボルト／ビス
  6
CONTINUOUS
 62
    64
 10
-97.044613
 20
-70.32633
 11
-97.044613
 21
-70.508817
  0
LINE
  8
ボルト／ビス
  6
CONTINUOUS
 62
    64
 10
-96.900275
 20
-70.32633
 11
-96.900275
 21
-70.508817
  0
LINE
  8
ボルト／ビス
  6
CONTINUOUS
 10
-97.044613
 20
-70.508817
 11
-96.467263
 21
-70.508817
  0
LINE
  8
ボルト／ビス
  6
CONTINUOUS
 10
-97.055937
 20
-70.508817
 11
-97.055937
 21
-70.608817
  0
LINE
  8
ボルト／ビス
  6
CONTINUOUS
 10
-97.055937
 20
-70.508817
 11
-96.455937
 21
-70.508817
  0
LINE
  8
ボルト／ビス
  6
CONTINUOUS
 10
-96.455937
 20
-70.508817
 11
-96.455937
 21
-70.608817
  0
ENDBLK
  0
BLOCK
  2
*GRP_0062
 70
    65
 10
0.0
 20
0.0
  0
LINE
  8
ボルト／ビス
  6
CONTINUOUS
 10
-14.755937
 20
-70.758817
 11
-14.755937
 21
-70.058817
  0
LINE
  8
ボルト／ビス
  6
CONTINUOUS
 10
-15.305937
 20
-70.758817
 11
-15.305937
 21
-70.658817
  0
LINE
  8
ボルト／ビス
  6
CONTINUOUS
 10
-15.305937
 20
-70.658817
 11
-14.205937
 21
-70.658817
  0
LINE
  8
ボルト／ビス
  6
CONTINUOUS
 10
-14.205937
 20
-70.658817
 11
-14.205937
 21
-70.758817
  0
LINE
  8
ボルト／ビス
  6
CONTINUOUS
 10
-15.305937
 20
-70.758817
 11
-14.205937
 21
-70.758817
  0
LINE
  8
ボルト／ビス
  6
CONTINUOUS
 10
-15.205937
 20
-70.608817
 11
-15.205937
 21
-70.658817
  0
LINE
  8
ボルト／ビス
  6
CONTINUOUS
 10
-15.205937
 20
-70.608817
 11
-14.305937
 21
-70.608817
  0
LINE
  8
ボルト／ビス
  6
CONTINUOUS
 10
-14.305937
 20
-70.608817
 11
-14.305937
 21
-70.658817
  0
LINE
  8
ボルト／ビス
  6
CONTINUOUS
 62
    64
 10
-14.9965
 20
-70.308817
 11
-15.044613
 21
-70.32633
  0
ARC
  8
ボルト／ビス
  6
CONTINUOUS
 62
    64
 10
-14.972444
 20
-70.466286
 40
0.157468
 50
62.721967
 51
90.0
  0
ARC
  8
ボルト／ビス
  6
CONTINUOUS
 62
    64
 10
-14.755937
 20
-70.912422
 40
0.603603
 50
76.165002
 51
103.834985
  0
LINE
  8
ボルト／ビス
  6
CONTINUOUS
 62
    64
 10
-14.515375
 20
-70.308817
 11
-14.467263
 21
-70.32633
  0
ARC
  8
ボルト／ビス
  6
CONTINUOUS
 62
    64
 10
-14.539431
 20
-70.466286
 40
0.157468
 50
90.0
 51
117.278033
  0
LINE
  8
ボルト／ビス
  6
CONTINUOUS
 62
    64
 10
-14.9965
 20
-70.308817
 11
-14.515375
 21
-70.308817
  0
LINE
  8
ボルト／ビス
  6
CONTINUOUS
 62
    64
 10
-14.467263
 20
-70.32633
 11
-14.467263
 21
-70.508817
  0
LINE
  8
ボルト／ビス
  6
CONTINUOUS
 62
    64
 10
-14.6116
 20
-70.32633
 11
-14.6116
 21
-70.508817
  0
LINE
  8
ボルト／ビス
  6
CONTINUOUS
 62
    64
 10
-15.044613
 20
-70.32633
 11
-15.044613
 21
-70.508817
  0
LINE
  8
ボルト／ビス
  6
CONTINUOUS
 62
    64
 10
-14.900275
 20
-70.32633
 11
-14.900275
 21
-70.508817
  0
LINE
  8
ボルト／ビス
  6
CONTINUOUS
 10
-15.044613
 20
-70.508817
 11
-14.467263
 21
-70.508817
  0
LINE
  8
ボルト／ビス
  6
CONTINUOUS
 10
-15.055937
 20
-70.508817
 11
-15.055937
 21
-70.608817
  0
LINE
  8
ボルト／ビス
  6
CONTINUOUS
 10
-15.055937
 20
-70.508817
 11
-14.455937
 21
-70.508817
  0
LINE
  8
ボルト／ビス
  6
CONTINUOUS
 10
-14.455937
 20
-70.508817
 11
-14.455937
 21
-70.608817
  0
ENDBLK
  0
BLOCK
  2
*GRP_0063
 70
    65
 10
0.0
 20
0.0
  0
LINE
  8
ボルト／ビス
  6
CONTINUOUS
 10
49.993595
 20
-70.758817
 11
49.993595
 21
-70.058817
  0
LINE
  8
ボルト／ビス
  6
CONTINUOUS
 10
49.443595
 20
-70.758817
 11
49.443595
 21
-70.658817
  0
LINE
  8
ボルト／ビス
  6
CONTINUOUS
 10
49.443595
 20
-70.658817
 11
50.543595
 21
-70.658817
  0
LINE
  8
ボルト／ビス
  6
CONTINUOUS
 10
50.543595
 20
-70.658817
 11
50.543595
 21
-70.758817
  0
LINE
  8
ボルト／ビス
  6
CONTINUOUS
 10
49.443595
 20
-70.758817
 11
50.543595
 21
-70.758817
  0
LINE
  8
ボルト／ビス
  6
CONTINUOUS
 10
49.543595
 20
-70.608817
 11
49.543595
 21
-70.658817
  0
LINE
  8
ボルト／ビス
  6
CONTINUOUS
 10
49.543595
 20
-70.608817
 11
50.443595
 21
-70.608817
  0
LINE
  8
ボルト／ビス
  6
CONTINUOUS
 10
50.443595
 20
-70.608817
 11
50.443595
 21
-70.658817
  0
LINE
  8
ボルト／ビス
  6
CONTINUOUS
 62
    64
 10
49.753032
 20
-70.308817
 11
49.70492
 21
-70.32633
  0
ARC
  8
ボルト／ビス
  6
CONTINUOUS
 62
    64
 10
49.777089
 20
-70.466287
 40
0.157468
 50
62.721967
 51
90.0
  0
ARC
  8
ボルト／ビス
  6
CONTINUOUS
 62
    64
 10
49.993595
 20
-70.912423
 40
0.603603
 50
76.165002
 51
103.834985
  0
LINE
  8
ボルト／ビス
  6
CONTINUOUS
 62
    64
 10
50.234158
 20
-70.308817
 11
50.28227
 21
-70.32633
  0
ARC
  8
ボルト／ビス
  6
CONTINUOUS
 62
    64
 10
50.210101
 20
-70.466287
 40
0.157468
 50
90.0
 51
117.278033
  0
LINE
  8
ボルト／ビス
  6
CONTINUOUS
 62
    64
 10
49.753032
 20
-70.308817
 11
50.234158
 21
-70.308817
  0
LINE
  8
ボルト／ビス
  6
CONTINUOUS
 62
    64
 10
50.28227
 20
-70.32633
 11
50.28227
 21
-70.508817
  0
LINE
  8
ボルト／ビス
  6
CONTINUOUS
 62
    64
 10
50.137932
 20
-70.32633
 11
50.137932
 21
-70.508817
  0
LINE
  8
ボルト／ビス
  6
CONTINUOUS
 62
    64
 10
49.70492
 20
-70.32633
 11
49.70492
 21
-70.508817
  0
LINE
  8
ボルト／ビス
  6
CONTINUOUS
 62
    64
 10
49.849258
 20
-70.32633
 11
49.849258
 21
-70.508817
  0
LINE
  8
ボルト／ビス
  6
CONTINUOUS
 10
49.70492
 20
-70.508817
 11
50.28227
 21
-70.508817
  0
LINE
  8
ボルト／ビス
  6
CONTINUOUS
 10
49.693595
 20
-70.508817
 11
49.693595
 21
-70.608817
  0
LINE
  8
ボルト／ビス
  6
CONTINUOUS
 10
49.693595
 20
-70.508817
 11
50.293595
 21
-70.508817
  0
LINE
  8
ボルト／ビス
  6
CONTINUOUS
 10
50.293595
 20
-70.508817
 11
50.293595
 21
-70.608817
  0
ENDBLK
  0
BLOCK
  2
*GRP_0064
 70
    65
 10
0.0
 20
0.0
  0
LINE
  8
ボルト／ビス
  6
CONTINUOUS
 10
131.993595
 20
-70.758817
 11
131.993595
 21
-70.058817
  0
LINE
  8
ボルト／ビス
  6
CONTINUOUS
 10
131.443595
 20
-70.758817
 11
131.443595
 21
-70.658817
  0
LINE
  8
ボルト／ビス
  6
CONTINUOUS
 10
131.443595
 20
-70.658817
 11
132.543595
 21
-70.658817
  0
LINE
  8
ボルト／ビス
  6
CONTINUOUS
 10
132.543595
 20
-70.658817
 11
132.543595
 21
-70.758817
  0
LINE
  8
ボルト／ビス
  6
CONTINUOUS
 10
131.443595
 20
-70.758817
 11
132.543595
 21
-70.758817
  0
LINE
  8
ボルト／ビス
  6
CONTINUOUS
 10
131.543595
 20
-70.608817
 11
131.543595
 21
-70.658817
  0
LINE
  8
ボルト／ビス
  6
CONTINUOUS
 10
131.543595
 20
-70.608817
 11
132.443595
 21
-70.608817
  0
LINE
  8
ボルト／ビス
  6
CONTINUOUS
 10
132.443595
 20
-70.608817
 11
132.443595
 21
-70.658817
  0
LINE
  8
ボルト／ビス
  6
CONTINUOUS
 62
    64
 10
131.753032
 20
-70.308817
 11
131.70492
 21
-70.32633
  0
ARC
  8
ボルト／ビス
  6
CONTINUOUS
 62
    64
 10
131.777088
 20
-70.466287
 40
0.157468
 50
62.721967
 51
90.0
  0
ARC
  8
ボルト／ビス
  6
CONTINUOUS
 62
    64
 10
131.993594
 20
-70.912422
 40
0.603603
 50
76.165002
 51
103.834985
  0
LINE
  8
ボルト／ビス
  6
CONTINUOUS
 62
    64
 10
132.234158
 20
-70.308817
 11
132.28227
 21
-70.32633
  0
ARC
  8
ボルト／ビス
  6
CONTINUOUS
 62
    64
 10
132.2101
 20
-70.466287
 40
0.157468
 50
90.0
 51
117.278033
  0
LINE
  8
ボルト／ビス
  6
CONTINUOUS
 62
    64
 10
131.753032
 20
-70.308817
 11
132.234158
 21
-70.308817
  0
LINE
  8
ボルト／ビス
  6
CONTINUOUS
 62
    64
 10
132.28227
 20
-70.32633
 11
132.28227
 21
-70.508817
  0
LINE
  8
ボルト／ビス
  6
CONTINUOUS
 62
    64
 10
132.137932
 20
-70.32633
 11
132.137932
 21
-70.508817
  0
LINE
  8
ボルト／ビス
  6
CONTINUOUS
 62
    64
 10
131.70492
 20
-70.32633
 11
131.70492
 21
-70.508817
  0
LINE
  8
ボルト／ビス
  6
CONTINUOUS
 62
    64
 10
131.849258
 20
-70.32633
 11
131.849258
 21
-70.508817
  0
LINE
  8
ボルト／ビス
  6
CONTINUOUS
 10
131.70492
 20
-70.508817
 11
132.28227
 21
-70.508817
  0
LINE
  8
ボルト／ビス
  6
CONTINUOUS
 10
131.693595
 20
-70.508817
 11
131.693595
 21
-70.608817
  0
LINE
  8
ボルト／ビス
  6
CONTINUOUS
 10
131.693595
 20
-70.508817
 11
132.293595
 21
-70.508817
  0
LINE
  8
ボルト／ビス
  6
CONTINUOUS
 10
132.293595
 20
-70.508817
 11
132.293595
 21
-70.608817
  0
ENDBLK
  0
BLOCK
  2
*GRP_0065
 70
    65
 10
0.0
 20
0.0
  0
LINE
  8
型材断面
  6
DOT
 62
    47
 10
48.018595
 20
-52.823992
 11
48.018595
 21
-56.083993
  0
LINE
  8
型材断面
  6
DOT
 62
    47
 10
49.343595
 20
-52.823992
 11
49.343595
 21
-52.258815
  0
LINE
  8
型材断面
  6
DOT
 62
    47
 10
48.018595
 20
-56.083993
 11
90.993595
 21
-56.083993
  0
LINE
  8
型材断面
  6
DOT
 62
    47
 10
48.018595
 20
-52.823992
 11
90.993595
 21
-52.823992
  0
LINE
  8
型材断面
  6
DOT
 62
    47
 10
133.968595
 20
-52.823992
 11
133.968595
 21
-56.083993
  0
LINE
  8
型材断面
  6
DOT
 62
    47
 10
132.643595
 20
-52.823992
 11
132.643595
 21
-52.258815
  0
LINE
  8
型材断面
  6
DOT
 62
    47
 10
133.968595
 20
-56.083993
 11
90.993595
 21
-56.083993
  0
LINE
  8
型材断面
  6
DOT
 62
    47
 10
133.968595
 20
-52.823992
 11
90.993595
 21
-52.823992
  0
LINE
  8
別途部材
  6
DOT
 62
    96
 10
48.493595
 20
-50.758815
 11
47.893595
 21
-52.258815
  0
LINE
  8
別途部材
  6
DOT
 62
    96
 10
48.493595
 20
-50.758815
 11
90.993595
 21
-50.758815
  0
LINE
  8
別途部材
  6
DOT
 10
47.893595
 20
-52.258815
 11
90.993595
 21
-52.258815
  0
LINE
  8
別途部材
  6
DOT
 62
    96
 10
133.493595
 20
-50.758815
 11
134.093595
 21
-52.258815
  0
LINE
  8
別途部材
  6
DOT
 62
    96
 10
133.493595
 20
-50.758815
 11
90.993595
 21
-50.758815
  0
LINE
  8
別途部材
  6
DOT
 10
134.093595
 20
-52.258815
 11
90.993595
 21
-52.258815
  0
ARC
  8
別途部材
  6
DOT
 10
90.993595
 20
-75.064372
 40
46.805555
 50
31.284493
 51
148.715507
  0
INSERT
  2
*GRP_0066
  8
別途部材
  6
DOT
 10
0.0
 20
0.0
  0
INSERT
  2
*GRP_0067
  8
別途部材
  6
DOT
 10
0.0
 20
0.0
  0
ENDBLK
  0
BLOCK
  2
*GRP_0066
 70
    65
 10
0.0
 20
0.0
  0
LINE
  8
ボルト／ビス
  6
DOT
 10
49.993595
 20
-50.758817
 11
49.993595
 21
-50.058817
  0
LINE
  8
ボルト／ビス
  6
DOT
 10
49.443595
 20
-50.758817
 11
49.443595
 21
-50.658817
  0
LINE
  8
ボルト／ビス
  6
DOT
 10
49.443595
 20
-50.658817
 11
50.543595
 21
-50.658817
  0
LINE
  8
ボルト／ビス
  6
DOT
 10
50.543595
 20
-50.658817
 11
50.543595
 21
-50.758817
  0
LINE
  8
ボルト／ビス
  6
DOT
 10
49.443595
 20
-50.758817
 11
50.543595
 21
-50.758817
  0
LINE
  8
ボルト／ビス
  6
DOT
 10
49.543595
 20
-50.608817
 11
49.543595
 21
-50.658817
  0
LINE
  8
ボルト／ビス
  6
DOT
 10
49.543595
 20
-50.608817
 11
50.443595
 21
-50.608817
  0
LINE
  8
ボルト／ビス
  6
DOT
 10
50.443595
 20
-50.608817
 11
50.443595
 21
-50.658817
  0
LINE
  8
ボルト／ビス
  6
DOT
 62
    64
 10
49.753032
 20
-50.308817
 11
49.70492
 21
-50.32633
  0
ARC
  8
ボルト／ビス
  6
DOT
 62
    64
 10
49.777089
 20
-50.466288
 40
0.157468
 50
62.721967
 51
90.0
  0
ARC
  8
ボルト／ビス
  6
DOT
 62
    64
 10
49.993595
 20
-50.912424
 40
0.603603
 50
76.165002
 51
103.834985
  0
LINE
  8
ボルト／ビス
  6
DOT
 62
    64
 10
50.234158
 20
-50.308817
 11
50.28227
 21
-50.32633
  0
ARC
  8
ボルト／ビス
  6
DOT
 62
    64
 10
50.210101
 20
-50.466288
 40
0.157468
 50
90.0
 51
117.278033
  0
LINE
  8
ボルト／ビス
  6
DOT
 62
    64
 10
49.753032
 20
-50.308817
 11
50.234158
 21
-50.308817
  0
LINE
  8
ボルト／ビス
  6
DOT
 62
    64
 10
50.28227
 20
-50.32633
 11
50.28227
 21
-50.508817
  0
LINE
  8
ボルト／ビス
  6
DOT
 62
    64
 10
50.137932
 20
-50.32633
 11
50.137932
 21
-50.508817
  0
LINE
  8
ボルト／ビス
  6
DOT
 62
    64
 10
49.70492
 20
-50.32633
 11
49.70492
 21
-50.508817
  0
LINE
  8
ボルト／ビス
  6
DOT
 62
    64
 10
49.849258
 20
-50.32633
 11
49.849258
 21
-50.508817
  0
LINE
  8
ボルト／ビス
  6
DOT
 10
49.70492
 20
-50.508817
 11
50.28227
 21
-50.508817
  0
LINE
  8
ボルト／ビス
  6
DOT
 10
49.693595
 20
-50.508817
 11
49.693595
 21
-50.608817
  0
LINE
  8
ボルト／ビス
  6
DOT
 10
49.693595
 20
-50.508817
 11
50.293595
 21
-50.508817
  0
LINE
  8
ボルト／ビス
  6
DOT
 10
50.293595
 20
-50.508817
 11
50.293595
 21
-50.608817
  0
ENDBLK
  0
BLOCK
  2
*GRP_0067
 70
    65
 10
0.0
 20
0.0
  0
LINE
  8
ボルト／ビス
  6
DOT
 10
131.993595
 20
-50.758817
 11
131.993595
 21
-50.058817
  0
LINE
  8
ボルト／ビス
  6
DOT
 10
131.443595
 20
-50.758817
 11
131.443595
 21
-50.658817
  0
LINE
  8
ボルト／ビス
  6
DOT
 10
131.443595
 20
-50.658817
 11
132.543595
 21
-50.658817
  0
LINE
  8
ボルト／ビス
  6
DOT
 10
132.543595
 20
-50.658817
 11
132.543595
 21
-50.758817
  0
LINE
  8
ボルト／ビス
  6
DOT
 10
131.443595
 20
-50.758817
 11
132.543595
 21
-50.758817
  0
LINE
  8
ボルト／ビス
  6
DOT
 10
131.543595
 20
-50.608817
 11
131.543595
 21
-50.658817
  0
LINE
  8
ボルト／ビス
  6
DOT
 10
131.543595
 20
-50.608817
 11
132.443595
 21
-50.608817
  0
LINE
  8
ボルト／ビス
  6
DOT
 10
132.443595
 20
-50.608817
 11
132.443595
 21
-50.658817
  0
LINE
  8
ボルト／ビス
  6
DOT
 62
    64
 10
131.753032
 20
-50.308817
 11
131.70492
 21
-50.32633
  0
ARC
  8
ボルト／ビス
  6
DOT
 62
    64
 10
131.777088
 20
-50.466288
 40
0.157468
 50
62.721967
 51
90.0
  0
ARC
  8
ボルト／ビス
  6
DOT
 62
    64
 10
131.993594
 20
-50.912423
 40
0.603603
 50
76.165002
 51
103.834985
  0
LINE
  8
ボルト／ビス
  6
DOT
 62
    64
 10
132.234158
 20
-50.308817
 11
132.28227
 21
-50.32633
  0
ARC
  8
ボルト／ビス
  6
DOT
 62
    64
 10
132.2101
 20
-50.466288
 40
0.157468
 50
90.0
 51
117.278033
  0
LINE
  8
ボルト／ビス
  6
DOT
 62
    64
 10
131.753032
 20
-50.308817
 11
132.234158
 21
-50.308817
  0
LINE
  8
ボルト／ビス
  6
DOT
 62
    64
 10
132.28227
 20
-50.32633
 11
132.28227
 21
-50.508817
  0
LINE
  8
ボルト／ビス
  6
DOT
 62
    64
 10
132.137932
 20
-50.32633
 11
132.137932
 21
-50.508817
  0
LINE
  8
ボルト／ビス
  6
DOT
 62
    64
 10
131.70492
 20
-50.32633
 11
131.70492
 21
-50.508817
  0
LINE
  8
ボルト／ビス
  6
DOT
 62
    64
 10
131.849258
 20
-50.32633
 11
131.849258
 21
-50.508817
  0
LINE
  8
ボルト／ビス
  6
DOT
 10
131.70492
 20
-50.508817
 11
132.28227
 21
-50.508817
  0
LINE
  8
ボルト／ビス
  6
DOT
 10
131.693595
 20
-50.508817
 11
131.693595
 21
-50.608817
  0
LINE
  8
ボルト／ビス
  6
DOT
 10
131.693595
 20
-50.508817
 11
132.293595
 21
-50.508817
  0
LINE
  8
ボルト／ビス
  6
DOT
 10
132.293595
 20
-50.508817
 11
132.293595
 21
-50.608817
  0
ENDBLK
  0
BLOCK
  2
*DIM_0068
 70
    65
 10
0.0
 20
0.0
  0
LINE
  8
寸法
  6
BYBLOCK
 62
     0
 10
137.938788
 20
-55.42899
 11
145.837535
 21
-55.42899
  0
LINE
  8
寸法
  6
BYBLOCK
 62
     0
 10
137.938788
 20
-75.42899
 11
145.837535
 21
-75.42899
  0
LINE
  8
寸法
  6
BYBLOCK
 62
     0
 10
145.837535
 20
-55.42899
 11
145.837535
 21
-75.42899
  0
POINT
  8
寸法
 62
     0
 10
145.837535
 20
-55.42899
  0
POINT
  8
寸法
 62
     0
 10
145.837535
 20
-75.42899
  0
TEXT
  7
TextStyle03
  8
寸法
  6
CONTINUOUS
 62
     0
 10
150.6
 20
-74.8625
  1
上昇高さ400
 40
3.0
 50
90.0
 72
     5
 11
150.6
 21
-56.4875
  0
ENDBLK
  0
ENDSEC
  0
SECTION
  2
ENTITIES
  0
POLYLINE
  8
通り芯
  6
CONTINUOUS
 66
     1
 70
     1
  0
VERTEX
  8
通り芯
 10
-210.0
 20
-148.5
  0
VERTEX
  8
通り芯
 10
210.0
 20
-148.5
  0
VERTEX
  8
通り芯
 10
210.0
 20
148.5
  0
VERTEX
  8
通り芯
 10
-210.0
 20
148.5
  0
SEQEND
  0
INSERT
  2
*GRP_0001
  8
型材断面
  6
CONTINUOUS
 10
0.0
 20
0.0
  0
LINE
  8
型材断面
  6
DASHDOT
 10
-95.755937
 20
-6.81856
 11
-15.755937
 21
-6.81856
  0
LINE
  8
型材断面
  6
DASHDOT
 10
-95.755937
 20
-86.27283
 11
-95.755937
 21
73.18144
  0
LINE
  8
型材断面
  6
DASHDOT
 10
-55.755937
 20
-86.27283
 11
-55.755937
 21
73.18144
  0
LINE
  8
型材断面
  6
DASHDOT
 10
-15.755937
 20
-86.27283
 11
-15.755937
 21
73.18144
  0
LINE
  8
型材断面
  6
DASHDOT
 10
-95.755937
 20
33.18144
 11
-15.755937
 21
33.18144
  0
LINE
  8
型材断面
  6
DASHDOT
 10
-95.755937
 20
73.18144
 11
-15.755937
 21
73.18144
  0
LINE
  8
型材断面
  6
CONTINUOUS
 10
-103.779813
 20
-1.268565
 11
-107.665572
 21
-0.37448
  0
LINE
  8
型材断面
  6
CONTINUOUS
 10
-103.779813
 20
-1.268565
 11
-107.665572
 21
-2.16265
  0
LINE
  8
型材断面
  6
CONTINUOUS
 10
-107.665572
 20
-2.16265
 11
-107.665572
 21
-0.37448
  0
LINE
  8
型材断面
  6
CONTINUOUS
 10
-7.732063
 20
67.631445
 11
-3.846303
 21
66.73736
  0
LINE
  8
型材断面
  6
CONTINUOUS
 10
-7.732063
 20
67.631445
 11
-3.846303
 21
68.52553
  0
LINE
  8
型材断面
  6
CONTINUOUS
 10
-3.846303
 20
68.52553
 11
-3.846303
 21
66.73736
  0
LINE
  8
型材断面
  6
CONTINUOUS
 10
-103.779813
 20
67.631445
 11
-107.665572
 21
66.73736
  0
LINE
  8
型材断面
  6
CONTINUOUS
 10
-103.779813
 20
67.631445
 11
-107.665572
 21
68.52553
  0
LINE
  8
型材断面
  6
CONTINUOUS
 10
-107.665572
 20
68.52553
 11
-107.665572
 21
66.73736
  0
LINE
  8
型材断面
  6
CONTINUOUS
 10
-7.732063
 20
-1.268565
 11
-3.846303
 21
-0.37448
  0
LINE
  8
型材断面
  6
CONTINUOUS
 10
-7.732063
 20
-1.268565
 11
-3.846303
 21
-2.16265
  0
LINE
  8
型材断面
  6
CONTINUOUS
 10
-3.846303
 20
-2.16265
 11
-3.846303
 21
-0.37448
  0
LINE
  8
型材断面
  6
CONTINUOUS
 10
-55.755937
 20
-14.842437
 11
-57.999382
 21
-18.728197
  0
LINE
  8
型材断面
  6
CONTINUOUS
 10
-55.755937
 20
-14.842437
 11
-53.512493
 21
-18.728197
  0
LINE
  8
型材断面
  6
CONTINUOUS
 10
-53.512493
 20
-18.728197
 11
-57.999382
 21
-18.728197
  0
LINE
  8
型材断面
  6
CONTINUOUS
 10
-55.755937
 20
81.205317
 11
-57.999382
 21
85.091078
  0
LINE
  8
型材断面
  6
CONTINUOUS
 10
-55.755937
 20
81.205317
 11
-53.512493
 21
85.091078
  0
LINE
  8
型材断面
  6
CONTINUOUS
 10
-53.512493
 20
85.091078
 11
-57.999382
 21
85.091078
  0
LINE
  8
型材断面
  6
CONTINUOUS
 10
-7.73206
 20
33.181443
 11
-3.8463
 21
30.937997
  0
LINE
  8
型材断面
  6
CONTINUOUS
 10
-7.73206
 20
33.181443
 11
-3.8463
 21
35.424887
  0
LINE
  8
型材断面
  6
CONTINUOUS
 10
-3.8463
 20
35.424887
 11
-3.8463
 21
30.937997
  0
LINE
  8
型材断面
  6
CONTINUOUS
 10
-103.779815
 20
33.181443
 11
-107.665575
 21
30.937997
  0
LINE
  8
型材断面
  6
CONTINUOUS
 10
-103.779815
 20
33.181443
 11
-107.665575
 21
35.424887
  0
LINE
  8
型材断面
  6
CONTINUOUS
 10
-107.665575
 20
35.424887
 11
-107.665575
 21
30.937997
  0
LINE
  8
型材断面
  6
DOT
 10
-20.995277
 20
73.181443
 11
-20.995277
 21
-6.818563
  0
LINE
  8
型材断面
  6
DOT
 10
-18.995277
 20
73.181443
 11
-18.995277
 21
-6.818563
  0
INSERT
  2
*GRP_0002
  8
型材断面
  6
CONTINUOUS
 10
0.0
 20
0.0
  0
INSERT
  2
*GRP_0003
  8
型材断面
  6
CONTINUOUS
 10
0.0
 20
0.0
  0
INSERT
  2
*GRP_0004
  8
型材断面
  6
CONTINUOUS
 10
0.0
 20
0.0
  0
INSERT
  2
*GRP_0005
  8
型材断面
  6
CONTINUOUS
 10
0.0
 20
0.0
  0
LINE
  8
型材断面
  6
DOT
 10
-90.516597
 20
73.181443
 11
-90.516597
 21
-6.818563
  0
LINE
  8
型材断面
  6
DOT
 10
-92.516597
 20
73.181443
 11
-92.516597
 21
-6.818563
  0
POLYLINE
  8
型材断面
  6
CONTINUOUS
 66
     1
 70
     1
  0
VERTEX
  8
型材断面
 10
-46.397393
 20
-20.147732
  0
VERTEX
  8
型材断面
 10
-64.952605
 20
-20.147732
  0
VERTEX
  8
型材断面
 10
-64.952605
 20
-24.939768
  0
VERTEX
  8
型材断面
 10
-46.397393
 20
-24.939768
  0
SEQEND
  0
POLYLINE
  8
型材断面
  6
CONTINUOUS
 66
     1
 70
     1
  0
VERTEX
  8
型材断面
 10
-46.397393
 20
91.442893
  0
VERTEX
  8
型材断面
 10
-64.952605
 20
91.442893
  0
VERTEX
  8
型材断面
 10
-64.952605
 20
86.650857
  0
VERTEX
  8
型材断面
 10
-46.397393
 20
86.650857
  0
SEQEND
  0
LINE
  8
型材断面
  6
CONTINUOUS
 62
    47
 10
-97.980937
 20
-82.059068
 11
-97.980937
 21
-81.309068
  0
LINE
  8
型材断面
  6
CONTINUOUS
 62
    47
 10
-98.730937
 20
-81.309068
 11
-98.730937
 21
-76.334068
  0
LINE
  8
型材断面
  6
CONTINUOUS
 62
    47
 10
-98.730937
 20
-72.823992
 11
-98.730937
 21
-76.083993
  0
LINE
  8
型材断面
  6
CONTINUOUS
 62
    47
 10
-97.405937
 20
-72.823992
 11
-97.405937
 21
-72.258815
  0
LINE
  8
型材断面
  6
CONTINUOUS
 62
    47
 10
-97.980937
 20
-82.059068
 11
-55.755937
 21
-82.059068
  0
LINE
  8
型材断面
  6
CONTINUOUS
 62
    47
 10
-98.730937
 20
-81.309068
 11
-55.755937
 21
-81.309068
  0
LINE
  8
型材断面
  6
CONTINUOUS
 62
    47
 10
-98.730937
 20
-76.334068
 11
-55.755937
 21
-76.333983
  0
LINE
  8
型材断面
  6
CONTINUOUS
 62
    47
 10
-98.730937
 20
-76.083993
 11
-55.755937
 21
-76.083993
  0
LINE
  8
型材断面
  6
CONTINUOUS
 62
    47
 10
-98.730937
 20
-72.823992
 11
-55.755937
 21
-72.823992
  0
LINE
  8
型材断面
  6
CONTINUOUS
 62
    47
 10
-13.530937
 20
-82.059068
 11
-13.530937
 21
-81.309068
  0
LINE
  8
型材断面
  6
CONTINUOUS
 62
    47
 10
-12.780937
 20
-81.309068
 11
-12.780937
 21
-76.334068
  0
LINE
  8
型材断面
  6
CONTINUOUS
 62
    47
 10
-12.780937
 20
-72.823992
 11
-12.780937
 21
-76.083993
  0
LINE
  8
型材断面
  6
CONTINUOUS
 62
    47
 10
-14.105937
 20
-72.823992
 11
-14.105937
 21
-72.258815
  0
LINE
  8
型材断面
  6
CONTINUOUS
 62
    47
 10
-13.530937
 20
-82.059068
 11
-55.755937
 21
-82.059068
  0
LINE
  8
型材断面
  6
CONTINUOUS
 62
    47
 10
-12.780937
 20
-81.309068
 11
-55.755937
 21
-81.309068
  0
LINE
  8
型材断面
  6
CONTINUOUS
 62
    47
 10
-12.780937
 20
-76.334068
 11
-55.755937
 21
-76.333983
  0
LINE
  8
型材断面
  6
CONTINUOUS
 62
    47
 10
-12.780937
 20
-76.083993
 11
-55.755937
 21
-76.083993
  0
LINE
  8
型材断面
  6
CONTINUOUS
 62
    47
 10
-12.780937
 20
-72.823992
 11
-55.755937
 21
-72.823992
  0
LINE
  8
型材断面
  6
CONTINUOUS
 62
    47
 10
48.768595
 20
-82.059068
 11
48.768595
 21
-81.309068
  0
LINE
  8
型材断面
  6
CONTINUOUS
 62
    47
 10
48.018595
 20
-81.309068
 11
48.018595
 21
-76.334068
  0
LINE
  8
型材断面
  6
CONTINUOUS
 62
    47
 10
48.018595
 20
-72.823992
 11
48.018595
 21
-76.083993
  0
LINE
  8
型材断面
  6
CONTINUOUS
 62
    47
 10
49.343595
 20
-72.823992
 11
49.343595
 21
-72.258815
  0
LINE
  8
型材断面
  6
CONTINUOUS
 62
    47
 10
48.768595
 20
-82.059068
 11
90.993595
 21
-82.059068
  0
LINE
  8
型材断面
  6
CONTINUOUS
 62
    47
 10
48.018595
 20
-81.309068
 11
90.993595
 21
-81.309068
  0
LINE
  8
型材断面
  6
CONTINUOUS
 62
    47
 10
48.018595
 20
-76.334068
 11
90.993595
 21
-76.333983
  0
LINE
  8
型材断面
  6
CONTINUOUS
 62
    47
 10
48.018595
 20
-76.083993
 11
90.993595
 21
-76.083993
  0
LINE
  8
型材断面
  6
CONTINUOUS
 62
    47
 10
48.018595
 20
-72.823992
 11
90.993595
 21
-72.823992
  0
LINE
  8
型材断面
  6
CONTINUOUS
 62
    47
 10
133.218595
 20
-82.059068
 11
133.218595
 21
-81.309068
  0
LINE
  8
型材断面
  6
CONTINUOUS
 62
    47
 10
133.968595
 20
-81.309068
 11
133.968595
 21
-76.334068
  0
LINE
  8
型材断面
  6
CONTINUOUS
 62
    47
 10
133.968595
 20
-72.823992
 11
133.968595
 21
-76.083993
  0
LINE
  8
型材断面
  6
CONTINUOUS
 62
    47
 10
132.643595
 20
-72.823992
 11
132.643595
 21
-72.258815
  0
LINE
  8
型材断面
  6
CONTINUOUS
 62
    47
 10
133.218595
 20
-82.059068
 11
90.993595
 21
-82.059068
  0
LINE
  8
型材断面
  6
CONTINUOUS
 62
    47
 10
133.968595
 20
-81.309068
 11
90.993595
 21
-81.309068
  0
LINE
  8
型材断面
  6
CONTINUOUS
 62
    47
 10
133.968595
 20
-76.334068
 11
90.993595
 21
-76.333983
  0
LINE
  8
型材断面
  6
CONTINUOUS
 62
    47
 10
133.968595
 20
-76.083993
 11
90.993595
 21
-76.083993
  0
LINE
  8
型材断面
  6
CONTINUOUS
 62
    47
 10
133.968595
 20
-72.823992
 11
90.993595
 21
-72.823992
  0
LINE
  8
型材断面
  6
CONTINUOUS
 10
19.08162
 20
0.842783
 11
16.838175
 21
-3.042977
  0
LINE
  8
型材断面
  6
CONTINUOUS
 10
19.08162
 20
0.842783
 11
21.325065
 21
-3.042977
  0
LINE
  8
型材断面
  6
CONTINUOUS
 10
21.325065
 20
-3.042977
 11
16.838175
 21
-3.042977
  0
LINE
  8
型材断面
  6
CONTINUOUS
 10
19.08162
 20
-6.846765
 11
19.975705
 21
-10.732525
  0
LINE
  8
型材断面
  6
CONTINUOUS
 10
19.08162
 20
-6.846765
 11
18.187535
 21
-10.732525
  0
LINE
  8
型材断面
  6
CONTINUOUS
 10
18.187535
 20
-10.732525
 11
19.975705
 21
-10.732525
  0
LINE
  8
型材断面
  6
CONTINUOUS
 10
10.04774
 20
-4.45087
 11
62.70442
 21
-4.45087
  0
LINE
  8
型材断面
  6
CONTINUOUS
 10
10.04774
 20
-15.650863
 11
62.70442
 21
-15.650863
  0
LINE
  8
型材断面
  6
CONTINUOUS
 10
10.04774
 20
-22.490808
 11
62.70442
 21
-22.490808
  0
LINE
  8
型材断面
  6
CONTINUOUS
 10
10.04774
 20
-29.330753
 11
62.70442
 21
-29.330753
  0
LINE
  8
型材断面
  6
DOT
 10
-53.880937
 20
73.18144
 11
-53.880937
 21
-6.81856
  0
LINE
  8
型材断面
  6
DOT
 10
-57.630937
 20
73.18144
 11
-57.630937
 21
-6.81856
  0
LINE
  8
ガラス
  6
CONTINUOUS
 10
117.66375
 20
33.98144
 11
117.66375
 21
72.68144
  0
LINE
  8
ガラス
  6
CONTINUOUS
 10
117.66375
 20
72.68144
 11
38.66375
 21
72.68144
  0
LINE
  8
ガラス
  6
CONTINUOUS
 10
38.66375
 20
72.68144
 11
38.66375
 21
33.98144
  0
LINE
  8
ガラス
  6
CONTINUOUS
 10
117.66375
 20
33.98144
 11
38.66375
 21
33.98144
  0
INSERT
  2
*GRP_0065
  8
ガラス
  6
DOT
 10
0.0
 20
0.0
  0
CIRCLE
  8
ボルト／ビス
  6
CONTINUOUS
 10
-55.755937
 20
-7.81856
 40
0.288675
  0
CIRCLE
  8
ボルト／ビス
  6
CONTINUOUS
 10
-55.755937
 20
-7.81856
 40
0.455885
  0
CIRCLE
  8
ボルト／ビス
  6
CONTINUOUS
 10
-70.755937
 20
-7.81856
 40
0.288675
  0
CIRCLE
  8
ボルト／ビス
  6
CONTINUOUS
 10
-70.755937
 20
-7.81856
 40
0.455885
  0
CIRCLE
  8
ボルト／ビス
  6
CONTINUOUS
 10
-85.755937
 20
-7.81856
 40
0.288675
  0
CIRCLE
  8
ボルト／ビス
  6
CONTINUOUS
 10
-85.755937
 20
-7.81856
 40
0.455885
  0
CIRCLE
  8
ボルト／ビス
  6
CONTINUOUS
 10
-96.755937
 20
33.18144
 40
0.288675
  0
CIRCLE
  8
ボルト／ビス
  6
CONTINUOUS
 10
-96.755937
 20
33.18144
 40
0.455885
  0
CIRCLE
  8
ボルト／ビス
  6
CONTINUOUS
 10
-96.755937
 20
18.18144
 40
0.288675
  0
CIRCLE
  8
ボルト／ビス
  6
CONTINUOUS
 10
-96.755937
 20
18.18144
 40
0.455885
  0
CIRCLE
  8
ボルト／ビス
  6
CONTINUOUS
 10
-96.755937
 20
3.18144
 40
0.288675
  0
CIRCLE
  8
ボルト／ビス
  6
CONTINUOUS
 10
-96.755937
 20
3.18144
 40
0.455885
  0
CIRCLE
  8
ボルト／ビス
  6
CONTINUOUS
 10
-70.755937
 20
74.18144
 40
0.288675
  0
CIRCLE
  8
ボルト／ビス
  6
CONTINUOUS
 10
-70.755937
 20
74.18144
 40
0.455885
  0
CIRCLE
  8
ボルト／ビス
  6
CONTINUOUS
 10
-85.755937
 20
74.18144
 40
0.288675
  0
CIRCLE
  8
ボルト／ビス
  6
CONTINUOUS
 10
-85.755937
 20
74.18144
 40
0.455885
  0
CIRCLE
  8
ボルト／ビス
  6
CONTINUOUS
 10
-96.755937
 20
48.18144
 40
0.288675
  0
CIRCLE
  8
ボルト／ビス
  6
CONTINUOUS
 10
-96.755937
 20
48.18144
 40
0.455885
  0
CIRCLE
  8
ボルト／ビス
  6
CONTINUOUS
 10
-96.755937
 20
63.18144
 40
0.288675
  0
CIRCLE
  8
ボルト／ビス
  6
CONTINUOUS
 10
-96.755937
 20
63.18144
 40
0.455885
  0
CIRCLE
  8
ボルト／ビス
  6
CONTINUOUS
 10
-40.755937
 20
-7.81856
 40
0.288675
  0
CIRCLE
  8
ボルト／ビス
  6
CONTINUOUS
 10
-40.755937
 20
-7.81856
 40
0.455885
  0
CIRCLE
  8
ボルト／ビス
  6
CONTINUOUS
 10
-25.755937
 20
-7.81856
 40
0.288675
  0
CIRCLE
  8
ボルト／ビス
  6
CONTINUOUS
 10
-25.755937
 20
-7.81856
 40
0.455885
  0
CIRCLE
  8
ボルト／ビス
  6
CONTINUOUS
 10
-14.755937
 20
18.18144
 40
0.288675
  0
CIRCLE
  8
ボルト／ビス
  6
CONTINUOUS
 10
-14.755937
 20
18.18144
 40
0.455885
  0
CIRCLE
  8
ボルト／ビス
  6
CONTINUOUS
 10
-14.755937
 20
3.18144
 40
0.288675
  0
CIRCLE
  8
ボルト／ビス
  6
CONTINUOUS
 10
-14.755937
 20
3.18144
 40
0.455885
  0
CIRCLE
  8
ボルト／ビス
  6
CONTINUOUS
 10
-40.755937
 20
74.18144
 40
0.288675
  0
CIRCLE
  8
ボルト／ビス
  6
CONTINUOUS
 10
-40.755937
 20
74.18144
 40
0.455885
  0
CIRCLE
  8
ボルト／ビス
  6
CONTINUOUS
 10
-25.755937
 20
74.18144
 40
0.288675
  0
CIRCLE
  8
ボルト／ビス
  6
CONTINUOUS
 10
-25.755937
 20
74.18144
 40
0.455885
  0
CIRCLE
  8
ボルト／ビス
  6
CONTINUOUS
 10
-14.755937
 20
48.18144
 40
0.288675
  0
CIRCLE
  8
ボルト／ビス
  6
CONTINUOUS
 10
-14.755937
 20
48.18144
 40
0.455885
  0
CIRCLE
  8
ボルト／ビス
  6
CONTINUOUS
 10
-14.755937
 20
63.18144
 40
0.288675
  0
CIRCLE
  8
ボルト／ビス
  6
CONTINUOUS
 10
-14.755937
 20
63.18144
 40
0.455885
  0
CIRCLE
  8
ボルト／ビス
  6
CONTINUOUS
 10
-14.755937
 20
33.18144
 40
0.288675
  0
CIRCLE
  8
ボルト／ビス
  6
CONTINUOUS
 10
-14.755937
 20
33.18144
 40
0.455885
  0
CIRCLE
  8
ボルト／ビス
  6
CONTINUOUS
 10
-55.755937
 20
74.18144
 40
0.288675
  0
CIRCLE
  8
ボルト／ビス
  6
CONTINUOUS
 10
-55.755937
 20
74.18144
 40
0.455885
  0
INSERT
  2
*GRP_0006
  8
文字
  6
CONTINUOUS
 10
0.0
 20
0.0
  0
INSERT
  2
*GRP_0007
  8
文字
  6
CONTINUOUS
 10
0.0
 20
0.0
  0
INSERT
  2
*GRP_0008
  8
文字
  6
CONTINUOUS
 10
0.0
 20
0.0
  0
INSERT
  2
*GRP_0009
  8
文字
  6
CONTINUOUS
 10
0.0
 20
0.0
  0
INSERT
  2
*GRP_0010
  8
文字
  6
CONTINUOUS
 10
0.0
 20
0.0
  0
INSERT
  2
*GRP_0011
  8
文字
  6
CONTINUOUS
 10
0.0
 20
0.0
  0
INSERT
  2
*GRP_0012
  8
文字
  6
CONTINUOUS
 10
0.0
 20
0.0
  0
INSERT
  2
*GRP_0013
  8
文字
  6
CONTINUOUS
 10
0.0
 20
0.0
  0
INSERT
  2
*GRP_0014
  8
文字
  6
CONTINUOUS
 10
0.0
 20
0.0
  0
INSERT
  2
*GRP_0015
  8
文字
  6
CONTINUOUS
 10
0.0
 20
0.0
  0
INSERT
  2
*GRP_0016
  8
文字
  6
CONTINUOUS
 10
0.0
 20
0.0
  0
INSERT
  2
*GRP_0017
  8
文字
  6
CONTINUOUS
 10
0.0
 20
0.0
  0
INSERT
  2
*GRP_0018
  8
文字
  6
CONTINUOUS
 10
0.0
 20
0.0
  0
INSERT
  2
*GRP_0019
  8
文字
  6
CONTINUOUS
 10
0.0
 20
0.0
  0
INSERT
  2
*GRP_0020
  8
文字
  6
CONTINUOUS
 10
0.0
 20
0.0
  0
INSERT
  2
*GRP_0021
  8
文字
  6
CONTINUOUS
 10
0.0
 20
0.0
  0
INSERT
  2
*GRP_0022
  8
文字
  6
CONTINUOUS
 10
0.0
 20
0.0
  0
INSERT
  2
*GRP_0023
  8
文字
  6
CONTINUOUS
 10
0.0
 20
0.0
  0
INSERT
  2
*GRP_0024
  8
文字
  6
CONTINUOUS
 10
0.0
 20
0.0
  0
INSERT
  2
*GRP_0025
  8
文字
  6
CONTINUOUS
 10
0.0
 20
0.0
  0
TEXT
  7
TextStyle03
  8
文字
  6
CONTINUOUS
 10
-6.125
 20
11.9
  1
ﾊﾞﾗﾝｽｽﾃｰ
 40
3.0
 72
     5
 11
7.1875
 21
11.9
  0
TEXT
  7
TextStyle03
  8
文字
  6
CONTINUOUS
 10
95.65
 20
40.65
  1
×２枚
 40
3.0
 72
     5
 11
105.4
 21
40.65
  0
TEXT
  7
TextStyle03
  8
文字
  6
CONTINUOUS
 10
88.5
 20
44.675
  1
網入り6.8t
 40
3.0
 72
     5
 11
105.1875
 21
44.675
  0
TEXT
  7
TextStyle03
  8
文字
  6
CONTINUOUS
 10
-64.0
 20
-23.95
  1
可動装置側
 40
3.0
 72
     5
 11
-47.5
 21
-23.95
  0
TEXT
  7
TextStyle03
  8
文字
  6
CONTINUOUS
 10
-64.0
 20
87.625
  1
可動装置側
 40
3.0
 72
     5
 11
-47.5
 21
87.625
  0
TEXT
  7
TextStyle03
  8
文字
  6
CONTINUOUS
 10
-118.6875
 20
58.225
  1
ﾊﾞﾗﾝｽｽﾃｰ
 40
3.0
 72
     5
 11
-105.375
 21
58.225
  0
TEXT
  7
TextStyle03
  8
文字
  6
CONTINUOUS
 10
85.55
 20
99.5
  1
ＮＳコード：ＮＳＤＺ
 40
5.0
 72
     5
 11
141.175
 21
99.5
  0
TEXT
  7
TextStyle03
  8
文字
  6
CONTINUOUS
 10
-116.0
 20
106.125
  1
アンカーピッチ
 40
3.0
 72
     5
 11
-92.75
 21
106.125
  0
TEXT
  7
TextStyle03
  8
文字
  6
CONTINUOUS
 10
-128.0
 20
-9.9
  1
アンカーピッチ
 40
3.0
 50
90.0
 72
     5
 11
-128.0
 21
13.35
  0
TEXT
  7
TextStyle03
  8
文字
  6
CONTINUOUS
 10
23.35
 20
-2.725
  1
は排水穴位置を示す
 40
3.0
 72
     5
 11
53.35
 21
-2.725
  0
TEXT
  7
TextStyle03
  8
文字
  6
CONTINUOUS
 10
23.35
 20
-10.575
  1
はケーシング位置を示す
 40
3.0
 72
     5
 11
60.1
 21
-10.575
  0
TEXT
  7
TextStyle03
  8
文字
  6
CONTINUOUS
 10
23.35
 20
-13.95
  1
４ヶ所中1ヶ所に設定
 40
3.0
 72
     5
 11
55.0375
 21
-13.95
  0
TEXT
  7
TextStyle03
  8
文字
  6
CONTINUOUS
 10
17.75
 20
-21.1
  1
アンカー数量　１０ヶ所
 40
3.0
 72
     5
 11
54.5
 21
-21.1
  0
TEXT
  7
TextStyle03
  8
文字
  6
CONTINUOUS
 10
17.725
 20
-27.95
  1
アームユニット数　４ヶ所
 40
3.0
 72
     5
 11
57.85
 21
-27.95
  0
TEXT
  7
TextStyle03
  8
文字
  6
CONTINUOUS
 10
87.6
 20
118.325
  1
シリーズ：ＴＤ２
 40
5.0
 72
     5
 11
131.975
 21
118.325
  0
TEXT
  7
TextStyle03
  8
文字
  6
CONTINUOUS
 10
87.6
 20
112.7
  1
　　　　　（上下可動）1600×1600タイプ
 40
5.0
 72
     5
 11
193.85
 21
112.7
  0
TEXT
  7
TextStyle03
  8
文字
  6
CONTINUOUS
 10
87.6
 20
107.075
  1
図面名　：外観姿図
 40
5.0
 72
     5
 11
137.6
 21
107.075
  0
TEXT
  7
TextStyle03
  8
文字
  6
CONTINUOUS
 10
87.6
 20
101.45
  1
　　　　　　
 40
5.0
 72
     5
 11
120.725
 21
101.45
  0
TEXT
  7
TextStyle03
  8
文字
  6
CONTINUOUS
 10
-58.1
 20
13.475
  1
中桟
 40
3.0
 50
90.0
 72
     5
 11
-58.1
 21
19.85
  0
INSERT
  2
*DIM_0026
  8
寸法
  6
CONTINUOUS
 10
0.0
 20
0.0
  0
INSERT
  2
*DIM_0027
  8
寸法
  6
CONTINUOUS
 10
0.0
 20
0.0
  0
INSERT
  2
*DIM_0028
  8
寸法
  6
CONTINUOUS
 10
0.0
 20
0.0
  0
INSERT
  2
*GRP_0029
  8
寸法
  6
CONTINUOUS
 10
0.0
 20
0.0
  0
INSERT
  2
*DIM_0030
  8
寸法
  6
CONTINUOUS
 10
0.0
 20
0.0
  0
INSERT
  2
*DIM_0051
  8
寸法
  6
CONTINUOUS
 10
0.0
 20
0.0
  0
INSERT
  2
*DIM_0052
  8
寸法
  6
CONTINUOUS
 10
0.0
 20
0.0
  0
INSERT
  2
*DIM_0053
  8
寸法
  6
CONTINUOUS
 10
0.0
 20
0.0
  0
INSERT
  2
*GRP_0054
  8
寸法
  6
CONTINUOUS
 10
0.0
 20
0.0
  0
INSERT
  2
*DIM_0055
  8
寸法
  6
CONTINUOUS
 10
0.0
 20
0.0
  0
INSERT
  2
*DIM_0056
  8
寸法
  6
CONTINUOUS
 10
0.0
 20
0.0
  0
INSERT
  2
*DIM_0057
  8
寸法
  6
CONTINUOUS
 10
0.0
 20
0.0
  0
INSERT
  2
*DIM_0058
  8
寸法
  6
CONTINUOUS
 10
0.0
 20
0.0
  0
INSERT
  2
*DIM_0059
  8
寸法
  6
CONTINUOUS
 10
0.0
 20
0.0
  0
INSERT
  2
*DIM_0068
  8
寸法
  6
CONTINUOUS
 10
0.0
 20
0.0
  0
LINE
  8
別途部材
  6
CONTINUOUS
 10
-98.855937
 20
-9.91856
 11
-98.255937
 21
-9.31856
  0
LINE
  8
別途部材
  6
CONTINUOUS
 10
-95.755937
 20
-6.81856
 11
-83.667053
 21
5.270325
  0
LINE
  8
別途部材
  6
CONTINUOUS
 62
    96
 10
-98.255937
 20
-70.758815
 11
-98.855937
 21
-72.258815
  0
LINE
  8
別途部材
  6
CONTINUOUS
 62
    96
 10
-98.255937
 20
-70.758815
 11
-55.755937
 21
-70.758815
  0
LINE
  8
別途部材
  6
CONTINUOUS
 10
-98.855937
 20
-72.258815
 11
-55.755937
 21
-72.258815
  0
LINE
  8
別途部材
  6
CONTINUOUS
 62
    96
 10
-13.255937
 20
-70.758815
 11
-12.655937
 21
-72.258815
  0
LINE
  8
別途部材
  6
CONTINUOUS
 62
    96
 10
-13.255937
 20
-70.758815
 11
-55.755937
 21
-70.758815
  0
LINE
  8
別途部材
  6
CONTINUOUS
 10
-12.655937
 20
-72.258815
 11
-55.755937
 21
-72.258815
  0
ARC
  8
別途部材
  6
CONTINUOUS
 10
-55.755937
 20
-95.064371
 40
46.805555
 50
31.284493
 51
148.715507
  0
LINE
  8
別途部材
  6
CONTINUOUS
 10
-98.255937
 20
-9.31856
 11
-55.755937
 21
-9.31856
  0
LINE
  8
別途部材
  6
CONTINUOUS
 10
-98.855937
 20
-9.91856
 11
-55.755937
 21
-9.91856
  0
LINE
  8
別途部材
  6
CONTINUOUS
 10
-98.855937
 20
-9.91856
 11
-98.855937
 21
33.18144
  0
LINE
  8
別途部材
  6
CONTINUOUS
 10
-98.255937
 20
-9.31856
 11
-98.255937
 21
33.18144
  0
LINE
  8
別途部材
  6
CONTINUOUS
 10
-98.855937
 20
76.28144
 11
-98.255937
 21
75.68144
  0
LINE
  8
別途部材
  6
CONTINUOUS
 10
-95.755937
 20
73.18144
 11
-83.667053
 21
61.092555
  0
LINE
  8
別途部材
  6
CONTINUOUS
 10
-98.255937
 20
75.68144
 11
-55.755937
 21
75.68144
  0
LINE
  8
別途部材
  6
CONTINUOUS
 10
-98.855937
 20
76.28144
 11
-55.755937
 21
76.28144
  0
LINE
  8
別途部材
  6
CONTINUOUS
 10
-98.855937
 20
76.28144
 11
-98.855937
 21
33.18144
  0
LINE
  8
別途部材
  6
CONTINUOUS
 10
-98.255937
 20
75.68144
 11
-98.255937
 21
33.18144
  0
LINE
  8
別途部材
  6
CONTINUOUS
 10
-12.655937
 20
-9.91856
 11
-13.255937
 21
-9.31856
  0
LINE
  8
別途部材
  6
CONTINUOUS
 10
-15.755937
 20
-6.81856
 11
-27.844823
 21
5.270325
  0
LINE
  8
別途部材
  6
CONTINUOUS
 10
-13.255937
 20
-9.31856
 11
-55.755937
 21
-9.31856
  0
LINE
  8
別途部材
  6
CONTINUOUS
 10
-12.655937
 20
-9.91856
 11
-55.755937
 21
-9.91856
  0
LINE
  8
別途部材
  6
CONTINUOUS
 10
-12.655937
 20
-9.91856
 11
-12.655937
 21
33.18144
  0
LINE
  8
別途部材
  6
CONTINUOUS
 10
-13.255937
 20
-9.31856
 11
-13.255937
 21
33.18144
  0
LINE
  8
別途部材
  6
CONTINUOUS
 10
-12.655937
 20
76.28144
 11
-13.255937
 21
75.68144
  0
LINE
  8
別途部材
  6
CONTINUOUS
 10
-15.755937
 20
73.18144
 11
-27.844823
 21
61.092555
  0
LINE
  8
別途部材
  6
CONTINUOUS
 10
-13.255937
 20
75.68144
 11
-55.755937
 21
75.68144
  0
LINE
  8
別途部材
  6
CONTINUOUS
 10
-12.655937
 20
76.28144
 11
-55.755937
 21
76.28144
  0
LINE
  8
別途部材
  6
CONTINUOUS
 10
-12.655937
 20
76.28144
 11
-12.655937
 21
33.18144
  0
LINE
  8
別途部材
  6
CONTINUOUS
 10
-13.255937
 20
75.68144
 11
-13.255937
 21
33.18144
  0
LINE
  8
別途部材
  6
CONTINUOUS
 62
    96
 10
48.493595
 20
-70.758815
 11
47.893595
 21
-72.258815
  0
LINE
  8
別途部材
  6
CONTINUOUS
 62
    96
 10
48.493595
 20
-70.758815
 11
90.993595
 21
-70.758815
  0
LINE
  8
別途部材
  6
CONTINUOUS
 10
47.893595
 20
-72.258815
 11
90.993595
 21
-72.258815
  0
LINE
  8
別途部材
  6
CONTINUOUS
 62
    96
 10
133.493595
 20
-70.758815
 11
134.093595
 21
-72.258815
  0
LINE
  8
別途部材
  6
CONTINUOUS
 62
    96
 10
133.493595
 20
-70.758815
 11
90.993595
 21
-70.758815
  0
LINE
  8
別途部材
  6
CONTINUOUS
 10
134.093595
 20
-72.258815
 11
90.993595
 21
-72.258815
  0
ARC
  8
別途部材
  6
CONTINUOUS
 10
90.993595
 20
-95.064371
 40
46.805555
 50
31.284493
 51
148.715507
  0
INSERT
  2
*GRP_0061
  8
別途部材
  6
DOT
 10
0.0
 20
0.0
  0
INSERT
  2
*GRP_0062
  8
別途部材
  6
DOT
 10
0.0
 20
0.0
  0
INSERT
  2
*GRP_0063
  8
別途部材
  6
DOT
 10
0.0
 20
0.0
  0
INSERT
  2
*GRP_0064
  8
別途部材
  6
DOT
 10
0.0
 20
0.0
  0
ENDSEC
  0
EOF
