  0
SECTION
  2
HEADER
  9
$EXTMIN
 10
-210.0
 20
-148.5
  9
$EXTMAX
 10
210.0
 20
148.5
  9
$PDMODE
 70
    32
  9
$PDSIZE
 40
1.5
  9
$LTSCALE
 40
10.0
  0
ENDSEC
  0
SECTION
  2
TABLES
  0
TABLE
  2
LTYPE
 70
    15
  0
LTYPE
  2
CONTINUOUS
 70
    64
  3
実線
 72
    65
 73
     0
 40
0.0
  0
LTYPE
  2
DASHED
 70
    64
  3
破線A
 72
    65
 73
     2
 40
0.6
 49
0.4
 49
-0.2
  0
LTYPE
  2
DASHEDX2
 70
    64
  3
破線B
 72
    65
 73
     2
 40
1.3
 49
0.9
 49
-0.4
  0
LTYPE
  2
DASHDOT
 70
    64
  3
１点鎖線A
 72
    65
 73
     4
 40
0.5375
 49
0.375
 49
-0.05
 49
0.0625
 49
-0.05
  0
LTYPE
  2
DASHDOTX2
 70
    64
  3
１点鎖線B
 72
    65
 73
     4
 40
1.075
 49
0.75
 49
-0.1
 49
0.125
 49
-0.1
  0
LTYPE
  2
DIVIDE2
 70
    64
  3
２点鎖線A
 72
    65
 73
     6
 40
0.5125
 49
0.3
 49
-0.0375
 49
0.05
 49
-0.0375
 49
0.05
 49
-0.0375
  0
LTYPE
  2
DIVIDE
 70
    64
  3
２点鎖線B
 72
    65
 73
     6
 40
1.05
 49
0.55
 49
-0.1
 49
0.1
 49
-0.1
 49
0.1
 49
-0.1
  0
LTYPE
  2
DOT
 70
    64
  3
点線A
 72
    65
 73
     2
 40
0.1125
 49
0.0625
 49
-0.05
  0
LTYPE
  2
DOTX2
 70
    64
  3
点線B
 72
    65
 73
     2
 40
0.275
 49
0.15
 49
-0.125
  0
LTYPE
  2
CONTINUOUS
 70
    64
  3
実線
 72
    65
 73
     0
 40
0.0
  0
LTYPE
  2
CONTINUOUS
 70
    64
  3
実線
 72
    65
 73
     0
 40
0.0
  0
LTYPE
  2
CONTINUOUS
 70
    64
  3
実線
 72
    65
 73
     0
 40
0.0
  0
LTYPE
  2
CONTINUOUS
 70
    64
  3
実線
 72
    65
 73
     0
 40
0.0
  0
LTYPE
  2
CONTINUOUS
 70
    64
  3
実線
 72
    65
 73
     0
 40
0.0
  0
LTYPE
  2
CONTINUOUS
 70
    64
  3
実線
 72
    65
 73
     0
 40
0.0
  0
ENDTAB
  0
TABLE
  2
LAYER
 70
    34
  0
LAYER
  2
通り芯
 70
     0
 62
    15
  6
CONTINUOUS
  0
LAYER
  2
補助線
 70
     0
 62
    16
  6
DOT
  0
LAYER
  2
躯体
 70
     0
 62
    31
  6
CONTINUOUS
  0
LAYER
  2
型材
 70
     0
 62
    32
  6
CONTINUOUS
  0
LAYER
  2
型材断面
 70
     0
 62
    47
  6
CONTINUOUS
  0
LAYER
  2
ガラス
 70
     0
 62
    48
  6
CONTINUOUS
  0
LAYER
  2
ゴム等
 70
     0
 62
    63
  6
CONTINUOUS
  0
LAYER
  2
ボルト／ビス
 70
     0
 62
    64
  6
CONTINUOUS
  0
LAYER
  2
文字
 70
     0
 62
    79
  6
CONTINUOUS
  0
LAYER
  2
寸法
 70
     0
 62
    80
  6
CONTINUOUS
  0
LAYER
  2
ﾊｯﾁﾝｸﾞ
 70
     0
 62
    95
  6
CONTINUOUS
  0
LAYER
  2
別途部材
 70
     0
 62
    96
  6
CONTINUOUS
  0
LAYER
  2
曲げ物
 70
     0
 62
   111
  6
CONTINUOUS
  0
LAYER
  2
鉄骨等
 70
     0
 62
   112
  6
CONTINUOUS
  0
LAYER
  2
St
 70
     0
 62
   127
  6
CONTINUOUS
  0
LAYER
  2
その他部品等
 70
     0
 62
   128
  6
CONTINUOUS
  0
LAYER
  2
ｶﾞｽｹｯﾄ
 70
     0
 62
   143
  6
CONTINUOUS
  0
LAYER
  2
ｽｹｯﾁ
 70
     0
 62
    14
  6
CONTINUOUS
  0
LAYER
  2
0
 70
     0
 62
    17
  6
CONTINUOUS
  0
LAYER
  2
1
 70
     0
 62
    30
  6
CONTINUOUS
  0
LAYER
  2
4
 70
     0
 62
    33
  6
CONTINUOUS
  0
LAYER
  2
ﾚｲﾔ3
 70
     0
 62
    46
  6
CONTINUOUS
  0
LAYER
  2
外形線
 70
     0
 62
    49
  6
CONTINUOUS
  0
LAYER
  2
部品
 70
     0
 62
    14
  6
CONTINUOUS
  0
LAYER
  2
サッシ芯
 70
     0
 62
    17
  6
DASHDOTX2
  0
LAYER
  2
寸法線
 70
     0
 62
    62
  6
CONTINUOUS
  0
LAYER
  2
姿図外形線
 70
     0
 62
    65
  6
CONTINUOUS
  0
LAYER
  2
姿補助線
 70
     0
 62
    30
  6
CONTINUOUS
  0
LAYER
  2
透視線
 70
     0
 62
    78
  6
DOT
  0
LAYER
  2
用紙
 70
     0
 62
    81
  6
CONTINUOUS
  0
LAYER
  2
実線図枠
 70
     0
 62
    94
  6
CONTINUOUS
  0
LAYER
  2
補助図枠
 70
     0
 62
    97
  6
CONTINUOUS
  0
LAYER
  2
建具記号
 70
     0
 62
   110
  6
CONTINUOUS
  0
LAYER
  2
補助文字
 70
     0
 62
   113
  6
CONTINUOUS
  0
ENDTAB
  0
TABLE
  2
STYLE
 70
    10
  0
STYLE
  2
STANDARD
 70
     0
 40
1.0
 41
1.0
 42
1.0
 50
0.0
 71
     0
  3
TXT
  4
BIGFONT
  0
STYLE
  2
TATE
 70
     4
 40
1.0
 41
1.0
 42
1.0
 50
0.0
 71
     0
  3
TXT
  4
BIGFONT
  0
STYLE
  2
TextStyle03
 70
     0
 40
1.0
 41
1.0
 42
1.0
 50
0.0
 71
     0
  3
MONOTXT
  4
BIGFONT
  0
STYLE
  2
TextStyle04
 70
     0
 40
1.0
 41
1.0
 42
1.0
 50
0.0
 71
     0
  3
MONOTXT
  4
BIGFONT
  0
STYLE
  2
TextStyle05
 70
     0
 40
1.0
 41
1.0
 42
1.0
 50
0.0
 71
     0
  3
MONOTXT
  4
BIGFONT
  0
STYLE
  2
TextStyle06
 70
     0
 40
1.0
 41
1.0
 42
1.0
 50
0.0
 71
     0
  3
MONOTXT
  4
BIGFONT
  0
STYLE
  2
TextStyle07
 70
     0
 40
1.0
 41
1.0
 42
1.0
 50
0.0
 71
     0
  3
MONOTXT
  4
BIGFONT
  0
STYLE
  2
TextStyle08
 70
     0
 40
1.0
 41
1.0
 42
1.0
 50
0.0
 71
     0
  3
MONOTXT
  4
BIGFONT
  0
STYLE
  2
TextStyle09
 70
     0
 40
1.0
 41
1.0
 42
1.0
 50
0.0
 71
     0
  3
MONOTXT
  4
BIGFONT
  0
STYLE
  2
TextStyle10
 70
     0
 40
1.0
 41
1.0
 42
1.0
 50
0.0
 71
     0
  3
MONOTXT
  4
BIGFONT
  0
ENDTAB
  0
ENDSEC
  0
SECTION
  2
BLOCKS
  0
BLOCK
  2
*GRP_0001
 70
    65
 10
0.0
 20
0.0
  0
LINE
  8
型材断面
  6
CONTINUOUS
 10
195.0
 20
133.5
 11
195.0
 21
-133.5
  0
LINE
  8
型材断面
  6
CONTINUOUS
 10
195.0
 20
-133.5
 11
-185.0
 21
-133.5
  0
LINE
  8
型材断面
  6
CONTINUOUS
 10
-185.0
 20
-133.5
 11
-185.0
 21
133.5
  0
LINE
  8
型材断面
  6
CONTINUOUS
 10
195.0
 20
133.5
 11
-185.0
 21
133.5
  0
LINE
  8
型材断面
  6
CONTINUOUS
 10
145.0
 20
-133.5
 11
145.0
 21
-118.5
  0
LINE
  8
型材断面
  6
CONTINUOUS
 10
195.0
 20
-118.5
 11
145.0
 21
-118.5
  0
ENDBLK
  0
BLOCK
  2
*GRP_0002
 70
    65
 10
0.0
 20
0.0
  0
LINE
  8
型材断面
  6
CONTINUOUS
 10
111.21173
 20
-76.085715
 11
111.577372
 21
-77.081358
  0
LINE
  8
型材断面
  6
CONTINUOUS
 10
111.577372
 20
-77.081358
 11
111.157373
 21
-77.988883
  0
LINE
  8
型材断面
  6
CONTINUOUS
 10
111.157373
 20
-77.988883
 11
110.16173
 21
-78.354525
  0
LINE
  8
型材断面
  6
CONTINUOUS
 10
67.196812
 20
-55.715712
 11
111.21173
 21
-76.085715
  0
LINE
  8
型材断面
  6
CONTINUOUS
 10
66.201167
 20
-56.081355
 11
67.196812
 21
-55.715712
  0
LINE
  8
型材断面
  6
CONTINUOUS
 10
66.201167
 20
-56.081355
 11
65.781168
 21
-56.98888
  0
LINE
  8
型材断面
  6
CONTINUOUS
 10
66.146812
 20
-57.984523
 11
110.16173
 21
-78.354525
  0
LINE
  8
型材断面
  6
CONTINUOUS
 10
65.781168
 20
-56.98888
 11
66.146812
 21
-57.984523
  0
INSERT
  2
*GRP_0009
  8
ボルト／ビス
  6
CONTINUOUS
 62
    64
 10
0.0
 20
0.0
  0
INSERT
  2
*GRP_0010
  8
ボルト／ビス
  6
CONTINUOUS
 62
    64
 10
0.0
 20
0.0
  0
INSERT
  2
*GRP_0011
  8
ボルト／ビス
  6
CONTINUOUS
 62
    64
 10
0.0
 20
0.0
  0
ENDBLK
  0
BLOCK
  2
*GRP_0003
 70
    65
 10
0.0
 20
0.0
  0
LINE
  8
型材断面
  6
CONTINUOUS
 10
66.14681
 20
-76.085715
 11
65.781168
 21
-77.081358
  0
LINE
  8
型材断面
  6
CONTINUOUS
 10
65.781168
 20
-77.081358
 11
66.201167
 21
-77.988883
  0
LINE
  8
型材断面
  6
CONTINUOUS
 10
66.201167
 20
-77.988883
 11
67.19681
 21
-78.354525
  0
LINE
  8
型材断面
  6
CONTINUOUS
 10
110.161728
 20
-55.715712
 11
66.14681
 21
-76.085715
  0
LINE
  8
型材断面
  6
CONTINUOUS
 10
111.157373
 20
-56.081355
 11
110.161728
 21
-55.715712
  0
LINE
  8
型材断面
  6
CONTINUOUS
 10
111.157373
 20
-56.081355
 11
111.577372
 21
-56.98888
  0
LINE
  8
型材断面
  6
CONTINUOUS
 10
111.211728
 20
-57.984523
 11
67.19681
 21
-78.354525
  0
LINE
  8
型材断面
  6
CONTINUOUS
 10
111.577372
 20
-56.98888
 11
111.211728
 21
-57.984523
  0
INSERT
  2
*GRP_0012
  8
ボルト／ビス
  6
CONTINUOUS
 62
    64
 10
0.0
 20
0.0
  0
INSERT
  2
*GRP_0013
  8
ボルト／ビス
  6
CONTINUOUS
 62
    64
 10
0.0
 20
0.0
  0
INSERT
  2
*GRP_0014
  8
ボルト／ビス
  6
CONTINUOUS
 62
    64
 10
0.0
 20
0.0
  0
ENDBLK
  0
BLOCK
  2
*DIM_0004
 70
    65
 10
0.0
 20
0.0
  0
LINE
  8
寸法
  6
BYBLOCK
 62
     0
 10
-95.755937
 20
-35.080245
 11
-95.755937
 21
-33.416065
  0
LINE
  8
寸法
  6
BYBLOCK
 62
     0
 10
-30.755937
 20
-35.080245
 11
-30.755937
 21
-33.416065
  0
LINE
  8
寸法
  6
BYBLOCK
 62
     0
 10
-95.755937
 20
-33.416065
 11
-30.755937
 21
-33.416065
  0
POINT
  8
寸法
 62
     0
 10
-95.755937
 20
-33.416065
  0
POINT
  8
寸法
 62
     0
 10
-30.755937
 20
-33.416065
  0
TEXT
  7
TextStyle03
  8
寸法
  6
CONTINUOUS
 62
     0
 10
-74.99375
 20
-33.05
  1
呼称寸法　1300
 40
3.0
 72
     5
 11
-51.55625
 21
-33.05
  0
ENDBLK
  0
BLOCK
  2
*DIM_0005
 70
    65
 10
0.0
 20
0.0
  0
LINE
  8
寸法
  6
BYBLOCK
 62
     0
 10
-62.255935
 20
-52.069873
 11
-10.143282
 21
-52.069873
  0
LINE
  8
寸法
  6
BYBLOCK
 62
     0
 10
-10.143282
 20
-69.569873
 11
-10.143282
 21
-52.069873
  0
POINT
  8
寸法
 62
     0
 10
-10.143282
 20
-69.569873
  0
POINT
  8
寸法
 62
     0
 10
-10.143282
 20
-52.069873
  0
TEXT
  7
TextStyle03
  8
寸法
  6
CONTINUOUS
 62
     0
 10
-10.525
 20
-63.2875
  1
350
 40
3.0
 50
90.0
 72
     5
 11
-10.525
 21
-58.4125
  0
ENDBLK
  0
BLOCK
  2
*DIM_0006
 70
    65
 10
0.0
 20
0.0
  0
LINE
  8
寸法
  6
BYBLOCK
 62
     0
 10
-29.755937
 20
59.370385
 11
-9.20651
 21
59.370385
  0
LINE
  8
寸法
  6
BYBLOCK
 62
     0
 10
-21.732063
 20
53.820385
 11
-9.20651
 21
53.820385
  0
LINE
  8
寸法
  6
BYBLOCK
 62
     0
 10
-9.20651
 20
59.370385
 11
-9.20651
 21
53.820385
  0
POINT
  8
寸法
 62
     0
 10
-9.20651
 20
59.370385
  0
POINT
  8
寸法
 62
     0
 10
-9.20651
 20
53.820385
  0
TEXT
  7
TextStyle03
  8
寸法
  6
CONTINUOUS
 62
     0
 10
-9.6
 20
54.1375
  1
111
 40
3.0
 50
90.0
 72
     5
 11
-9.6
 21
59.0125
  0
ENDBLK
  0
BLOCK
  2
*DIM_0007
 70
    65
 10
0.0
 20
0.0
  0
LINE
  8
寸法
  6
BYBLOCK
 62
     0
 10
-29.755937
 20
-5.62962
 11
-9.20651
 21
-5.62962
  0
LINE
  8
寸法
  6
BYBLOCK
 62
     0
 10
-21.732063
 20
-0.07962
 11
-9.20651
 21
-0.07962
  0
LINE
  8
寸法
  6
BYBLOCK
 62
     0
 10
-9.20651
 20
-5.62962
 11
-9.20651
 21
-0.07962
  0
POINT
  8
寸法
 62
     0
 10
-9.20651
 20
-5.62962
  0
POINT
  8
寸法
 62
     0
 10
-9.20651
 20
-0.07962
  0
TEXT
  7
TextStyle03
  8
寸法
  6
CONTINUOUS
 62
     0
 10
-9.6
 20
-5.3125
  1
111
 40
3.0
 50
90.0
 72
     5
 11
-9.6
 21
-0.4375
  0
ENDBLK
  0
BLOCK
  2
*GRP_0008
 70
    65
 10
0.0
 20
0.0
  0
POLYLINE
  8
寸法
  6
BYBLOCK
 62
     0
 66
     1
  0
VERTEX
  8
寸法
 10
-34.969535
 20
20.654355
  0
VERTEX
  8
寸法
 10
-28.553032
 20
14.237853
  0
VERTEX
  8
寸法
 10
-22.645905
 20
14.237853
  0
SEQEND
  0
ENDBLK
  0
BLOCK
  2
*GRP_0009
 70
    65
 10
0.0
 20
0.0
  0
INSERT
  2
*GRP_0015
  8
補助線
  6
CONTINUOUS
 62
    64
 10
0.0
 20
0.0
  0
LINE
  8
ボルト／ビス
  6
CONTINUOUS
 62
    64
 10
67.319563
 20
-56.64095
 11
66.859557
 21
-56.682535
  0
LINE
  8
ボルト／ビス
  6
CONTINUOUS
 62
    64
 10
67.319563
 20
-56.64095
 11
67.585577
 21
-57.018535
  0
LINE
  8
ボルト／ビス
  6
CONTINUOUS
 62
    64
 10
66.931585
 20
-57.479285
 11
66.66557
 21
-57.101703
  0
LINE
  8
ボルト／ビス
  6
CONTINUOUS
 62
    64
 10
66.931585
 20
-57.479285
 11
67.391588
 21
-57.437702
  0
CIRCLE
  8
ボルト／ビス
  6
CONTINUOUS
 62
    64
 10
67.125573
 20
-57.060117
 40
0.4
  0
LINE
  8
ボルト／ビス
  6
CONTINUOUS
 62
    64
 10
67.585577
 20
-57.018535
 11
67.391588
 21
-57.437702
  0
LINE
  8
ボルト／ビス
  6
CONTINUOUS
 62
    64
 10
66.859557
 20
-56.682535
 11
66.66557
 21
-57.101703
  0
ENDBLK
  0
BLOCK
  2
*GRP_0010
 70
    65
 10
0.0
 20
0.0
  0
INSERT
  2
*GRP_0016
  8
補助線
  6
CONTINUOUS
 62
    64
 10
0.0
 20
0.0
  0
LINE
  8
ボルト／ビス
  6
CONTINUOUS
 62
    64
 10
110.426958
 20
-76.590953
 11
110.692973
 21
-76.968537
  0
LINE
  8
ボルト／ビス
  6
CONTINUOUS
 62
    64
 10
110.426958
 20
-76.590953
 11
109.966952
 21
-76.632538
  0
LINE
  8
ボルト／ビス
  6
CONTINUOUS
 62
    64
 10
110.038977
 20
-77.429288
 11
110.498983
 21
-77.387702
  0
LINE
  8
ボルト／ビス
  6
CONTINUOUS
 62
    64
 10
110.038977
 20
-77.429288
 11
109.772962
 21
-77.051703
  0
CIRCLE
  8
ボルト／ビス
  6
CONTINUOUS
 62
    64
 10
110.232968
 20
-77.01012
 40
0.4
  0
LINE
  8
ボルト／ビス
  6
CONTINUOUS
 62
    64
 10
109.966952
 20
-76.632538
 11
109.772962
 21
-77.051703
  0
LINE
  8
ボルト／ビス
  6
CONTINUOUS
 62
    64
 10
110.692973
 20
-76.968537
 11
110.498983
 21
-77.387702
  0
ENDBLK
  0
BLOCK
  2
*GRP_0011
 70
    65
 10
0.0
 20
0.0
  0
INSERT
  2
*GRP_0017
  8
補助線
  6
CONTINUOUS
 62
    64
 10
0.0
 20
0.0
  0
LINE
  8
ボルト／ビス
  6
CONTINUOUS
 62
    64
 10
88.87326
 20
-66.615953
 11
88.413255
 21
-66.657535
  0
LINE
  8
ボルト／ビス
  6
CONTINUOUS
 62
    64
 10
88.87326
 20
-66.615953
 11
89.139275
 21
-66.993535
  0
LINE
  8
ボルト／ビス
  6
CONTINUOUS
 62
    64
 10
88.48528
 20
-67.454285
 11
88.219265
 21
-67.076703
  0
LINE
  8
ボルト／ビス
  6
CONTINUOUS
 62
    64
 10
88.48528
 20
-67.454285
 11
88.945285
 21
-67.412702
  0
CIRCLE
  8
ボルト／ビス
  6
CONTINUOUS
 62
    64
 10
88.67927
 20
-67.03512
 40
0.4
  0
LINE
  8
ボルト／ビス
  6
CONTINUOUS
 62
    64
 10
89.139275
 20
-66.993535
 11
88.945285
 21
-67.412702
  0
LINE
  8
ボルト／ビス
  6
CONTINUOUS
 62
    64
 10
88.413255
 20
-66.657535
 11
88.219265
 21
-67.076703
  0
ENDBLK
  0
BLOCK
  2
*GRP_0012
 70
    65
 10
0.0
 20
0.0
  0
INSERT
  2
*GRP_0018
  8
補助線
  6
CONTINUOUS
 62
    64
 10
0.0
 20
0.0
  0
LINE
  8
ボルト／ビス
  6
CONTINUOUS
 62
    64
 10
110.038977
 20
-56.64095
 11
110.498983
 21
-56.682535
  0
LINE
  8
ボルト／ビス
  6
CONTINUOUS
 62
    64
 10
110.038977
 20
-56.64095
 11
109.772962
 21
-57.018535
  0
LINE
  8
ボルト／ビス
  6
CONTINUOUS
 62
    64
 10
110.426955
 20
-57.479285
 11
110.69297
 21
-57.101703
  0
LINE
  8
ボルト／ビス
  6
CONTINUOUS
 62
    64
 10
110.426955
 20
-57.479285
 11
109.966952
 21
-57.437702
  0
CIRCLE
  8
ボルト／ビス
  6
CONTINUOUS
 62
    64
 10
110.232968
 20
-57.060117
 40
0.4
  0
LINE
  8
ボルト／ビス
  6
CONTINUOUS
 62
    64
 10
109.772962
 20
-57.018535
 11
109.966952
 21
-57.437702
  0
LINE
  8
ボルト／ビス
  6
CONTINUOUS
 62
    64
 10
110.498983
 20
-56.682535
 11
110.69297
 21
-57.101703
  0
ENDBLK
  0
BLOCK
  2
*GRP_0013
 70
    65
 10
0.0
 20
0.0
  0
INSERT
  2
*GRP_0019
  8
補助線
  6
CONTINUOUS
 62
    64
 10
0.0
 20
0.0
  0
LINE
  8
ボルト／ビス
  6
CONTINUOUS
 62
    64
 10
66.931582
 20
-76.590953
 11
66.665567
 21
-76.968537
  0
LINE
  8
ボルト／ビス
  6
CONTINUOUS
 62
    64
 10
66.931582
 20
-76.590953
 11
67.391588
 21
-76.632538
  0
LINE
  8
ボルト／ビス
  6
CONTINUOUS
 62
    64
 10
67.319563
 20
-77.429288
 11
66.859557
 21
-77.387702
  0
LINE
  8
ボルト／ビス
  6
CONTINUOUS
 62
    64
 10
67.319563
 20
-77.429288
 11
67.585577
 21
-77.051703
  0
CIRCLE
  8
ボルト／ビス
  6
CONTINUOUS
 62
    64
 10
67.125573
 20
-77.01012
 40
0.4
  0
LINE
  8
ボルト／ビス
  6
CONTINUOUS
 62
    64
 10
67.391588
 20
-76.632538
 11
67.585577
 21
-77.051703
  0
LINE
  8
ボルト／ビス
  6
CONTINUOUS
 62
    64
 10
66.665567
 20
-76.968537
 11
66.859557
 21
-77.387702
  0
ENDBLK
  0
BLOCK
  2
*GRP_0014
 70
    65
 10
0.0
 20
0.0
  0
INSERT
  2
*GRP_0020
  8
補助線
  6
CONTINUOUS
 62
    64
 10
0.0
 20
0.0
  0
LINE
  8
ボルト／ビス
  6
CONTINUOUS
 62
    64
 10
88.48528
 20
-66.615953
 11
88.945285
 21
-66.657535
  0
LINE
  8
ボルト／ビス
  6
CONTINUOUS
 62
    64
 10
88.48528
 20
-66.615953
 11
88.219265
 21
-66.993535
  0
LINE
  8
ボルト／ビス
  6
CONTINUOUS
 62
    64
 10
88.87326
 20
-67.454285
 11
89.139275
 21
-67.076703
  0
LINE
  8
ボルト／ビス
  6
CONTINUOUS
 62
    64
 10
88.87326
 20
-67.454285
 11
88.413255
 21
-67.412702
  0
CIRCLE
  8
ボルト／ビス
  6
CONTINUOUS
 62
    64
 10
88.67927
 20
-67.03512
 40
0.4
  0
LINE
  8
ボルト／ビス
  6
CONTINUOUS
 62
    64
 10
88.219265
 20
-66.993535
 11
88.413255
 21
-67.412702
  0
LINE
  8
ボルト／ビス
  6
CONTINUOUS
 62
    64
 10
88.945285
 20
-66.657535
 11
89.139275
 21
-67.076703
  0
ENDBLK
  0
BLOCK
  2
*GRP_0015
 70
    65
 10
0.0
 20
0.0
  0
LINE
  8
補助線
  6
BYBLOCK
 62
    64
 10
67.239015
 20
-57.112618
 11
67.012133
 21
-57.007618
  0
LINE
  8
補助線
  6
BYBLOCK
 62
    64
 10
67.178073
 20
-56.946677
 11
67.073072
 21
-57.173557
  0
ENDBLK
  0
BLOCK
  2
*GRP_0016
 70
    65
 10
0.0
 20
0.0
  0
LINE
  8
補助線
  6
BYBLOCK
 62
    64
 10
110.119528
 20
-76.95762
 11
110.346407
 21
-77.06262
  0
LINE
  8
補助線
  6
BYBLOCK
 62
    64
 10
110.285468
 20
-76.89668
 11
110.180467
 21
-77.12356
  0
ENDBLK
  0
BLOCK
  2
*GRP_0017
 70
    65
 10
0.0
 20
0.0
  0
LINE
  8
補助線
  6
BYBLOCK
 62
    64
 10
88.79271
 20
-67.08762
 11
88.56583
 21
-66.98262
  0
LINE
  8
補助線
  6
BYBLOCK
 62
    64
 10
88.73177
 20
-66.921677
 11
88.62677
 21
-67.14856
  0
ENDBLK
  0
BLOCK
  2
*GRP_0018
 70
    65
 10
0.0
 20
0.0
  0
LINE
  8
補助線
  6
BYBLOCK
 62
    64
 10
110.119525
 20
-57.112618
 11
110.346407
 21
-57.007618
  0
LINE
  8
補助線
  6
BYBLOCK
 62
    64
 10
110.180467
 20
-56.946677
 11
110.285468
 21
-57.173557
  0
ENDBLK
  0
BLOCK
  2
*GRP_0019
 70
    65
 10
0.0
 20
0.0
  0
LINE
  8
補助線
  6
BYBLOCK
 62
    64
 10
67.239012
 20
-76.95762
 11
67.012133
 21
-77.06262
  0
LINE
  8
補助線
  6
BYBLOCK
 62
    64
 10
67.073072
 20
-76.89668
 11
67.178073
 21
-77.12356
  0
ENDBLK
  0
BLOCK
  2
*GRP_0020
 70
    65
 10
0.0
 20
0.0
  0
LINE
  8
補助線
  6
BYBLOCK
 62
    64
 10
88.56583
 20
-67.08762
 11
88.79271
 21
-66.98262
  0
LINE
  8
補助線
  6
BYBLOCK
 62
    64
 10
88.62677
 20
-66.921677
 11
88.73177
 21
-67.14856
  0
ENDBLK
  0
BLOCK
  2
*GRP_0021
 70
    65
 10
0.0
 20
0.0
  0
INSERT
  2
*GRP_0022
  8
補助線
  6
CONTINUOUS
 10
0.0
 20
0.0
  0
LINE
  8
ボルト／ビス
  6
CONTINUOUS
 10
-55.755937
 20
60.659058
 11
-56.005937
 21
60.51472
  0
LINE
  8
ボルト／ビス
  6
CONTINUOUS
 10
-55.755937
 20
60.659058
 11
-55.505937
 21
60.51472
  0
LINE
  8
ボルト／ビス
  6
CONTINUOUS
 10
-56.005937
 20
60.226045
 11
-55.755937
 21
60.081708
  0
LINE
  8
ボルト／ビス
  6
CONTINUOUS
 10
-55.505937
 20
60.226045
 11
-55.755937
 21
60.081708
  0
CIRCLE
  8
ボルト／ビス
  6
CONTINUOUS
 10
-55.755937
 20
60.370383
 40
0.25
  0
LINE
  8
ボルト／ビス
  6
CONTINUOUS
 10
-55.505937
 20
60.51472
 11
-55.505937
 21
60.226045
  0
LINE
  8
ボルト／ビス
  6
CONTINUOUS
 10
-56.005937
 20
60.226045
 11
-56.005937
 21
60.51472
  0
ENDBLK
  0
BLOCK
  2
*GRP_0022
 70
    65
 10
0.0
 20
0.0
  0
LINE
  8
補助線
  6
BYBLOCK
 62
     0
 10
-55.630937
 20
60.370383
 11
-55.880937
 21
60.370383
  0
LINE
  8
補助線
  6
BYBLOCK
 62
     0
 10
-55.755937
 20
60.495383
 11
-55.755937
 21
60.245383
  0
ENDBLK
  0
BLOCK
  2
*GRP_0023
 70
    65
 10
0.0
 20
0.0
  0
INSERT
  2
*GRP_0024
  8
補助線
  6
CONTINUOUS
 10
0.0
 20
0.0
  0
LINE
  8
ボルト／ビス
  6
CONTINUOUS
 10
-40.755937
 20
60.659058
 11
-41.005937
 21
60.51472
  0
LINE
  8
ボルト／ビス
  6
CONTINUOUS
 10
-40.755937
 20
60.659058
 11
-40.505937
 21
60.51472
  0
LINE
  8
ボルト／ビス
  6
CONTINUOUS
 10
-41.005937
 20
60.226045
 11
-40.755937
 21
60.081708
  0
LINE
  8
ボルト／ビス
  6
CONTINUOUS
 10
-40.505937
 20
60.226045
 11
-40.755937
 21
60.081708
  0
CIRCLE
  8
ボルト／ビス
  6
CONTINUOUS
 10
-40.755937
 20
60.370383
 40
0.25
  0
LINE
  8
ボルト／ビス
  6
CONTINUOUS
 10
-40.505937
 20
60.51472
 11
-40.505937
 21
60.226045
  0
LINE
  8
ボルト／ビス
  6
CONTINUOUS
 10
-41.005937
 20
60.226045
 11
-41.005937
 21
60.51472
  0
ENDBLK
  0
BLOCK
  2
*GRP_0024
 70
    65
 10
0.0
 20
0.0
  0
LINE
  8
補助線
  6
BYBLOCK
 62
     0
 10
-40.630937
 20
60.370383
 11
-40.880937
 21
60.370383
  0
LINE
  8
補助線
  6
BYBLOCK
 62
     0
 10
-40.755937
 20
60.495383
 11
-40.755937
 21
60.245383
  0
ENDBLK
  0
BLOCK
  2
*GRP_0025
 70
    65
 10
0.0
 20
0.0
  0
INSERT
  2
*GRP_0027
  8
補助線
  6
CONTINUOUS
 10
0.0
 20
0.0
  0
LINE
  8
ボルト／ビス
  6
CONTINUOUS
 10
-70.755937
 20
60.659058
 11
-70.505937
 21
60.51472
  0
LINE
  8
ボルト／ビス
  6
CONTINUOUS
 10
-70.755937
 20
60.659058
 11
-71.005937
 21
60.51472
  0
LINE
  8
ボルト／ビス
  6
CONTINUOUS
 10
-70.505937
 20
60.226045
 11
-70.755937
 21
60.081708
  0
LINE
  8
ボルト／ビス
  6
CONTINUOUS
 10
-71.005937
 20
60.226045
 11
-70.755937
 21
60.081708
  0
CIRCLE
  8
ボルト／ビス
  6
CONTINUOUS
 10
-70.755937
 20
60.370383
 40
0.25
  0
LINE
  8
ボルト／ビス
  6
CONTINUOUS
 10
-71.005937
 20
60.51472
 11
-71.005937
 21
60.226045
  0
LINE
  8
ボルト／ビス
  6
CONTINUOUS
 10
-70.505937
 20
60.226045
 11
-70.505937
 21
60.51472
  0
ENDBLK
  0
BLOCK
  2
*GRP_0026
 70
    65
 10
0.0
 20
0.0
  0
INSERT
  2
*GRP_0028
  8
補助線
  6
CONTINUOUS
 10
0.0
 20
0.0
  0
LINE
  8
ボルト／ビス
  6
CONTINUOUS
 10
-85.755937
 20
60.659058
 11
-85.505937
 21
60.51472
  0
LINE
  8
ボルト／ビス
  6
CONTINUOUS
 10
-85.755937
 20
60.659058
 11
-86.005937
 21
60.51472
  0
LINE
  8
ボルト／ビス
  6
CONTINUOUS
 10
-85.505937
 20
60.226045
 11
-85.755937
 21
60.081708
  0
LINE
  8
ボルト／ビス
  6
CONTINUOUS
 10
-86.005937
 20
60.226045
 11
-85.755937
 21
60.081708
  0
CIRCLE
  8
ボルト／ビス
  6
CONTINUOUS
 10
-85.755937
 20
60.370383
 40
0.25
  0
LINE
  8
ボルト／ビス
  6
CONTINUOUS
 10
-86.005937
 20
60.51472
 11
-86.005937
 21
60.226045
  0
LINE
  8
ボルト／ビス
  6
CONTINUOUS
 10
-85.505937
 20
60.226045
 11
-85.505937
 21
60.51472
  0
ENDBLK
  0
BLOCK
  2
*GRP_0027
 70
    65
 10
0.0
 20
0.0
  0
LINE
  8
補助線
  6
BYBLOCK
 62
     0
 10
-70.880937
 20
60.370383
 11
-70.630937
 21
60.370383
  0
LINE
  8
補助線
  6
BYBLOCK
 62
     0
 10
-70.755937
 20
60.495383
 11
-70.755937
 21
60.245383
  0
ENDBLK
  0
BLOCK
  2
*GRP_0028
 70
    65
 10
0.0
 20
0.0
  0
LINE
  8
補助線
  6
BYBLOCK
 62
     0
 10
-85.880937
 20
60.370383
 11
-85.630937
 21
60.370383
  0
LINE
  8
補助線
  6
BYBLOCK
 62
     0
 10
-85.755937
 20
60.495383
 11
-85.755937
 21
60.245383
  0
ENDBLK
  0
BLOCK
  2
*GRP_0029
 70
    65
 10
0.0
 20
0.0
  0
INSERT
  2
*GRP_0031
  8
補助線
  6
CONTINUOUS
 10
0.0
 20
0.0
  0
LINE
  8
ボルト／ビス
  6
CONTINUOUS
 10
-97.04461
 20
34.370385
 11
-96.900273
 21
34.120385
  0
LINE
  8
ボルト／ビス
  6
CONTINUOUS
 10
-97.04461
 20
34.370385
 11
-96.900273
 21
34.620385
  0
LINE
  8
ボルト／ビス
  6
CONTINUOUS
 10
-96.611597
 20
34.120385
 11
-96.46726
 21
34.370385
  0
LINE
  8
ボルト／ビス
  6
CONTINUOUS
 10
-96.611597
 20
34.620385
 11
-96.46726
 21
34.370385
  0
CIRCLE
  8
ボルト／ビス
  6
CONTINUOUS
 10
-96.755935
 20
34.370385
 40
0.25
  0
LINE
  8
ボルト／ビス
  6
CONTINUOUS
 10
-96.900273
 20
34.620385
 11
-96.611597
 21
34.620385
  0
LINE
  8
ボルト／ビス
  6
CONTINUOUS
 10
-96.611597
 20
34.120385
 11
-96.900273
 21
34.120385
  0
ENDBLK
  0
BLOCK
  2
*GRP_0030
 70
    65
 10
0.0
 20
0.0
  0
INSERT
  2
*GRP_0032
  8
補助線
  6
CONTINUOUS
 10
0.0
 20
0.0
  0
LINE
  8
ボルト／ビス
  6
CONTINUOUS
 10
-97.04461
 20
49.370385
 11
-96.900273
 21
49.120385
  0
LINE
  8
ボルト／ビス
  6
CONTINUOUS
 10
-97.04461
 20
49.370385
 11
-96.900273
 21
49.620385
  0
LINE
  8
ボルト／ビス
  6
CONTINUOUS
 10
-96.611597
 20
49.120385
 11
-96.46726
 21
49.370385
  0
LINE
  8
ボルト／ビス
  6
CONTINUOUS
 10
-96.611597
 20
49.620385
 11
-96.46726
 21
49.370385
  0
CIRCLE
  8
ボルト／ビス
  6
CONTINUOUS
 10
-96.755935
 20
49.370385
 40
0.25
  0
LINE
  8
ボルト／ビス
  6
CONTINUOUS
 10
-96.900273
 20
49.620385
 11
-96.611597
 21
49.620385
  0
LINE
  8
ボルト／ビス
  6
CONTINUOUS
 10
-96.611597
 20
49.120385
 11
-96.900273
 21
49.120385
  0
ENDBLK
  0
BLOCK
  2
*GRP_0031
 70
    65
 10
0.0
 20
0.0
  0
LINE
  8
補助線
  6
BYBLOCK
 62
     0
 10
-96.755935
 20
34.495385
 11
-96.755935
 21
34.245385
  0
LINE
  8
補助線
  6
BYBLOCK
 62
     0
 10
-96.880935
 20
34.370385
 11
-96.630935
 21
34.370385
  0
ENDBLK
  0
BLOCK
  2
*GRP_0032
 70
    65
 10
0.0
 20
0.0
  0
LINE
  8
補助線
  6
BYBLOCK
 62
     0
 10
-96.755935
 20
49.495385
 11
-96.755935
 21
49.245385
  0
LINE
  8
補助線
  6
BYBLOCK
 62
     0
 10
-96.880935
 20
49.370385
 11
-96.630935
 21
49.370385
  0
ENDBLK
  0
BLOCK
  2
*GRP_0033
 70
    65
 10
0.0
 20
0.0
  0
INSERT
  2
*GRP_0035
  8
補助線
  6
CONTINUOUS
 10
0.0
 20
0.0
  0
LINE
  8
ボルト／ビス
  6
CONTINUOUS
 10
-97.04461
 20
19.37038
 11
-96.900273
 21
19.62038
  0
LINE
  8
ボルト／ビス
  6
CONTINUOUS
 10
-97.04461
 20
19.37038
 11
-96.900273
 21
19.12038
  0
LINE
  8
ボルト／ビス
  6
CONTINUOUS
 10
-96.611597
 20
19.62038
 11
-96.46726
 21
19.37038
  0
LINE
  8
ボルト／ビス
  6
CONTINUOUS
 10
-96.611597
 20
19.12038
 11
-96.46726
 21
19.37038
  0
CIRCLE
  8
ボルト／ビス
  6
CONTINUOUS
 10
-96.755935
 20
19.37038
 40
0.25
  0
LINE
  8
ボルト／ビス
  6
CONTINUOUS
 10
-96.900273
 20
19.12038
 11
-96.611597
 21
19.12038
  0
LINE
  8
ボルト／ビス
  6
CONTINUOUS
 10
-96.611597
 20
19.62038
 11
-96.900273
 21
19.62038
  0
ENDBLK
  0
BLOCK
  2
*GRP_0034
 70
    65
 10
0.0
 20
0.0
  0
INSERT
  2
*GRP_0036
  8
補助線
  6
CONTINUOUS
 10
0.0
 20
0.0
  0
LINE
  8
ボルト／ビス
  6
CONTINUOUS
 10
-97.04461
 20
4.37038
 11
-96.900273
 21
4.62038
  0
LINE
  8
ボルト／ビス
  6
CONTINUOUS
 10
-97.04461
 20
4.37038
 11
-96.900273
 21
4.12038
  0
LINE
  8
ボルト／ビス
  6
CONTINUOUS
 10
-96.611597
 20
4.62038
 11
-96.46726
 21
4.37038
  0
LINE
  8
ボルト／ビス
  6
CONTINUOUS
 10
-96.611597
 20
4.12038
 11
-96.46726
 21
4.37038
  0
CIRCLE
  8
ボルト／ビス
  6
CONTINUOUS
 10
-96.755935
 20
4.37038
 40
0.25
  0
LINE
  8
ボルト／ビス
  6
CONTINUOUS
 10
-96.900273
 20
4.12038
 11
-96.611597
 21
4.12038
  0
LINE
  8
ボルト／ビス
  6
CONTINUOUS
 10
-96.611597
 20
4.62038
 11
-96.900273
 21
4.62038
  0
ENDBLK
  0
BLOCK
  2
*GRP_0035
 70
    65
 10
0.0
 20
0.0
  0
LINE
  8
補助線
  6
BYBLOCK
 62
     0
 10
-96.755935
 20
19.24538
 11
-96.755935
 21
19.49538
  0
LINE
  8
補助線
  6
BYBLOCK
 62
     0
 10
-96.880935
 20
19.37038
 11
-96.630935
 21
19.37038
  0
ENDBLK
  0
BLOCK
  2
*GRP_0036
 70
    65
 10
0.0
 20
0.0
  0
LINE
  8
補助線
  6
BYBLOCK
 62
     0
 10
-96.755935
 20
4.24538
 11
-96.755935
 21
4.49538
  0
LINE
  8
補助線
  6
BYBLOCK
 62
     0
 10
-96.880935
 20
4.37038
 11
-96.630935
 21
4.37038
  0
ENDBLK
  0
BLOCK
  2
*GRP_0037
 70
    65
 10
0.0
 20
0.0
  0
INSERT
  2
*GRP_0039
  8
補助線
  6
CONTINUOUS
 10
0.0
 20
0.0
  0
LINE
  8
ボルト／ビス
  6
CONTINUOUS
 10
-70.75594
 20
-6.91829
 11
-70.50594
 21
-6.773952
  0
LINE
  8
ボルト／ビス
  6
CONTINUOUS
 10
-70.75594
 20
-6.91829
 11
-71.00594
 21
-6.773952
  0
LINE
  8
ボルト／ビス
  6
CONTINUOUS
 10
-70.50594
 20
-6.485278
 11
-70.75594
 21
-6.34094
  0
LINE
  8
ボルト／ビス
  6
CONTINUOUS
 10
-71.00594
 20
-6.485278
 11
-70.75594
 21
-6.34094
  0
CIRCLE
  8
ボルト／ビス
  6
CONTINUOUS
 10
-70.75594
 20
-6.629615
 40
0.25
  0
LINE
  8
ボルト／ビス
  6
CONTINUOUS
 10
-71.00594
 20
-6.773952
 11
-71.00594
 21
-6.485278
  0
LINE
  8
ボルト／ビス
  6
CONTINUOUS
 10
-70.50594
 20
-6.485278
 11
-70.50594
 21
-6.773952
  0
ENDBLK
  0
BLOCK
  2
*GRP_0038
 70
    65
 10
0.0
 20
0.0
  0
INSERT
  2
*GRP_0040
  8
補助線
  6
CONTINUOUS
 10
0.0
 20
0.0
  0
LINE
  8
ボルト／ビス
  6
CONTINUOUS
 10
-85.75594
 20
-6.91829
 11
-85.50594
 21
-6.773952
  0
LINE
  8
ボルト／ビス
  6
CONTINUOUS
 10
-85.75594
 20
-6.91829
 11
-86.00594
 21
-6.773952
  0
LINE
  8
ボルト／ビス
  6
CONTINUOUS
 10
-85.50594
 20
-6.485278
 11
-85.75594
 21
-6.34094
  0
LINE
  8
ボルト／ビス
  6
CONTINUOUS
 10
-86.00594
 20
-6.485278
 11
-85.75594
 21
-6.34094
  0
CIRCLE
  8
ボルト／ビス
  6
CONTINUOUS
 10
-85.75594
 20
-6.629615
 40
0.25
  0
LINE
  8
ボルト／ビス
  6
CONTINUOUS
 10
-86.00594
 20
-6.773952
 11
-86.00594
 21
-6.485278
  0
LINE
  8
ボルト／ビス
  6
CONTINUOUS
 10
-85.50594
 20
-6.485278
 11
-85.50594
 21
-6.773952
  0
ENDBLK
  0
BLOCK
  2
*GRP_0039
 70
    65
 10
0.0
 20
0.0
  0
LINE
  8
補助線
  6
BYBLOCK
 62
     0
 10
-70.88094
 20
-6.629615
 11
-70.63094
 21
-6.629615
  0
LINE
  8
補助線
  6
BYBLOCK
 62
     0
 10
-70.75594
 20
-6.754615
 11
-70.75594
 21
-6.504615
  0
ENDBLK
  0
BLOCK
  2
*GRP_0040
 70
    65
 10
0.0
 20
0.0
  0
LINE
  8
補助線
  6
BYBLOCK
 62
     0
 10
-85.88094
 20
-6.629615
 11
-85.63094
 21
-6.629615
  0
LINE
  8
補助線
  6
BYBLOCK
 62
     0
 10
-85.75594
 20
-6.754615
 11
-85.75594
 21
-6.504615
  0
ENDBLK
  0
BLOCK
  2
*GRP_0041
 70
    65
 10
0.0
 20
0.0
  0
INSERT
  2
*GRP_0043
  8
補助線
  6
CONTINUOUS
 10
0.0
 20
0.0
  0
LINE
  8
ボルト／ビス
  6
CONTINUOUS
 10
-55.755935
 20
-6.91829
 11
-56.005935
 21
-6.773952
  0
LINE
  8
ボルト／ビス
  6
CONTINUOUS
 10
-55.755935
 20
-6.91829
 11
-55.505935
 21
-6.773952
  0
LINE
  8
ボルト／ビス
  6
CONTINUOUS
 10
-56.005935
 20
-6.485278
 11
-55.755935
 21
-6.34094
  0
LINE
  8
ボルト／ビス
  6
CONTINUOUS
 10
-55.505935
 20
-6.485278
 11
-55.755935
 21
-6.34094
  0
CIRCLE
  8
ボルト／ビス
  6
CONTINUOUS
 10
-55.755935
 20
-6.629615
 40
0.25
  0
LINE
  8
ボルト／ビス
  6
CONTINUOUS
 10
-55.505935
 20
-6.773952
 11
-55.505935
 21
-6.485278
  0
LINE
  8
ボルト／ビス
  6
CONTINUOUS
 10
-56.005935
 20
-6.485278
 11
-56.005935
 21
-6.773952
  0
ENDBLK
  0
BLOCK
  2
*GRP_0042
 70
    65
 10
0.0
 20
0.0
  0
INSERT
  2
*GRP_0044
  8
補助線
  6
CONTINUOUS
 10
0.0
 20
0.0
  0
LINE
  8
ボルト／ビス
  6
CONTINUOUS
 10
-40.755935
 20
-6.91829
 11
-41.005935
 21
-6.773952
  0
LINE
  8
ボルト／ビス
  6
CONTINUOUS
 10
-40.755935
 20
-6.91829
 11
-40.505935
 21
-6.773952
  0
LINE
  8
ボルト／ビス
  6
CONTINUOUS
 10
-41.005935
 20
-6.485278
 11
-40.755935
 21
-6.34094
  0
LINE
  8
ボルト／ビス
  6
CONTINUOUS
 10
-40.505935
 20
-6.485278
 11
-40.755935
 21
-6.34094
  0
CIRCLE
  8
ボルト／ビス
  6
CONTINUOUS
 10
-40.755935
 20
-6.629615
 40
0.25
  0
LINE
  8
ボルト／ビス
  6
CONTINUOUS
 10
-40.505935
 20
-6.773952
 11
-40.505935
 21
-6.485278
  0
LINE
  8
ボルト／ビス
  6
CONTINUOUS
 10
-41.005935
 20
-6.485278
 11
-41.005935
 21
-6.773952
  0
ENDBLK
  0
BLOCK
  2
*GRP_0043
 70
    65
 10
0.0
 20
0.0
  0
LINE
  8
補助線
  6
BYBLOCK
 62
     0
 10
-55.630935
 20
-6.629615
 11
-55.880935
 21
-6.629615
  0
LINE
  8
補助線
  6
BYBLOCK
 62
     0
 10
-55.755935
 20
-6.754615
 11
-55.755935
 21
-6.504615
  0
ENDBLK
  0
BLOCK
  2
*GRP_0044
 70
    65
 10
0.0
 20
0.0
  0
LINE
  8
補助線
  6
BYBLOCK
 62
     0
 10
-40.630935
 20
-6.629615
 11
-40.880935
 21
-6.629615
  0
LINE
  8
補助線
  6
BYBLOCK
 62
     0
 10
-40.755935
 20
-6.754615
 11
-40.755935
 21
-6.504615
  0
ENDBLK
  0
BLOCK
  2
*GRP_0045
 70
    65
 10
0.0
 20
0.0
  0
INSERT
  2
*GRP_0047
  8
補助線
  6
CONTINUOUS
 10
0.0
 20
0.0
  0
LINE
  8
ボルト／ビス
  6
CONTINUOUS
 10
-29.467263
 20
19.370383
 11
-29.6116
 21
19.620383
  0
LINE
  8
ボルト／ビス
  6
CONTINUOUS
 10
-29.467263
 20
19.370383
 11
-29.6116
 21
19.120383
  0
LINE
  8
ボルト／ビス
  6
CONTINUOUS
 10
-29.900275
 20
19.620383
 11
-30.044613
 21
19.370383
  0
LINE
  8
ボルト／ビス
  6
CONTINUOUS
 10
-29.900275
 20
19.120383
 11
-30.044613
 21
19.370383
  0
CIRCLE
  8
ボルト／ビス
  6
CONTINUOUS
 10
-29.755937
 20
19.370383
 40
0.25
  0
LINE
  8
ボルト／ビス
  6
CONTINUOUS
 10
-29.6116
 20
19.120383
 11
-29.900275
 21
19.120383
  0
LINE
  8
ボルト／ビス
  6
CONTINUOUS
 10
-29.900275
 20
19.620383
 11
-29.6116
 21
19.620383
  0
ENDBLK
  0
BLOCK
  2
*GRP_0046
 70
    65
 10
0.0
 20
0.0
  0
INSERT
  2
*GRP_0048
  8
補助線
  6
CONTINUOUS
 10
0.0
 20
0.0
  0
LINE
  8
ボルト／ビス
  6
CONTINUOUS
 10
-29.467263
 20
4.370383
 11
-29.6116
 21
4.620383
  0
LINE
  8
ボルト／ビス
  6
CONTINUOUS
 10
-29.467263
 20
4.370383
 11
-29.6116
 21
4.120383
  0
LINE
  8
ボルト／ビス
  6
CONTINUOUS
 10
-29.900275
 20
4.620383
 11
-30.044613
 21
4.370383
  0
LINE
  8
ボルト／ビス
  6
CONTINUOUS
 10
-29.900275
 20
4.120383
 11
-30.044613
 21
4.370383
  0
CIRCLE
  8
ボルト／ビス
  6
CONTINUOUS
 10
-29.755937
 20
4.370383
 40
0.25
  0
LINE
  8
ボルト／ビス
  6
CONTINUOUS
 10
-29.6116
 20
4.120383
 11
-29.900275
 21
4.120383
  0
LINE
  8
ボルト／ビス
  6
CONTINUOUS
 10
-29.900275
 20
4.620383
 11
-29.6116
 21
4.620383
  0
ENDBLK
  0
BLOCK
  2
*GRP_0047
 70
    65
 10
0.0
 20
0.0
  0
LINE
  8
補助線
  6
BYBLOCK
 62
     0
 10
-29.755937
 20
19.245383
 11
-29.755937
 21
19.495383
  0
LINE
  8
補助線
  6
BYBLOCK
 62
     0
 10
-29.630937
 20
19.370383
 11
-29.880937
 21
19.370383
  0
ENDBLK
  0
BLOCK
  2
*GRP_0048
 70
    65
 10
0.0
 20
0.0
  0
LINE
  8
補助線
  6
BYBLOCK
 62
     0
 10
-29.755937
 20
4.245383
 11
-29.755937
 21
4.495383
  0
LINE
  8
補助線
  6
BYBLOCK
 62
     0
 10
-29.630937
 20
4.370383
 11
-29.880937
 21
4.370383
  0
ENDBLK
  0
BLOCK
  2
*GRP_0049
 70
    65
 10
0.0
 20
0.0
  0
INSERT
  2
*GRP_0051
  8
補助線
  6
CONTINUOUS
 10
0.0
 20
0.0
  0
LINE
  8
ボルト／ビス
  6
CONTINUOUS
 10
-29.467263
 20
34.370383
 11
-29.6116
 21
34.120383
  0
LINE
  8
ボルト／ビス
  6
CONTINUOUS
 10
-29.467263
 20
34.370383
 11
-29.6116
 21
34.620383
  0
LINE
  8
ボルト／ビス
  6
CONTINUOUS
 10
-29.900275
 20
34.120383
 11
-30.044613
 21
34.370383
  0
LINE
  8
ボルト／ビス
  6
CONTINUOUS
 10
-29.900275
 20
34.620383
 11
-30.044613
 21
34.370383
  0
CIRCLE
  8
ボルト／ビス
  6
CONTINUOUS
 10
-29.755937
 20
34.370383
 40
0.25
  0
LINE
  8
ボルト／ビス
  6
CONTINUOUS
 10
-29.6116
 20
34.620383
 11
-29.900275
 21
34.620383
  0
LINE
  8
ボルト／ビス
  6
CONTINUOUS
 10
-29.900275
 20
34.120383
 11
-29.6116
 21
34.120383
  0
ENDBLK
  0
BLOCK
  2
*GRP_0050
 70
    65
 10
0.0
 20
0.0
  0
INSERT
  2
*GRP_0052
  8
補助線
  6
CONTINUOUS
 10
0.0
 20
0.0
  0
LINE
  8
ボルト／ビス
  6
CONTINUOUS
 10
-29.467263
 20
49.370383
 11
-29.6116
 21
49.120383
  0
LINE
  8
ボルト／ビス
  6
CONTINUOUS
 10
-29.467263
 20
49.370383
 11
-29.6116
 21
49.620383
  0
LINE
  8
ボルト／ビス
  6
CONTINUOUS
 10
-29.900275
 20
49.120383
 11
-30.044613
 21
49.370383
  0
LINE
  8
ボルト／ビス
  6
CONTINUOUS
 10
-29.900275
 20
49.620383
 11
-30.044613
 21
49.370383
  0
CIRCLE
  8
ボルト／ビス
  6
CONTINUOUS
 10
-29.755937
 20
49.370383
 40
0.25
  0
LINE
  8
ボルト／ビス
  6
CONTINUOUS
 10
-29.6116
 20
49.620383
 11
-29.900275
 21
49.620383
  0
LINE
  8
ボルト／ビス
  6
CONTINUOUS
 10
-29.900275
 20
49.120383
 11
-29.6116
 21
49.120383
  0
ENDBLK
  0
BLOCK
  2
*GRP_0051
 70
    65
 10
0.0
 20
0.0
  0
LINE
  8
補助線
  6
BYBLOCK
 62
     0
 10
-29.755937
 20
34.495383
 11
-29.755937
 21
34.245383
  0
LINE
  8
補助線
  6
BYBLOCK
 62
     0
 10
-29.630937
 20
34.370383
 11
-29.880937
 21
34.370383
  0
ENDBLK
  0
BLOCK
  2
*GRP_0052
 70
    65
 10
0.0
 20
0.0
  0
LINE
  8
補助線
  6
BYBLOCK
 62
     0
 10
-29.755937
 20
49.495383
 11
-29.755937
 21
49.245383
  0
LINE
  8
補助線
  6
BYBLOCK
 62
     0
 10
-29.630937
 20
49.370383
 11
-29.880937
 21
49.370383
  0
ENDBLK
  0
BLOCK
  2
*DIM_0053
 70
    65
 10
0.0
 20
0.0
  0
LINE
  8
寸法
  6
BYBLOCK
 62
     0
 10
-80.755937
 20
82.238818
 11
-80.755937
 21
92.594355
  0
LINE
  8
寸法
  6
BYBLOCK
 62
     0
 10
-45.755937
 20
82.238818
 11
-45.755937
 21
92.594355
  0
LINE
  8
寸法
  6
BYBLOCK
 62
     0
 10
-80.755937
 20
92.594355
 11
-45.755937
 21
92.594355
  0
POINT
  8
寸法
 62
     0
 10
-80.755937
 20
92.594355
  0
POINT
  8
寸法
 62
     0
 10
-45.755937
 20
92.594355
  0
TEXT
  7
TextStyle03
  8
寸法
  6
CONTINUOUS
 62
     0
 10
-65.7125
 20
92.975
  1
700
 40
3.0
 72
     5
 11
-60.8375
 21
92.975
  0
ENDBLK
  0
BLOCK
  2
*DIM_0054
 70
    65
 10
0.0
 20
0.0
  0
LINE
  8
寸法
  6
BYBLOCK
 62
     0
 10
-123.904373
 20
44.370385
 11
-134.25991
 21
44.370385
  0
LINE
  8
寸法
  6
BYBLOCK
 62
     0
 10
-123.904375
 20
9.370385
 11
-134.259912
 21
9.370385
  0
LINE
  8
寸法
  6
BYBLOCK
 62
     0
 10
-134.25991
 20
44.370385
 11
-134.259912
 21
9.370385
  0
POINT
  8
寸法
 62
     0
 10
-134.25991
 20
44.370385
  0
POINT
  8
寸法
 62
     0
 10
-134.259912
 20
9.370385
  0
TEXT
  7
TextStyle03
  8
寸法
  6
CONTINUOUS
 62
     0
 10
-134.65
 20
24.4375
  1
700
 40
3.0
 50
90.0
 72
     5
 11
-134.65
 21
29.3125
  0
ENDBLK
  0
BLOCK
  2
*DIM_0055
 70
    65
 10
0.0
 20
0.0
  0
LINE
  8
寸法
  6
BYBLOCK
 62
     0
 10
-27.780937
 20
-68.63505
 11
-27.780937
 21
-33.416065
  0
LINE
  8
寸法
  6
BYBLOCK
 62
     0
 10
-30.755937
 20
-33.416065
 11
-27.780937
 21
-33.416065
  0
POINT
  8
寸法
 62
     0
 10
-30.755937
 20
-33.416065
  0
POINT
  8
寸法
 62
     0
 10
-27.780937
 20
-33.416065
  0
TEXT
  7
TextStyle03
  8
寸法
  6
CONTINUOUS
 62
     0
 10
-25.80625
 20
-33.05
  1
59.5
 40
3.0
 72
     5
 11
-19.24375
 21
-33.05
  0
ENDBLK
  0
BLOCK
  2
*DIM_0056
 70
    65
 10
0.0
 20
0.0
  0
LINE
  8
寸法
  6
BYBLOCK
 62
     0
 10
-98.730937
 20
-68.63505
 11
-98.730937
 21
-33.416065
  0
LINE
  8
寸法
  6
BYBLOCK
 62
     0
 10
-95.755937
 20
-33.416065
 11
-98.730937
 21
-33.416065
  0
POINT
  8
寸法
 62
     0
 10
-95.755937
 20
-33.416065
  0
POINT
  8
寸法
 62
     0
 10
-98.730937
 20
-33.416065
  0
TEXT
  7
TextStyle03
  8
寸法
  6
CONTINUOUS
 62
     0
 10
-107.28125
 20
-33.05
  1
59.5
 40
3.0
 72
     5
 11
-100.71875
 21
-33.05
  0
ENDBLK
  0
BLOCK
  2
*DIM_0057
 70
    65
 10
0.0
 20
0.0
  0
LINE
  8
寸法
  6
BYBLOCK
 62
     0
 10
-25.255935
 20
-69.569873
 11
-10.143282
 21
-69.569873
  0
LINE
  8
寸法
  6
BYBLOCK
 62
     0
 10
-24.780937
 20
-80.120125
 11
-10.143282
 21
-80.120125
  0
LINE
  8
寸法
  6
BYBLOCK
 62
     0
 10
-10.143282
 20
-69.569873
 11
-10.143282
 21
-80.120125
  0
POINT
  8
寸法
 62
     0
 10
-10.143282
 20
-69.569873
  0
POINT
  8
寸法
 62
     0
 10
-10.143282
 20
-80.120125
  0
TEXT
  7
TextStyle03
  8
寸法
  6
CONTINUOUS
 62
     0
 10
-10.525
 20
-77.2875
  1
211
 40
3.0
 50
90.0
 72
     5
 11
-10.525
 21
-72.4125
  0
ENDBLK
  0
BLOCK
  2
*DIM_0058
 70
    65
 10
0.0
 20
0.0
  0
LINE
  8
寸法
  6
BYBLOCK
 62
     0
 10
170.304785
 20
74.557477
 11
179.967098
 21
74.557477
  0
LINE
  8
寸法
  6
BYBLOCK
 62
     0
 10
170.304785
 20
10.557477
 11
179.967098
 21
10.557477
  0
LINE
  8
寸法
  6
BYBLOCK
 62
     0
 10
179.967098
 20
74.557477
 11
179.967098
 21
10.557477
  0
POINT
  8
寸法
 62
     0
 10
179.967098
 20
74.557477
  0
POINT
  8
寸法
 62
     0
 10
179.967098
 20
10.557477
  0
TEXT
  7
TextStyle03
  8
寸法
  6
CONTINUOUS
 62
     0
 10
179.575
 20
39.24375
  1
1280
 40
3.0
 50
90.0
 72
     5
 11
179.575
 21
45.80625
  0
ENDBLK
  0
BLOCK
  2
*DIM_0059
 70
    65
 10
0.0
 20
0.0
  0
LINE
  8
寸法
  6
BYBLOCK
 62
     0
 10
103.304785
 20
77.557477
 11
103.304785
 21
85.30483
  0
LINE
  8
寸法
  6
BYBLOCK
 62
     0
 10
167.304785
 20
77.557477
 11
167.304785
 21
85.30483
  0
LINE
  8
寸法
  6
BYBLOCK
 62
     0
 10
103.304785
 20
85.30483
 11
167.304785
 21
85.30483
  0
POINT
  8
寸法
 62
     0
 10
103.304785
 20
85.30483
  0
POINT
  8
寸法
 62
     0
 10
167.304785
 20
85.30483
  0
TEXT
  7
TextStyle03
  8
寸法
  6
CONTINUOUS
 62
     0
 10
131.99375
 20
85.65
  1
1280
 40
3.0
 72
     5
 11
138.55625
 21
85.65
  0
ENDBLK
  0
BLOCK
  2
*GRP_0061
 70
    65
 10
0.0
 20
0.0
  0
LINE
  8
ボルト／ビス
  6
CONTINUOUS
 10
-96.755937
 20
-69.569875
 11
-96.755937
 21
-68.869875
  0
LINE
  8
ボルト／ビス
  6
CONTINUOUS
 10
-97.305937
 20
-69.569875
 11
-97.305937
 21
-69.469875
  0
LINE
  8
ボルト／ビス
  6
CONTINUOUS
 10
-97.305937
 20
-69.469875
 11
-96.205937
 21
-69.469875
  0
LINE
  8
ボルト／ビス
  6
CONTINUOUS
 10
-96.205937
 20
-69.469875
 11
-96.205937
 21
-69.569875
  0
LINE
  8
ボルト／ビス
  6
CONTINUOUS
 10
-97.305937
 20
-69.569875
 11
-96.205937
 21
-69.569875
  0
LINE
  8
ボルト／ビス
  6
CONTINUOUS
 10
-97.205937
 20
-69.419875
 11
-97.205937
 21
-69.469875
  0
LINE
  8
ボルト／ビス
  6
CONTINUOUS
 10
-97.205937
 20
-69.419875
 11
-96.305937
 21
-69.419875
  0
LINE
  8
ボルト／ビス
  6
CONTINUOUS
 10
-96.305937
 20
-69.419875
 11
-96.305937
 21
-69.469875
  0
LINE
  8
ボルト／ビス
  6
CONTINUOUS
 62
    64
 10
-96.9965
 20
-69.119875
 11
-97.044613
 21
-69.137388
  0
ARC
  8
ボルト／ビス
  6
CONTINUOUS
 62
    64
 10
-96.972444
 20
-69.277343
 40
0.157468
 50
62.721967
 51
90.0
  0
ARC
  8
ボルト／ビス
  6
CONTINUOUS
 62
    64
 10
-96.755938
 20
-69.723479
 40
0.603603
 50
76.165002
 51
103.834985
  0
LINE
  8
ボルト／ビス
  6
CONTINUOUS
 62
    64
 10
-96.515375
 20
-69.119875
 11
-96.467263
 21
-69.137388
  0
ARC
  8
ボルト／ビス
  6
CONTINUOUS
 62
    64
 10
-96.539431
 20
-69.277343
 40
0.157468
 50
90.0
 51
117.278033
  0
LINE
  8
ボルト／ビス
  6
CONTINUOUS
 62
    64
 10
-96.9965
 20
-69.119875
 11
-96.515375
 21
-69.119875
  0
LINE
  8
ボルト／ビス
  6
CONTINUOUS
 62
    64
 10
-96.467263
 20
-69.137388
 11
-96.467263
 21
-69.319875
  0
LINE
  8
ボルト／ビス
  6
CONTINUOUS
 62
    64
 10
-96.6116
 20
-69.137388
 11
-96.6116
 21
-69.319875
  0
LINE
  8
ボルト／ビス
  6
CONTINUOUS
 62
    64
 10
-97.044613
 20
-69.137388
 11
-97.044613
 21
-69.319875
  0
LINE
  8
ボルト／ビス
  6
CONTINUOUS
 62
    64
 10
-96.900275
 20
-69.137388
 11
-96.900275
 21
-69.319875
  0
LINE
  8
ボルト／ビス
  6
CONTINUOUS
 10
-97.044613
 20
-69.319875
 11
-96.467263
 21
-69.319875
  0
LINE
  8
ボルト／ビス
  6
CONTINUOUS
 10
-97.055937
 20
-69.319875
 11
-97.055937
 21
-69.419875
  0
LINE
  8
ボルト／ビス
  6
CONTINUOUS
 10
-97.055937
 20
-69.319875
 11
-96.455937
 21
-69.319875
  0
LINE
  8
ボルト／ビス
  6
CONTINUOUS
 10
-96.455937
 20
-69.319875
 11
-96.455937
 21
-69.419875
  0
ENDBLK
  0
BLOCK
  2
*GRP_0062
 70
    65
 10
0.0
 20
0.0
  0
LINE
  8
ボルト／ビス
  6
CONTINUOUS
 10
-29.755933
 20
-69.569875
 11
-29.755933
 21
-68.869875
  0
LINE
  8
ボルト／ビス
  6
CONTINUOUS
 10
-30.305933
 20
-69.569875
 11
-30.305933
 21
-69.469875
  0
LINE
  8
ボルト／ビス
  6
CONTINUOUS
 10
-30.305933
 20
-69.469875
 11
-29.205933
 21
-69.469875
  0
LINE
  8
ボルト／ビス
  6
CONTINUOUS
 10
-29.205933
 20
-69.469875
 11
-29.205933
 21
-69.569875
  0
LINE
  8
ボルト／ビス
  6
CONTINUOUS
 10
-30.305933
 20
-69.569875
 11
-29.205933
 21
-69.569875
  0
LINE
  8
ボルト／ビス
  6
CONTINUOUS
 10
-30.205933
 20
-69.419875
 11
-30.205933
 21
-69.469875
  0
LINE
  8
ボルト／ビス
  6
CONTINUOUS
 10
-30.205933
 20
-69.419875
 11
-29.305933
 21
-69.419875
  0
LINE
  8
ボルト／ビス
  6
CONTINUOUS
 10
-29.305933
 20
-69.419875
 11
-29.305933
 21
-69.469875
  0
LINE
  8
ボルト／ビス
  6
CONTINUOUS
 62
    64
 10
-29.996495
 20
-69.119875
 11
-30.044607
 21
-69.137388
  0
ARC
  8
ボルト／ビス
  6
CONTINUOUS
 62
    64
 10
-29.97244
 20
-69.277344
 40
0.157468
 50
62.721967
 51
90.0
  0
ARC
  8
ボルト／ビス
  6
CONTINUOUS
 62
    64
 10
-29.755933
 20
-69.72348
 40
0.603603
 50
76.165002
 51
103.834985
  0
LINE
  8
ボルト／ビス
  6
CONTINUOUS
 62
    64
 10
-29.51537
 20
-69.119875
 11
-29.467257
 21
-69.137388
  0
ARC
  8
ボルト／ビス
  6
CONTINUOUS
 62
    64
 10
-29.539427
 20
-69.277344
 40
0.157468
 50
90.0
 51
117.278033
  0
LINE
  8
ボルト／ビス
  6
CONTINUOUS
 62
    64
 10
-29.996495
 20
-69.119875
 11
-29.51537
 21
-69.119875
  0
LINE
  8
ボルト／ビス
  6
CONTINUOUS
 62
    64
 10
-29.467257
 20
-69.137388
 11
-29.467257
 21
-69.319875
  0
LINE
  8
ボルト／ビス
  6
CONTINUOUS
 62
    64
 10
-29.611595
 20
-69.137388
 11
-29.611595
 21
-69.319875
  0
LINE
  8
ボルト／ビス
  6
CONTINUOUS
 62
    64
 10
-30.044607
 20
-69.137388
 11
-30.044607
 21
-69.319875
  0
LINE
  8
ボルト／ビス
  6
CONTINUOUS
 62
    64
 10
-29.90027
 20
-69.137388
 11
-29.90027
 21
-69.319875
  0
LINE
  8
ボルト／ビス
  6
CONTINUOUS
 10
-30.044607
 20
-69.319875
 11
-29.467257
 21
-69.319875
  0
LINE
  8
ボルト／ビス
  6
CONTINUOUS
 10
-30.055933
 20
-69.319875
 11
-30.055933
 21
-69.419875
  0
LINE
  8
ボルト／ビス
  6
CONTINUOUS
 10
-30.055933
 20
-69.319875
 11
-29.455933
 21
-69.319875
  0
LINE
  8
ボルト／ビス
  6
CONTINUOUS
 10
-29.455933
 20
-69.319875
 11
-29.455933
 21
-69.419875
  0
ENDBLK
  0
BLOCK
  2
*GRP_0063
 70
    65
 10
0.0
 20
0.0
  0
LINE
  8
ボルト／ビス
  6
CONTINUOUS
 10
49.232963
 20
-69.569875
 11
49.232963
 21
-68.869875
  0
LINE
  8
ボルト／ビス
  6
CONTINUOUS
 10
48.682963
 20
-69.569875
 11
48.682963
 21
-69.469875
  0
LINE
  8
ボルト／ビス
  6
CONTINUOUS
 10
48.682963
 20
-69.469875
 11
49.782963
 21
-69.469875
  0
LINE
  8
ボルト／ビス
  6
CONTINUOUS
 10
49.782963
 20
-69.469875
 11
49.782963
 21
-69.569875
  0
LINE
  8
ボルト／ビス
  6
CONTINUOUS
 10
48.682963
 20
-69.569875
 11
49.782963
 21
-69.569875
  0
LINE
  8
ボルト／ビス
  6
CONTINUOUS
 10
48.782963
 20
-69.419875
 11
48.782963
 21
-69.469875
  0
LINE
  8
ボルト／ビス
  6
CONTINUOUS
 10
48.782963
 20
-69.419875
 11
49.682963
 21
-69.419875
  0
LINE
  8
ボルト／ビス
  6
CONTINUOUS
 10
49.682963
 20
-69.419875
 11
49.682963
 21
-69.469875
  0
LINE
  8
ボルト／ビス
  6
CONTINUOUS
 62
    64
 10
48.9924
 20
-69.119875
 11
48.944288
 21
-69.137388
  0
ARC
  8
ボルト／ビス
  6
CONTINUOUS
 62
    64
 10
49.016456
 20
-69.277344
 40
0.157468
 50
62.721967
 51
90.0
  0
ARC
  8
ボルト／ビス
  6
CONTINUOUS
 62
    64
 10
49.232963
 20
-69.723479
 40
0.603603
 50
76.165002
 51
103.834985
  0
LINE
  8
ボルト／ビス
  6
CONTINUOUS
 62
    64
 10
49.473525
 20
-69.119875
 11
49.521637
 21
-69.137388
  0
ARC
  8
ボルト／ビス
  6
CONTINUOUS
 62
    64
 10
49.449469
 20
-69.277344
 40
0.157468
 50
90.0
 51
117.278033
  0
LINE
  8
ボルト／ビス
  6
CONTINUOUS
 62
    64
 10
48.9924
 20
-69.119875
 11
49.473525
 21
-69.119875
  0
LINE
  8
ボルト／ビス
  6
CONTINUOUS
 62
    64
 10
49.521637
 20
-69.137388
 11
49.521637
 21
-69.319875
  0
LINE
  8
ボルト／ビス
  6
CONTINUOUS
 62
    64
 10
49.3773
 20
-69.137388
 11
49.3773
 21
-69.319875
  0
LINE
  8
ボルト／ビス
  6
CONTINUOUS
 62
    64
 10
48.944288
 20
-69.137388
 11
48.944288
 21
-69.319875
  0
LINE
  8
ボルト／ビス
  6
CONTINUOUS
 62
    64
 10
49.088625
 20
-69.137388
 11
49.088625
 21
-69.319875
  0
LINE
  8
ボルト／ビス
  6
CONTINUOUS
 10
48.944288
 20
-69.319875
 11
49.521637
 21
-69.319875
  0
LINE
  8
ボルト／ビス
  6
CONTINUOUS
 10
48.932963
 20
-69.319875
 11
48.932963
 21
-69.419875
  0
LINE
  8
ボルト／ビス
  6
CONTINUOUS
 10
48.932963
 20
-69.319875
 11
49.532963
 21
-69.319875
  0
LINE
  8
ボルト／ビス
  6
CONTINUOUS
 10
49.532963
 20
-69.319875
 11
49.532963
 21
-69.419875
  0
ENDBLK
  0
BLOCK
  2
*GRP_0064
 70
    65
 10
0.0
 20
0.0
  0
LINE
  8
ボルト／ビス
  6
CONTINUOUS
 10
116.232968
 20
-69.569875
 11
116.232968
 21
-68.869875
  0
LINE
  8
ボルト／ビス
  6
CONTINUOUS
 10
115.682968
 20
-69.569875
 11
115.682968
 21
-69.469875
  0
LINE
  8
ボルト／ビス
  6
CONTINUOUS
 10
115.682968
 20
-69.469875
 11
116.782968
 21
-69.469875
  0
LINE
  8
ボルト／ビス
  6
CONTINUOUS
 10
116.782968
 20
-69.469875
 11
116.782968
 21
-69.569875
  0
LINE
  8
ボルト／ビス
  6
CONTINUOUS
 10
115.682968
 20
-69.569875
 11
116.782968
 21
-69.569875
  0
LINE
  8
ボルト／ビス
  6
CONTINUOUS
 10
115.782968
 20
-69.419875
 11
115.782968
 21
-69.469875
  0
LINE
  8
ボルト／ビス
  6
CONTINUOUS
 10
115.782968
 20
-69.419875
 11
116.682968
 21
-69.419875
  0
LINE
  8
ボルト／ビス
  6
CONTINUOUS
 10
116.682968
 20
-69.419875
 11
116.682968
 21
-69.469875
  0
LINE
  8
ボルト／ビス
  6
CONTINUOUS
 62
    64
 10
115.992405
 20
-69.119875
 11
115.944292
 21
-69.137388
  0
ARC
  8
ボルト／ビス
  6
CONTINUOUS
 62
    64
 10
116.016462
 20
-69.277343
 40
0.157468
 50
62.721967
 51
90.0
  0
ARC
  8
ボルト／ビス
  6
CONTINUOUS
 62
    64
 10
116.232968
 20
-69.723478
 40
0.603603
 50
76.165002
 51
103.834985
  0
LINE
  8
ボルト／ビス
  6
CONTINUOUS
 62
    64
 10
116.47353
 20
-69.119875
 11
116.521643
 21
-69.137388
  0
ARC
  8
ボルト／ビス
  6
CONTINUOUS
 62
    64
 10
116.449475
 20
-69.277343
 40
0.157468
 50
90.0
 51
117.278033
  0
LINE
  8
ボルト／ビス
  6
CONTINUOUS
 62
    64
 10
115.992405
 20
-69.119875
 11
116.47353
 21
-69.119875
  0
LINE
  8
ボルト／ビス
  6
CONTINUOUS
 62
    64
 10
116.521643
 20
-69.137388
 11
116.521643
 21
-69.319875
  0
LINE
  8
ボルト／ビス
  6
CONTINUOUS
 62
    64
 10
116.377305
 20
-69.137388
 11
116.377305
 21
-69.319875
  0
LINE
  8
ボルト／ビス
  6
CONTINUOUS
 62
    64
 10
115.944292
 20
-69.137388
 11
115.944292
 21
-69.319875
  0
LINE
  8
ボルト／ビス
  6
CONTINUOUS
 62
    64
 10
116.08863
 20
-69.137388
 11
116.08863
 21
-69.319875
  0
LINE
  8
ボルト／ビス
  6
CONTINUOUS
 10
115.944292
 20
-69.319875
 11
116.521643
 21
-69.319875
  0
LINE
  8
ボルト／ビス
  6
CONTINUOUS
 10
115.932968
 20
-69.319875
 11
115.932968
 21
-69.419875
  0
LINE
  8
ボルト／ビス
  6
CONTINUOUS
 10
115.932968
 20
-69.319875
 11
116.532968
 21
-69.319875
  0
LINE
  8
ボルト／ビス
  6
CONTINUOUS
 10
116.532968
 20
-69.319875
 11
116.532968
 21
-69.419875
  0
ENDBLK
  0
BLOCK
  2
*GRP_0065
 70
    65
 10
0.0
 20
0.0
  0
LINE
  8
型材断面
  6
DOT
 62
    47
 10
47.257963
 20
-55.63505
 11
47.257963
 21
-58.89505
  0
LINE
  8
型材断面
  6
DOT
 62
    47
 10
48.582963
 20
-55.63505
 11
48.582963
 21
-55.069873
  0
LINE
  8
型材断面
  6
DOT
 62
    47
 10
47.257963
 20
-55.63505
 11
82.732963
 21
-55.63505
  0
LINE
  8
型材断面
  6
DOT
 62
    47
 10
47.257963
 20
-58.89505
 11
82.732963
 21
-58.89505
  0
LINE
  8
型材断面
  6
DOT
 62
    47
 10
118.207963
 20
-55.63505
 11
118.207963
 21
-58.89505
  0
LINE
  8
型材断面
  6
DOT
 62
    47
 10
116.882963
 20
-55.63505
 11
116.882963
 21
-55.069873
  0
LINE
  8
型材断面
  6
DOT
 62
    47
 10
118.207963
 20
-55.63505
 11
82.732963
 21
-55.63505
  0
LINE
  8
型材断面
  6
DOT
 62
    47
 10
118.207963
 20
-58.89505
 11
82.732963
 21
-58.89505
  0
LINE
  8
別途部材
  6
DOT
 62
    96
 10
47.732963
 20
-53.569873
 11
47.132963
 21
-55.069873
  0
LINE
  8
別途部材
  6
DOT
 62
    96
 10
47.732963
 20
-53.569873
 11
82.732965
 21
-53.569873
  0
LINE
  8
別途部材
  6
DOT
 10
47.132963
 20
-55.069873
 11
82.732965
 21
-55.069873
  0
LINE
  8
別途部材
  6
DOT
 62
    96
 10
117.732965
 20
-53.569873
 11
118.332965
 21
-55.069873
  0
LINE
  8
別途部材
  6
DOT
 62
    96
 10
117.732965
 20
-53.569873
 11
82.732965
 21
-53.569873
  0
LINE
  8
別途部材
  6
DOT
 10
118.332965
 20
-55.069873
 11
82.732965
 21
-55.069873
  0
ARC
  8
別途部材
  6
DOT
 10
82.732964
 20
-74.998447
 40
38.928572
 50
33.39849
 51
146.60151
  0
INSERT
  2
*GRP_0066
  8
別途部材
  6
DOT
 10
0.0
 20
0.0
  0
INSERT
  2
*GRP_0067
  8
別途部材
  6
DOT
 10
0.0
 20
0.0
  0
ENDBLK
  0
BLOCK
  2
*GRP_0066
 70
    65
 10
0.0
 20
0.0
  0
LINE
  8
ボルト／ビス
  6
DOT
 10
49.232963
 20
-53.569875
 11
49.232963
 21
-52.869875
  0
LINE
  8
ボルト／ビス
  6
DOT
 10
48.682963
 20
-53.569875
 11
48.682963
 21
-53.469875
  0
LINE
  8
ボルト／ビス
  6
DOT
 10
48.682963
 20
-53.469875
 11
49.782963
 21
-53.469875
  0
LINE
  8
ボルト／ビス
  6
DOT
 10
49.782963
 20
-53.469875
 11
49.782963
 21
-53.569875
  0
LINE
  8
ボルト／ビス
  6
DOT
 10
48.682963
 20
-53.569875
 11
49.782963
 21
-53.569875
  0
LINE
  8
ボルト／ビス
  6
DOT
 10
48.782963
 20
-53.419875
 11
48.782963
 21
-53.469875
  0
LINE
  8
ボルト／ビス
  6
DOT
 10
48.782963
 20
-53.419875
 11
49.682963
 21
-53.419875
  0
LINE
  8
ボルト／ビス
  6
DOT
 10
49.682963
 20
-53.419875
 11
49.682963
 21
-53.469875
  0
LINE
  8
ボルト／ビス
  6
DOT
 62
    64
 10
48.9924
 20
-53.119875
 11
48.944288
 21
-53.137388
  0
ARC
  8
ボルト／ビス
  6
DOT
 62
    64
 10
49.016456
 20
-53.277345
 40
0.157468
 50
62.721967
 51
90.0
  0
ARC
  8
ボルト／ビス
  6
DOT
 62
    64
 10
49.232963
 20
-53.72348
 40
0.603603
 50
76.165002
 51
103.834985
  0
LINE
  8
ボルト／ビス
  6
DOT
 62
    64
 10
49.473525
 20
-53.119875
 11
49.521637
 21
-53.137388
  0
ARC
  8
ボルト／ビス
  6
DOT
 62
    64
 10
49.449469
 20
-53.277345
 40
0.157468
 50
90.0
 51
117.278033
  0
LINE
  8
ボルト／ビス
  6
DOT
 62
    64
 10
48.9924
 20
-53.119875
 11
49.473525
 21
-53.119875
  0
LINE
  8
ボルト／ビス
  6
DOT
 62
    64
 10
49.521637
 20
-53.137388
 11
49.521637
 21
-53.319875
  0
LINE
  8
ボルト／ビス
  6
DOT
 62
    64
 10
49.3773
 20
-53.137388
 11
49.3773
 21
-53.319875
  0
LINE
  8
ボルト／ビス
  6
DOT
 62
    64
 10
48.944288
 20
-53.137388
 11
48.944288
 21
-53.319875
  0
LINE
  8
ボルト／ビス
  6
DOT
 62
    64
 10
49.088625
 20
-53.137388
 11
49.088625
 21
-53.319875
  0
LINE
  8
ボルト／ビス
  6
DOT
 10
48.944288
 20
-53.319875
 11
49.521637
 21
-53.319875
  0
LINE
  8
ボルト／ビス
  6
DOT
 10
48.932963
 20
-53.319875
 11
48.932963
 21
-53.419875
  0
LINE
  8
ボルト／ビス
  6
DOT
 10
48.932963
 20
-53.319875
 11
49.532963
 21
-53.319875
  0
LINE
  8
ボルト／ビス
  6
DOT
 10
49.532963
 20
-53.319875
 11
49.532963
 21
-53.419875
  0
ENDBLK
  0
BLOCK
  2
*GRP_0067
 70
    65
 10
0.0
 20
0.0
  0
LINE
  8
ボルト／ビス
  6
DOT
 10
116.232968
 20
-53.569875
 11
116.232968
 21
-52.869875
  0
LINE
  8
ボルト／ビス
  6
DOT
 10
115.682968
 20
-53.569875
 11
115.682968
 21
-53.469875
  0
LINE
  8
ボルト／ビス
  6
DOT
 10
115.682968
 20
-53.469875
 11
116.782968
 21
-53.469875
  0
LINE
  8
ボルト／ビス
  6
DOT
 10
116.782968
 20
-53.469875
 11
116.782968
 21
-53.569875
  0
LINE
  8
ボルト／ビス
  6
DOT
 10
115.682968
 20
-53.569875
 11
116.782968
 21
-53.569875
  0
LINE
  8
ボルト／ビス
  6
DOT
 10
115.782968
 20
-53.419875
 11
115.782968
 21
-53.469875
  0
LINE
  8
ボルト／ビス
  6
DOT
 10
115.782968
 20
-53.419875
 11
116.682968
 21
-53.419875
  0
LINE
  8
ボルト／ビス
  6
DOT
 10
116.682968
 20
-53.419875
 11
116.682968
 21
-53.469875
  0
LINE
  8
ボルト／ビス
  6
DOT
 62
    64
 10
115.992405
 20
-53.119875
 11
115.944292
 21
-53.137388
  0
ARC
  8
ボルト／ビス
  6
DOT
 62
    64
 10
116.016462
 20
-53.277344
 40
0.157468
 50
62.721967
 51
90.0
  0
ARC
  8
ボルト／ビス
  6
DOT
 62
    64
 10
116.232968
 20
-53.72348
 40
0.603603
 50
76.165002
 51
103.834985
  0
LINE
  8
ボルト／ビス
  6
DOT
 62
    64
 10
116.47353
 20
-53.119875
 11
116.521643
 21
-53.137388
  0
ARC
  8
ボルト／ビス
  6
DOT
 62
    64
 10
116.449475
 20
-53.277344
 40
0.157468
 50
90.0
 51
117.278033
  0
LINE
  8
ボルト／ビス
  6
DOT
 62
    64
 10
115.992405
 20
-53.119875
 11
116.47353
 21
-53.119875
  0
LINE
  8
ボルト／ビス
  6
DOT
 62
    64
 10
116.521643
 20
-53.137388
 11
116.521643
 21
-53.319875
  0
LINE
  8
ボルト／ビス
  6
DOT
 62
    64
 10
116.377305
 20
-53.137388
 11
116.377305
 21
-53.319875
  0
LINE
  8
ボルト／ビス
  6
DOT
 62
    64
 10
115.944292
 20
-53.137388
 11
115.944292
 21
-53.319875
  0
LINE
  8
ボルト／ビス
  6
DOT
 62
    64
 10
116.08863
 20
-53.137388
 11
116.08863
 21
-53.319875
  0
LINE
  8
ボルト／ビス
  6
DOT
 10
115.944292
 20
-53.319875
 11
116.521643
 21
-53.319875
  0
LINE
  8
ボルト／ビス
  6
DOT
 10
115.932968
 20
-53.319875
 11
115.932968
 21
-53.419875
  0
LINE
  8
ボルト／ビス
  6
DOT
 10
115.932968
 20
-53.319875
 11
116.532968
 21
-53.319875
  0
LINE
  8
ボルト／ビス
  6
DOT
 10
116.532968
 20
-53.319875
 11
116.532968
 21
-53.419875
  0
ENDBLK
  0
BLOCK
  2
*DIM_0068
 70
    65
 10
0.0
 20
0.0
  0
LINE
  8
寸法
  6
BYBLOCK
 62
     0
 10
122.178158
 20
-74.240048
 11
131.761195
 21
-74.240048
  0
LINE
  8
寸法
  6
BYBLOCK
 62
     0
 10
122.178158
 20
-58.240048
 11
131.761195
 21
-58.240048
  0
LINE
  8
寸法
  6
BYBLOCK
 62
     0
 10
131.761195
 20
-74.240048
 11
131.761195
 21
-58.240048
  0
POINT
  8
寸法
 62
     0
 10
131.761195
 20
-74.240048
  0
POINT
  8
寸法
 62
     0
 10
131.761195
 20
-58.240048
  0
TEXT
  7
TextStyle03
  8
寸法
  6
CONTINUOUS
 62
     0
 10
136.325
 20
-75.4875
  1
上昇高さ320
 40
3.0
 50
90.0
 72
     5
 11
136.325
 21
-57.1125
  0
ENDBLK
  0
ENDSEC
  0
SECTION
  2
ENTITIES
  0
POLYLINE
  8
通り芯
  6
CONTINUOUS
 66
     1
 70
     1
  0
VERTEX
  8
通り芯
 10
-210.0
 20
-148.5
  0
VERTEX
  8
通り芯
 10
210.0
 20
-148.5
  0
VERTEX
  8
通り芯
 10
210.0
 20
148.5
  0
VERTEX
  8
通り芯
 10
-210.0
 20
148.5
  0
SEQEND
  0
INSERT
  2
*GRP_0001
  8
型材断面
  6
CONTINUOUS
 10
0.0
 20
0.0
  0
LINE
  8
型材断面
  6
DASHDOT
 10
-30.755937
 20
-85.083888
 11
-30.755937
 21
59.370383
  0
LINE
  8
型材断面
  6
DASHDOT
 10
-95.755937
 20
-85.083888
 11
-95.755937
 21
59.370383
  0
LINE
  8
型材断面
  6
DOT
 10
-35.865297
 20
59.370383
 11
-35.865297
 21
-5.629618
  0
LINE
  8
型材断面
  6
DOT
 10
-33.865297
 20
59.370383
 11
-33.865297
 21
-5.629618
  0
LINE
  8
型材断面
  6
CONTINUOUS
 10
-22.732063
 20
53.820385
 11
-18.846303
 21
52.9263
  0
LINE
  8
型材断面
  6
CONTINUOUS
 10
-22.732063
 20
53.820385
 11
-18.846303
 21
54.71447
  0
LINE
  8
型材断面
  6
CONTINUOUS
 10
-18.846303
 20
54.71447
 11
-18.846303
 21
52.9263
  0
LINE
  8
型材断面
  6
CONTINUOUS
 10
-22.732063
 20
-0.07962
 11
-18.846303
 21
0.814465
  0
LINE
  8
型材断面
  6
CONTINUOUS
 10
-22.732063
 20
-0.07962
 11
-18.846303
 21
-0.973705
  0
LINE
  8
型材断面
  6
CONTINUOUS
 10
-18.846303
 20
-0.973705
 11
-18.846303
 21
0.814465
  0
LINE
  8
型材断面
  6
CONTINUOUS
 10
-103.779813
 20
-0.07962
 11
-107.665572
 21
0.814465
  0
LINE
  8
型材断面
  6
CONTINUOUS
 10
-103.779813
 20
-0.07962
 11
-107.665572
 21
-0.973705
  0
LINE
  8
型材断面
  6
CONTINUOUS
 10
-107.665572
 20
-0.973705
 11
-107.665572
 21
0.814465
  0
LINE
  8
型材断面
  6
CONTINUOUS
 10
-103.779813
 20
53.820385
 11
-107.665572
 21
52.9263
  0
LINE
  8
型材断面
  6
CONTINUOUS
 10
-103.779813
 20
53.820385
 11
-107.665572
 21
54.71447
  0
LINE
  8
型材断面
  6
CONTINUOUS
 10
-107.665572
 20
54.71447
 11
-107.665572
 21
52.9263
  0
LINE
  8
型材断面
  6
CONTINUOUS
 10
-22.732063
 20
26.870383
 11
-18.846303
 21
24.626937
  0
LINE
  8
型材断面
  6
CONTINUOUS
 10
-22.732063
 20
26.870383
 11
-18.846303
 21
29.113827
  0
LINE
  8
型材断面
  6
CONTINUOUS
 10
-18.846303
 20
29.113827
 11
-18.846303
 21
24.626937
  0
LINE
  8
型材断面
  6
CONTINUOUS
 10
-63.255937
 20
67.394257
 11
-65.499382
 21
71.280018
  0
LINE
  8
型材断面
  6
CONTINUOUS
 10
-63.255937
 20
67.394257
 11
-61.012493
 21
71.280018
  0
LINE
  8
型材断面
  6
CONTINUOUS
 10
-61.012493
 20
71.280018
 11
-65.499382
 21
71.280018
  0
LINE
  8
型材断面
  6
CONTINUOUS
 10
-63.255937
 20
-13.653492
 11
-65.499382
 21
-17.539253
  0
LINE
  8
型材断面
  6
CONTINUOUS
 10
-63.255937
 20
-13.653492
 11
-61.012493
 21
-17.539253
  0
LINE
  8
型材断面
  6
CONTINUOUS
 10
-61.012493
 20
-17.539253
 11
-65.499382
 21
-17.539253
  0
LINE
  8
型材断面
  6
CONTINUOUS
 10
-103.779813
 20
26.870383
 11
-107.665572
 21
24.626937
  0
LINE
  8
型材断面
  6
CONTINUOUS
 10
-103.779813
 20
26.870383
 11
-107.665572
 21
29.113827
  0
LINE
  8
型材断面
  6
CONTINUOUS
 10
-107.665572
 20
29.113827
 11
-107.665572
 21
24.626937
  0
LINE
  8
型材断面
  6
CONTINUOUS
 10
4.930422
 20
-11.415415
 11
2.686977
 21
-15.301175
  0
LINE
  8
型材断面
  6
CONTINUOUS
 10
4.930422
 20
-11.415415
 11
7.173868
 21
-15.301175
  0
LINE
  8
型材断面
  6
CONTINUOUS
 10
7.173868
 20
-15.301175
 11
2.686977
 21
-15.301175
  0
LINE
  8
型材断面
  6
CONTINUOUS
 10
4.930422
 20
-19.104962
 11
5.824508
 21
-22.990722
  0
LINE
  8
型材断面
  6
CONTINUOUS
 10
4.930422
 20
-19.104962
 11
4.036338
 21
-22.990722
  0
LINE
  8
型材断面
  6
CONTINUOUS
 10
4.036338
 20
-22.990722
 11
5.824508
 21
-22.990722
  0
LINE
  8
型材断面
  6
CONTINUOUS
 10
-4.103457
 20
-16.709068
 11
48.553223
 21
-16.709068
  0
LINE
  8
型材断面
  6
CONTINUOUS
 10
-4.103457
 20
-27.90906
 11
48.553223
 21
-27.90906
  0
LINE
  8
型材断面
  6
CONTINUOUS
 10
-4.103457
 20
-34.749005
 11
48.553223
 21
-34.749005
  0
INSERT
  2
*GRP_0002
  8
型材断面
  6
CONTINUOUS
 10
0.0
 20
0.0
  0
INSERT
  2
*GRP_0003
  8
型材断面
  6
CONTINUOUS
 10
0.0
 20
0.0
  0
LINE
  8
型材断面
  6
DASHDOT
 10
-63.255937
 20
-85.083888
 11
-63.255937
 21
59.370383
  0
LINE
  8
型材断面
  6
DASHDOT
 10
-95.755937
 20
26.870383
 11
-30.755937
 21
26.870383
  0
LINE
  8
型材断面
  6
DASHDOT
 10
-95.755937
 20
59.370383
 11
-30.755937
 21
59.370383
  0
LINE
  8
型材断面
  6
DASHDOT
 10
-95.755937
 20
-5.629618
 11
-30.755937
 21
-5.629618
  0
POLYLINE
  8
型材断面
  6
CONTINUOUS
 66
     1
 70
     1
  0
VERTEX
  8
型材断面
 10
-53.966143
 20
76.9481
  0
VERTEX
  8
型材断面
 10
-72.521355
 20
76.9481
  0
VERTEX
  8
型材断面
 10
-72.521355
 20
72.156065
  0
VERTEX
  8
型材断面
 10
-53.966143
 20
72.156065
  0
SEQEND
  0
POLYLINE
  8
型材断面
  6
CONTINUOUS
 66
     1
 70
     1
  0
VERTEX
  8
型材断面
 10
-53.966143
 20
-18.772732
  0
VERTEX
  8
型材断面
 10
-72.521355
 20
-18.772732
  0
VERTEX
  8
型材断面
 10
-72.521355
 20
-23.564768
  0
VERTEX
  8
型材断面
 10
-53.966143
 20
-23.564768
  0
SEQEND
  0
LINE
  8
型材断面
  6
CONTINUOUS
 62
    47
 10
-97.980937
 20
-80.870125
 11
-97.980937
 21
-80.120125
  0
LINE
  8
型材断面
  6
CONTINUOUS
 62
    47
 10
-98.730937
 20
-80.120125
 11
-98.730937
 21
-75.145125
  0
LINE
  8
型材断面
  6
CONTINUOUS
 62
    47
 10
-98.730937
 20
-71.63505
 11
-98.730937
 21
-74.89505
  0
LINE
  8
型材断面
  6
CONTINUOUS
 62
    47
 10
-97.405937
 20
-71.63505
 11
-97.405937
 21
-71.069873
  0
LINE
  8
型材断面
  6
CONTINUOUS
 62
    47
 10
-98.730937
 20
-71.63505
 11
-63.255937
 21
-71.63505
  0
LINE
  8
型材断面
  6
CONTINUOUS
 62
    47
 10
-98.730937
 20
-75.145125
 11
-63.255937
 21
-75.145055
  0
LINE
  8
型材断面
  6
CONTINUOUS
 62
    47
 10
-98.730937
 20
-74.89505
 11
-63.255937
 21
-74.89505
  0
LINE
  8
型材断面
  6
CONTINUOUS
 62
    47
 10
-97.980937
 20
-80.870125
 11
-63.255937
 21
-80.870125
  0
LINE
  8
型材断面
  6
CONTINUOUS
 62
    47
 10
-98.730937
 20
-80.120125
 11
-63.255937
 21
-80.120125
  0
LINE
  8
型材断面
  6
CONTINUOUS
 62
    47
 10
-28.530937
 20
-80.870125
 11
-28.530937
 21
-80.120125
  0
LINE
  8
型材断面
  6
CONTINUOUS
 62
    47
 10
-27.780937
 20
-80.120125
 11
-27.780937
 21
-75.145125
  0
LINE
  8
型材断面
  6
CONTINUOUS
 62
    47
 10
-27.780937
 20
-71.63505
 11
-27.780937
 21
-74.89505
  0
LINE
  8
型材断面
  6
CONTINUOUS
 62
    47
 10
-29.105937
 20
-71.63505
 11
-29.105937
 21
-71.069873
  0
LINE
  8
型材断面
  6
CONTINUOUS
 62
    47
 10
-27.780937
 20
-71.63505
 11
-63.255937
 21
-71.63505
  0
LINE
  8
型材断面
  6
CONTINUOUS
 62
    47
 10
-27.780937
 20
-75.145125
 11
-63.255937
 21
-75.145055
  0
LINE
  8
型材断面
  6
CONTINUOUS
 62
    47
 10
-27.780937
 20
-74.89505
 11
-63.255937
 21
-74.89505
  0
LINE
  8
型材断面
  6
CONTINUOUS
 62
    47
 10
-28.530937
 20
-80.870125
 11
-63.255937
 21
-80.870125
  0
LINE
  8
型材断面
  6
CONTINUOUS
 62
    47
 10
-27.780937
 20
-80.120125
 11
-63.255937
 21
-80.120125
  0
LINE
  8
型材断面
  6
CONTINUOUS
 62
    47
 10
48.007963
 20
-80.870125
 11
48.007963
 21
-80.120125
  0
LINE
  8
型材断面
  6
CONTINUOUS
 62
    47
 10
47.257963
 20
-80.120125
 11
47.257963
 21
-75.145125
  0
LINE
  8
型材断面
  6
CONTINUOUS
 62
    47
 10
47.257963
 20
-71.63505
 11
47.257963
 21
-74.89505
  0
LINE
  8
型材断面
  6
CONTINUOUS
 62
    47
 10
48.582963
 20
-71.63505
 11
48.582963
 21
-71.069873
  0
LINE
  8
型材断面
  6
CONTINUOUS
 62
    47
 10
47.257963
 20
-71.63505
 11
82.732963
 21
-71.63505
  0
LINE
  8
型材断面
  6
CONTINUOUS
 62
    47
 10
47.257963
 20
-75.145125
 11
82.732963
 21
-75.145055
  0
LINE
  8
型材断面
  6
CONTINUOUS
 62
    47
 10
47.257963
 20
-74.89505
 11
82.732963
 21
-74.89505
  0
LINE
  8
型材断面
  6
CONTINUOUS
 62
    47
 10
48.007963
 20
-80.870125
 11
82.732963
 21
-80.870125
  0
LINE
  8
型材断面
  6
CONTINUOUS
 62
    47
 10
47.257963
 20
-80.120125
 11
82.732963
 21
-80.120125
  0
LINE
  8
型材断面
  6
CONTINUOUS
 62
    47
 10
117.457963
 20
-80.870125
 11
117.457963
 21
-80.120125
  0
LINE
  8
型材断面
  6
CONTINUOUS
 62
    47
 10
118.207963
 20
-80.120125
 11
118.207963
 21
-75.145125
  0
LINE
  8
型材断面
  6
CONTINUOUS
 62
    47
 10
118.207963
 20
-71.63505
 11
118.207963
 21
-74.89505
  0
LINE
  8
型材断面
  6
CONTINUOUS
 62
    47
 10
116.882963
 20
-71.63505
 11
116.882963
 21
-71.069873
  0
LINE
  8
型材断面
  6
CONTINUOUS
 62
    47
 10
118.207963
 20
-71.63505
 11
82.732963
 21
-71.63505
  0
LINE
  8
型材断面
  6
CONTINUOUS
 62
    47
 10
118.207963
 20
-75.145125
 11
82.732963
 21
-75.145055
  0
LINE
  8
型材断面
  6
CONTINUOUS
 62
    47
 10
118.207963
 20
-74.89505
 11
82.732963
 21
-74.89505
  0
LINE
  8
型材断面
  6
CONTINUOUS
 62
    47
 10
117.457963
 20
-80.870125
 11
82.732963
 21
-80.870125
  0
LINE
  8
型材断面
  6
CONTINUOUS
 62
    47
 10
118.207963
 20
-80.120125
 11
82.732963
 21
-80.120125
  0
LINE
  8
型材断面
  6
CONTINUOUS
 10
-4.103457
 20
-41.58895
 11
48.553223
 21
-41.58895
  0
LINE
  8
ガラス
  6
CONTINUOUS
 10
103.304785
 20
10.557477
 11
167.304785
 21
10.557477
  0
LINE
  8
ガラス
  6
CONTINUOUS
 10
167.304785
 20
74.557477
 11
167.304785
 21
10.557477
  0
LINE
  8
ガラス
  6
CONTINUOUS
 10
103.304785
 20
10.557477
 11
103.304785
 21
74.557477
  0
LINE
  8
ガラス
  6
CONTINUOUS
 10
167.304785
 20
74.557477
 11
103.304785
 21
74.557477
  0
CIRCLE
  8
ボルト／ビス
  6
CONTINUOUS
 10
-55.755937
 20
60.370383
 40
0.288675
  0
CIRCLE
  8
ボルト／ビス
  6
CONTINUOUS
 10
-55.755937
 20
60.370383
 40
0.455885
  0
CIRCLE
  8
ボルト／ビス
  6
CONTINUOUS
 10
-40.755937
 20
60.370383
 40
0.288675
  0
CIRCLE
  8
ボルト／ビス
  6
CONTINUOUS
 10
-40.755937
 20
60.370383
 40
0.455885
  0
CIRCLE
  8
ボルト／ビス
  6
CONTINUOUS
 10
-70.755937
 20
60.370383
 40
0.288675
  0
CIRCLE
  8
ボルト／ビス
  6
CONTINUOUS
 10
-70.755937
 20
60.370383
 40
0.455885
  0
CIRCLE
  8
ボルト／ビス
  6
CONTINUOUS
 10
-85.755937
 20
60.370383
 40
0.288675
  0
CIRCLE
  8
ボルト／ビス
  6
CONTINUOUS
 10
-85.755937
 20
60.370383
 40
0.455885
  0
CIRCLE
  8
ボルト／ビス
  6
CONTINUOUS
 10
-96.755935
 20
34.370385
 40
0.288675
  0
CIRCLE
  8
ボルト／ビス
  6
CONTINUOUS
 10
-96.755935
 20
34.370385
 40
0.455885
  0
CIRCLE
  8
ボルト／ビス
  6
CONTINUOUS
 10
-96.755935
 20
49.370385
 40
0.288675
  0
CIRCLE
  8
ボルト／ビス
  6
CONTINUOUS
 10
-96.755935
 20
49.370385
 40
0.455885
  0
CIRCLE
  8
ボルト／ビス
  6
CONTINUOUS
 10
-96.755935
 20
19.37038
 40
0.288675
  0
CIRCLE
  8
ボルト／ビス
  6
CONTINUOUS
 10
-96.755935
 20
19.37038
 40
0.455885
  0
CIRCLE
  8
ボルト／ビス
  6
CONTINUOUS
 10
-96.755935
 20
4.37038
 40
0.288675
  0
CIRCLE
  8
ボルト／ビス
  6
CONTINUOUS
 10
-96.755935
 20
4.37038
 40
0.455885
  0
CIRCLE
  8
ボルト／ビス
  6
CONTINUOUS
 10
-70.75594
 20
-6.629615
 40
0.288675
  0
CIRCLE
  8
ボルト／ビス
  6
CONTINUOUS
 10
-70.75594
 20
-6.629615
 40
0.455885
  0
CIRCLE
  8
ボルト／ビス
  6
CONTINUOUS
 10
-85.75594
 20
-6.629615
 40
0.288675
  0
CIRCLE
  8
ボルト／ビス
  6
CONTINUOUS
 10
-85.75594
 20
-6.629615
 40
0.455885
  0
CIRCLE
  8
ボルト／ビス
  6
CONTINUOUS
 10
-55.755935
 20
-6.629615
 40
0.288675
  0
CIRCLE
  8
ボルト／ビス
  6
CONTINUOUS
 10
-55.755935
 20
-6.629615
 40
0.455885
  0
CIRCLE
  8
ボルト／ビス
  6
CONTINUOUS
 10
-40.755935
 20
-6.629615
 40
0.288675
  0
CIRCLE
  8
ボルト／ビス
  6
CONTINUOUS
 10
-40.755935
 20
-6.629615
 40
0.455885
  0
CIRCLE
  8
ボルト／ビス
  6
CONTINUOUS
 10
-29.755937
 20
19.370383
 40
0.288675
  0
CIRCLE
  8
ボルト／ビス
  6
CONTINUOUS
 10
-29.755937
 20
19.370383
 40
0.455885
  0
CIRCLE
  8
ボルト／ビス
  6
CONTINUOUS
 10
-29.755937
 20
4.370383
 40
0.288675
  0
CIRCLE
  8
ボルト／ビス
  6
CONTINUOUS
 10
-29.755937
 20
4.370383
 40
0.455885
  0
CIRCLE
  8
ボルト／ビス
  6
CONTINUOUS
 10
-29.755937
 20
34.370383
 40
0.288675
  0
CIRCLE
  8
ボルト／ビス
  6
CONTINUOUS
 10
-29.755937
 20
34.370383
 40
0.455885
  0
CIRCLE
  8
ボルト／ビス
  6
CONTINUOUS
 10
-29.755937
 20
49.370383
 40
0.288675
  0
CIRCLE
  8
ボルト／ビス
  6
CONTINUOUS
 10
-29.755937
 20
49.370383
 40
0.455885
  0
INSERT
  2
*GRP_0065
  8
ボルト／ビス
  6
DOT
 10
0.0
 20
0.0
  0
TEXT
  7
TextStyle03
  8
文字
  6
CONTINUOUS
 10
-22.075
 20
13.075
  1
ﾊﾞﾗﾝｽｽﾃｰ
 40
3.0
 72
     5
 11
-8.7625
 21
13.075
  0
TEXT
  7
TextStyle03
  8
文字
  6
CONTINUOUS
 10
9.175
 20
-14.975
  1
は排水穴位置を示す
 40
3.0
 72
     5
 11
39.175
 21
-14.975
  0
TEXT
  7
TextStyle03
  8
文字
  6
CONTINUOUS
 10
9.175
 20
-22.825
  1
はケーシング位置を示す
 40
3.0
 72
     5
 11
45.925
 21
-22.825
  0
TEXT
  7
TextStyle03
  8
文字
  6
CONTINUOUS
 10
9.175
 20
-26.2
  1
４ヶ所中1ヶ所に設定
 40
3.0
 72
     5
 11
40.8625
 21
-26.2
  0
INSERT
  2
*GRP_0021
  8
文字
  6
CONTINUOUS
 10
0.0
 20
0.0
  0
INSERT
  2
*GRP_0023
  8
文字
  6
CONTINUOUS
 10
0.0
 20
0.0
  0
INSERT
  2
*GRP_0025
  8
文字
  6
CONTINUOUS
 10
0.0
 20
0.0
  0
INSERT
  2
*GRP_0026
  8
文字
  6
CONTINUOUS
 10
0.0
 20
0.0
  0
INSERT
  2
*GRP_0029
  8
文字
  6
CONTINUOUS
 10
0.0
 20
0.0
  0
INSERT
  2
*GRP_0030
  8
文字
  6
CONTINUOUS
 10
0.0
 20
0.0
  0
INSERT
  2
*GRP_0033
  8
文字
  6
CONTINUOUS
 10
0.0
 20
0.0
  0
INSERT
  2
*GRP_0034
  8
文字
  6
CONTINUOUS
 10
0.0
 20
0.0
  0
INSERT
  2
*GRP_0037
  8
文字
  6
CONTINUOUS
 10
0.0
 20
0.0
  0
INSERT
  2
*GRP_0038
  8
文字
  6
CONTINUOUS
 10
0.0
 20
0.0
  0
INSERT
  2
*GRP_0041
  8
文字
  6
CONTINUOUS
 10
0.0
 20
0.0
  0
INSERT
  2
*GRP_0042
  8
文字
  6
CONTINUOUS
 10
0.0
 20
0.0
  0
INSERT
  2
*GRP_0045
  8
文字
  6
CONTINUOUS
 10
0.0
 20
0.0
  0
INSERT
  2
*GRP_0046
  8
文字
  6
CONTINUOUS
 10
0.0
 20
0.0
  0
INSERT
  2
*GRP_0049
  8
文字
  6
CONTINUOUS
 10
0.0
 20
0.0
  0
INSERT
  2
*GRP_0050
  8
文字
  6
CONTINUOUS
 10
0.0
 20
0.0
  0
TEXT
  7
TextStyle03
  8
文字
  6
CONTINUOUS
 10
-71.55
 20
73.125
  1
可動装置側
 40
3.0
 72
     5
 11
-55.05
 21
73.125
  0
TEXT
  7
TextStyle03
  8
文字
  6
CONTINUOUS
 10
-71.55
 20
-22.575
  1
可動装置側
 40
3.0
 72
     5
 11
-55.05
 21
-22.575
  0
TEXT
  7
TextStyle03
  8
文字
  6
CONTINUOUS
 10
85.55
 20
99.05
  1
ＮＳコード：ＮＳＤＺ
 40
5.0
 72
     5
 11
141.175
 21
99.05
  0
TEXT
  7
TextStyle03
  8
文字
  6
CONTINUOUS
 10
-127.25
 20
-16.5
  1
アンカーピッチ
 40
3.0
 50
90.0
 72
     5
 11
-127.25
 21
6.75
  0
TEXT
  7
TextStyle03
  8
文字
  6
CONTINUOUS
 10
-110.25
 20
86.3
  1
アンカーピッチ
 40
3.0
 72
     5
 11
-87.0
 21
86.3
  0
TEXT
  7
TextStyle03
  8
文字
  6
CONTINUOUS
 10
3.575
 20
-33.35
  1
アンカー数量　８ヶ所
 40
3.0
 72
     5
 11
36.95
 21
-33.35
  0
TEXT
  7
TextStyle03
  8
文字
  6
CONTINUOUS
 10
146.1
 20
18.8
  1
網入り6.8t
 40
3.0
 72
     5
 11
162.7875
 21
18.8
  0
TEXT
  7
TextStyle03
  8
文字
  6
CONTINUOUS
 10
152.725
 20
13.55
  1
×１枚
 40
3.0
 72
     5
 11
162.475
 21
13.55
  0
TEXT
  7
TextStyle03
  8
文字
  6
CONTINUOUS
 10
3.55
 20
-40.175
  1
アームユニット数　２ヶ所
 40
3.0
 72
     5
 11
43.675
 21
-40.175
  0
TEXT
  7
TextStyle03
  8
文字
  6
CONTINUOUS
 10
85.25
 20
117.65
  1
シリーズ：ＴＤ２
 40
5.0
 72
     5
 11
129.625
 21
117.65
  0
TEXT
  7
TextStyle03
  8
文字
  6
CONTINUOUS
 10
85.25
 20
112.025
  1
　　　　　（上下可動）1300×1300タイプ
 40
5.0
 72
     5
 11
191.5
 21
112.025
  0
TEXT
  7
TextStyle03
  8
文字
  6
CONTINUOUS
 10
85.25
 20
106.4
  1
図面名　：外観姿図
 40
5.0
 72
     5
 11
135.25
 21
106.4
  0
TEXT
  7
TextStyle03
  8
文字
  6
CONTINUOUS
 10
85.25
 20
100.775
  1
　　　　　　
 40
5.0
 72
     5
 11
118.375
 21
100.775
  0
INSERT
  2
*DIM_0004
  8
寸法
  6
CONTINUOUS
 10
0.0
 20
0.0
  0
INSERT
  2
*DIM_0005
  8
寸法
  6
CONTINUOUS
 10
0.0
 20
0.0
  0
INSERT
  2
*DIM_0006
  8
寸法
  6
CONTINUOUS
 10
0.0
 20
0.0
  0
INSERT
  2
*DIM_0007
  8
寸法
  6
CONTINUOUS
 10
0.0
 20
0.0
  0
INSERT
  2
*GRP_0008
  8
寸法
  6
CONTINUOUS
 10
0.0
 20
0.0
  0
INSERT
  2
*DIM_0053
  8
寸法
  6
CONTINUOUS
 10
0.0
 20
0.0
  0
INSERT
  2
*DIM_0054
  8
寸法
  6
CONTINUOUS
 10
0.0
 20
0.0
  0
INSERT
  2
*DIM_0055
  8
寸法
  6
CONTINUOUS
 10
0.0
 20
0.0
  0
INSERT
  2
*DIM_0056
  8
寸法
  6
CONTINUOUS
 10
0.0
 20
0.0
  0
INSERT
  2
*DIM_0057
  8
寸法
  6
CONTINUOUS
 10
0.0
 20
0.0
  0
INSERT
  2
*DIM_0058
  8
寸法
  6
CONTINUOUS
 10
0.0
 20
0.0
  0
INSERT
  2
*DIM_0059
  8
寸法
  6
CONTINUOUS
 10
0.0
 20
0.0
  0
INSERT
  2
*DIM_0068
  8
寸法
  6
CONTINUOUS
 10
0.0
 20
0.0
  0
LINE
  8
別途部材
  6
CONTINUOUS
 10
-98.255937
 20
26.870383
 11
-98.255937
 21
-8.129618
  0
LINE
  8
別途部材
  6
CONTINUOUS
 10
-63.255935
 20
-8.129618
 11
-98.255937
 21
-8.129618
  0
LINE
  8
別途部材
  6
CONTINUOUS
 10
-98.855937
 20
26.870383
 11
-98.855937
 21
-8.729618
  0
LINE
  8
別途部材
  6
CONTINUOUS
 10
-63.255935
 20
-8.729618
 11
-98.855937
 21
-8.729618
  0
LINE
  8
別途部材
  6
CONTINUOUS
 10
-98.855937
 20
-8.729618
 11
-98.255937
 21
-8.129618
  0
LINE
  8
別途部材
  6
CONTINUOUS
 10
-95.755937
 20
-5.629618
 11
-83.667053
 21
6.459267
  0
LINE
  8
別途部材
  6
CONTINUOUS
 10
-98.255937
 20
26.870383
 11
-98.255937
 21
61.870385
  0
LINE
  8
別途部材
  6
CONTINUOUS
 10
-63.255935
 20
61.870385
 11
-98.255937
 21
61.870385
  0
LINE
  8
別途部材
  6
CONTINUOUS
 10
-98.855937
 20
26.870383
 11
-98.855937
 21
62.470385
  0
LINE
  8
別途部材
  6
CONTINUOUS
 10
-63.255935
 20
62.470385
 11
-98.855937
 21
62.470385
  0
LINE
  8
別途部材
  6
CONTINUOUS
 10
-98.855937
 20
62.470385
 11
-98.255937
 21
61.870385
  0
LINE
  8
別途部材
  6
CONTINUOUS
 10
-95.755937
 20
59.370385
 11
-83.667053
 21
47.2815
  0
LINE
  8
別途部材
  6
CONTINUOUS
 10
-28.255935
 20
26.870383
 11
-28.255935
 21
61.870385
  0
LINE
  8
別途部材
  6
CONTINUOUS
 10
-63.255935
 20
61.870385
 11
-28.255935
 21
61.870385
  0
LINE
  8
別途部材
  6
CONTINUOUS
 10
-27.655935
 20
26.870383
 11
-27.655935
 21
62.470385
  0
LINE
  8
別途部材
  6
CONTINUOUS
 10
-63.255935
 20
62.470385
 11
-27.655935
 21
62.470385
  0
LINE
  8
別途部材
  6
CONTINUOUS
 10
-27.655935
 20
62.470385
 11
-28.255935
 21
61.870385
  0
LINE
  8
別途部材
  6
CONTINUOUS
 10
-30.755935
 20
59.370385
 11
-42.84482
 21
47.2815
  0
LINE
  8
別途部材
  6
CONTINUOUS
 10
-28.255935
 20
26.870383
 11
-28.255935
 21
-8.129618
  0
LINE
  8
別途部材
  6
CONTINUOUS
 10
-63.255935
 20
-8.129618
 11
-28.255935
 21
-8.129618
  0
LINE
  8
別途部材
  6
CONTINUOUS
 10
-27.655935
 20
26.870383
 11
-27.655935
 21
-8.729618
  0
LINE
  8
別途部材
  6
CONTINUOUS
 10
-63.255935
 20
-8.729618
 11
-27.655935
 21
-8.729618
  0
LINE
  8
別途部材
  6
CONTINUOUS
 10
-27.655935
 20
-8.729618
 11
-28.255935
 21
-8.129618
  0
LINE
  8
別途部材
  6
CONTINUOUS
 10
-30.755935
 20
-5.629618
 11
-42.84482
 21
6.459267
  0
LINE
  8
別途部材
  6
CONTINUOUS
 62
    96
 10
-98.255937
 20
-69.569873
 11
-98.855937
 21
-71.069873
  0
LINE
  8
別途部材
  6
CONTINUOUS
 62
    96
 10
-98.255937
 20
-69.569873
 11
-63.255935
 21
-69.569873
  0
LINE
  8
別途部材
  6
CONTINUOUS
 10
-98.855937
 20
-71.069873
 11
-63.255935
 21
-71.069873
  0
LINE
  8
別途部材
  6
CONTINUOUS
 62
    96
 10
-28.255935
 20
-69.569873
 11
-27.655935
 21
-71.069873
  0
LINE
  8
別途部材
  6
CONTINUOUS
 62
    96
 10
-28.255935
 20
-69.569873
 11
-63.255935
 21
-69.569873
  0
LINE
  8
別途部材
  6
CONTINUOUS
 10
-27.655935
 20
-71.069873
 11
-63.255935
 21
-71.069873
  0
ARC
  8
別途部材
  6
CONTINUOUS
 10
-63.255936
 20
-90.998446
 40
38.928572
 50
33.39849
 51
146.60151
  0
LINE
  8
別途部材
  6
CONTINUOUS
 62
    96
 10
47.732963
 20
-69.569873
 11
47.132963
 21
-71.069873
  0
LINE
  8
別途部材
  6
CONTINUOUS
 62
    96
 10
47.732963
 20
-69.569873
 11
82.732965
 21
-69.569873
  0
LINE
  8
別途部材
  6
CONTINUOUS
 10
47.132963
 20
-71.069873
 11
82.732965
 21
-71.069873
  0
LINE
  8
別途部材
  6
CONTINUOUS
 62
    96
 10
117.732965
 20
-69.569873
 11
118.332965
 21
-71.069873
  0
LINE
  8
別途部材
  6
CONTINUOUS
 62
    96
 10
117.732965
 20
-69.569873
 11
82.732965
 21
-69.569873
  0
LINE
  8
別途部材
  6
CONTINUOUS
 10
118.332965
 20
-71.069873
 11
82.732965
 21
-71.069873
  0
ARC
  8
別途部材
  6
CONTINUOUS
 10
82.732964
 20
-90.998446
 40
38.928572
 50
33.39849
 51
146.60151
  0
INSERT
  2
*GRP_0061
  8
別途部材
  6
DOT
 10
0.0
 20
0.0
  0
INSERT
  2
*GRP_0062
  8
別途部材
  6
DOT
 10
0.0
 20
0.0
  0
INSERT
  2
*GRP_0063
  8
別途部材
  6
DOT
 10
0.0
 20
0.0
  0
INSERT
  2
*GRP_0064
  8
別途部材
  6
DOT
 10
0.0
 20
0.0
  0
ENDSEC
  0
EOF
