  0
SECTION
  2
HEADER
  9
$EXTMIN
 10
-210.0
 20
-148.5
  9
$EXTMAX
 10
210.0
 20
148.5
  9
$PDMODE
 70
    32
  9
$PDSIZE
 40
1.5
  9
$LTSCALE
 40
10.0
  0
ENDSEC
  0
SECTION
  2
TABLES
  0
TABLE
  2
LTYPE
 70
    15
  0
LTYPE
  2
CONTINUOUS
 70
    64
  3
実線
 72
    65
 73
     0
 40
0.0
  0
LTYPE
  2
DASHED
 70
    64
  3
破線A
 72
    65
 73
     2
 40
0.6
 49
0.4
 49
-0.2
  0
LTYPE
  2
DASHEDX2
 70
    64
  3
破線B
 72
    65
 73
     2
 40
1.3
 49
0.9
 49
-0.4
  0
LTYPE
  2
DASHDOT
 70
    64
  3
１点鎖線A
 72
    65
 73
     4
 40
0.5375
 49
0.375
 49
-0.05
 49
0.0625
 49
-0.05
  0
LTYPE
  2
DASHDOTX2
 70
    64
  3
１点鎖線B
 72
    65
 73
     4
 40
1.075
 49
0.75
 49
-0.1
 49
0.125
 49
-0.1
  0
LTYPE
  2
DIVIDE2
 70
    64
  3
２点鎖線A
 72
    65
 73
     6
 40
0.5125
 49
0.3
 49
-0.0375
 49
0.05
 49
-0.0375
 49
0.05
 49
-0.0375
  0
LTYPE
  2
DIVIDE
 70
    64
  3
２点鎖線B
 72
    65
 73
     6
 40
1.05
 49
0.55
 49
-0.1
 49
0.1
 49
-0.1
 49
0.1
 49
-0.1
  0
LTYPE
  2
DOT
 70
    64
  3
点線A
 72
    65
 73
     2
 40
0.1125
 49
0.0625
 49
-0.05
  0
LTYPE
  2
DOTX2
 70
    64
  3
点線B
 72
    65
 73
     2
 40
0.275
 49
0.15
 49
-0.125
  0
LTYPE
  2
CONTINUOUS
 70
    64
  3
実線
 72
    65
 73
     0
 40
0.0
  0
LTYPE
  2
CONTINUOUS
 70
    64
  3
実線
 72
    65
 73
     0
 40
0.0
  0
LTYPE
  2
CONTINUOUS
 70
    64
  3
実線
 72
    65
 73
     0
 40
0.0
  0
LTYPE
  2
CONTINUOUS
 70
    64
  3
実線
 72
    65
 73
     0
 40
0.0
  0
LTYPE
  2
CONTINUOUS
 70
    64
  3
実線
 72
    65
 73
     0
 40
0.0
  0
LTYPE
  2
CONTINUOUS
 70
    64
  3
実線
 72
    65
 73
     0
 40
0.0
  0
ENDTAB
  0
TABLE
  2
LAYER
 70
    34
  0
LAYER
  2
通り芯
 70
     0
 62
    15
  6
CONTINUOUS
  0
LAYER
  2
補助線
 70
     0
 62
    16
  6
DOT
  0
LAYER
  2
躯体
 70
     0
 62
    31
  6
CONTINUOUS
  0
LAYER
  2
型材
 70
     0
 62
    32
  6
CONTINUOUS
  0
LAYER
  2
型材断面
 70
     0
 62
    47
  6
CONTINUOUS
  0
LAYER
  2
ガラス
 70
     0
 62
    48
  6
CONTINUOUS
  0
LAYER
  2
ゴム等
 70
     0
 62
    63
  6
CONTINUOUS
  0
LAYER
  2
ボルト／ビス
 70
     0
 62
    64
  6
CONTINUOUS
  0
LAYER
  2
文字
 70
     0
 62
    79
  6
CONTINUOUS
  0
LAYER
  2
寸法
 70
     0
 62
    80
  6
CONTINUOUS
  0
LAYER
  2
ﾊｯﾁﾝｸﾞ
 70
     0
 62
    95
  6
CONTINUOUS
  0
LAYER
  2
別途部材
 70
     0
 62
    96
  6
CONTINUOUS
  0
LAYER
  2
曲げ物
 70
     0
 62
   111
  6
CONTINUOUS
  0
LAYER
  2
鉄骨等
 70
     0
 62
   112
  6
CONTINUOUS
  0
LAYER
  2
St
 70
     0
 62
   127
  6
CONTINUOUS
  0
LAYER
  2
その他部品等
 70
     0
 62
   128
  6
CONTINUOUS
  0
LAYER
  2
ｶﾞｽｹｯﾄ
 70
     0
 62
   143
  6
CONTINUOUS
  0
LAYER
  2
ｽｹｯﾁ
 70
     0
 62
    14
  6
CONTINUOUS
  0
LAYER
  2
0
 70
     0
 62
    17
  6
CONTINUOUS
  0
LAYER
  2
1
 70
     0
 62
    30
  6
CONTINUOUS
  0
LAYER
  2
4
 70
     0
 62
    33
  6
CONTINUOUS
  0
LAYER
  2
ﾚｲﾔ3
 70
     0
 62
    46
  6
CONTINUOUS
  0
LAYER
  2
外形線
 70
     0
 62
    49
  6
CONTINUOUS
  0
LAYER
  2
部品
 70
     0
 62
    14
  6
CONTINUOUS
  0
LAYER
  2
サッシ芯
 70
     0
 62
    17
  6
DASHDOTX2
  0
LAYER
  2
寸法線
 70
     0
 62
    62
  6
CONTINUOUS
  0
LAYER
  2
姿図外形線
 70
     0
 62
    65
  6
CONTINUOUS
  0
LAYER
  2
姿補助線
 70
     0
 62
    30
  6
CONTINUOUS
  0
LAYER
  2
透視線
 70
     0
 62
    78
  6
DOT
  0
LAYER
  2
用紙
 70
     0
 62
    81
  6
CONTINUOUS
  0
LAYER
  2
実線図枠
 70
     0
 62
    94
  6
CONTINUOUS
  0
LAYER
  2
補助図枠
 70
     0
 62
    97
  6
CONTINUOUS
  0
LAYER
  2
建具記号
 70
     0
 62
   110
  6
CONTINUOUS
  0
LAYER
  2
補助文字
 70
     0
 62
   113
  6
CONTINUOUS
  0
ENDTAB
  0
TABLE
  2
STYLE
 70
    10
  0
STYLE
  2
STANDARD
 70
     0
 40
1.0
 41
1.0
 42
1.0
 50
0.0
 71
     0
  3
TXT
  4
BIGFONT
  0
STYLE
  2
TATE
 70
     4
 40
1.0
 41
1.0
 42
1.0
 50
0.0
 71
     0
  3
TXT
  4
BIGFONT
  0
STYLE
  2
TextStyle03
 70
     0
 40
1.0
 41
1.0
 42
1.0
 50
0.0
 71
     0
  3
MONOTXT
  4
BIGFONT
  0
STYLE
  2
TextStyle04
 70
     0
 40
1.0
 41
1.0
 42
1.0
 50
0.0
 71
     0
  3
MONOTXT
  4
BIGFONT
  0
STYLE
  2
TextStyle05
 70
     0
 40
1.0
 41
1.0
 42
1.0
 50
0.0
 71
     0
  3
MONOTXT
  4
BIGFONT
  0
STYLE
  2
TextStyle06
 70
     0
 40
1.0
 41
1.0
 42
1.0
 50
0.0
 71
     0
  3
MONOTXT
  4
BIGFONT
  0
STYLE
  2
TextStyle07
 70
     0
 40
1.0
 41
1.0
 42
1.0
 50
0.0
 71
     0
  3
MONOTXT
  4
BIGFONT
  0
STYLE
  2
TextStyle08
 70
     0
 40
1.0
 41
1.0
 42
1.0
 50
0.0
 71
     0
  3
MONOTXT
  4
BIGFONT
  0
STYLE
  2
TextStyle09
 70
     0
 40
1.0
 41
1.0
 42
1.0
 50
0.0
 71
     0
  3
MONOTXT
  4
BIGFONT
  0
STYLE
  2
TextStyle10
 70
     0
 40
1.0
 41
1.0
 42
1.0
 50
0.0
 71
     0
  3
MONOTXT
  4
BIGFONT
  0
ENDTAB
  0
ENDSEC
  0
SECTION
  2
BLOCKS
  0
BLOCK
  2
*GRP_0001
 70
    65
 10
0.0
 20
0.0
  0
LINE
  8
型材断面
  6
CONTINUOUS
 10
195.0
 20
133.5
 11
195.0
 21
-133.5
  0
LINE
  8
型材断面
  6
CONTINUOUS
 10
195.0
 20
-133.5
 11
-185.0
 21
-133.5
  0
LINE
  8
型材断面
  6
CONTINUOUS
 10
-185.0
 20
-133.5
 11
-185.0
 21
133.5
  0
LINE
  8
型材断面
  6
CONTINUOUS
 10
195.0
 20
133.5
 11
-185.0
 21
133.5
  0
LINE
  8
型材断面
  6
CONTINUOUS
 10
145.0
 20
-133.5
 11
145.0
 21
-118.5
  0
LINE
  8
型材断面
  6
CONTINUOUS
 10
195.0
 20
-118.5
 11
145.0
 21
-118.5
  0
ENDBLK
  0
BLOCK
  2
*DIM_0002
 70
    65
 10
0.0
 20
0.0
  0
LINE
  8
寸法
  6
BYBLOCK
 62
     0
 10
57.257007
 20
-71.291265
 11
87.226657
 21
-71.291265
  0
LINE
  8
寸法
  6
BYBLOCK
 62
     0
 10
87.226657
 20
-79.624597
 11
87.226657
 21
-71.291265
  0
POINT
  8
寸法
 62
     0
 10
87.226657
 20
-79.624597
  0
POINT
  8
寸法
 62
     0
 10
87.226657
 20
-71.291265
  0
TEXT
  7
TextStyle03
  8
寸法
  6
CONTINUOUS
 62
     0
 10
86.85
 20
-77.9125
  1
250
 40
3.0
 50
90.0
 72
     5
 11
86.85
 21
-73.0375
  0
ENDBLK
  0
BLOCK
  2
*DIM_0003
 70
    65
 10
0.0
 20
0.0
  0
LINE
  8
寸法
  6
BYBLOCK
 62
     0
 10
-112.076325
 20
-22.92619
 11
-112.076325
 21
-22.536362
  0
LINE
  8
寸法
  6
BYBLOCK
 62
     0
 10
71.257007
 20
-22.536362
 11
-112.076325
 21
-22.536362
  0
POINT
  8
寸法
 62
     0
 10
71.257007
 20
-22.536362
  0
POINT
  8
寸法
 62
     0
 10
-112.076325
 20
-22.536362
  0
TEXT
  7
TextStyle03
  8
寸法
  6
CONTINUOUS
 62
     0
 10
-32.14375
 20
-22.175
  1
呼称寸法　5500
 40
3.0
 72
     5
 11
-8.70625
 21
-22.175
  0
ENDBLK
  0
BLOCK
  2
*DIM_0004
 70
    65
 10
0.0
 20
0.0
  0
LINE
  8
寸法
  6
BYBLOCK
 62
     0
 10
-95.409657
 20
9.768917
 11
-95.409657
 21
4.783553
  0
LINE
  8
寸法
  6
BYBLOCK
 62
     0
 10
-20.40966
 20
9.76892
 11
-20.40966
 21
4.783553
  0
LINE
  8
寸法
  6
BYBLOCK
 62
     0
 10
-95.409657
 20
4.783553
 11
-20.40966
 21
4.783553
  0
POINT
  8
寸法
 62
     0
 10
-95.409657
 20
4.783553
  0
POINT
  8
寸法
 62
     0
 10
-20.40966
 20
4.783553
  0
TEXT
  7
TextStyle03
  8
寸法
  6
CONTINUOUS
 62
     0
 10
-61.20625
 20
5.15
  1
2250
 40
3.0
 72
     5
 11
-54.64375
 21
5.15
  0
ENDBLK
  0
BLOCK
  2
*DIM_0005
 70
    65
 10
0.0
 20
0.0
  0
LINE
  8
寸法
  6
BYBLOCK
 62
     0
 10
54.590337
 20
9.768917
 11
54.590337
 21
4.783553
  0
LINE
  8
寸法
  6
BYBLOCK
 62
     0
 10
-20.40966
 20
4.783553
 11
54.590337
 21
4.783553
  0
POINT
  8
寸法
 62
     0
 10
54.590337
 20
4.783553
  0
TEXT
  7
TextStyle03
  8
寸法
  6
CONTINUOUS
 62
     0
 10
13.79375
 20
5.15
  1
2250
 40
3.0
 72
     5
 11
20.35625
 21
5.15
  0
ENDBLK
  0
BLOCK
  2
*DIM_0006
 70
    65
 10
0.0
 20
0.0
  0
LINE
  8
寸法
  6
BYBLOCK
 62
     0
 10
72.257007
 20
43.39905
 11
81.98129
 21
43.39905
  0
LINE
  8
寸法
  6
BYBLOCK
 62
     0
 10
74.887138
 20
39.69905
 11
81.98129
 21
39.69905
  0
LINE
  8
寸法
  6
BYBLOCK
 62
     0
 10
81.98129
 20
43.39905
 11
81.98129
 21
39.69905
  0
POINT
  8
寸法
 62
     0
 10
81.98129
 20
43.39905
  0
POINT
  8
寸法
 62
     0
 10
81.98129
 20
39.69905
  0
TEXT
  7
TextStyle03
  8
寸法
  6
CONTINUOUS
 62
     0
 10
81.65
 20
44.4125
  1
111
 40
3.0
 50
90.0
 72
     5
 11
81.65
 21
49.2875
  0
ENDBLK
  0
BLOCK
  2
*DIM_0007
 70
    65
 10
0.0
 20
0.0
  0
LINE
  8
寸法
  6
BYBLOCK
 62
     0
 10
72.257007
 20
13.399045
 11
81.98129
 21
13.399042
  0
LINE
  8
寸法
  6
BYBLOCK
 62
     0
 10
74.887138
 20
17.099045
 11
81.98129
 21
17.099042
  0
LINE
  8
寸法
  6
BYBLOCK
 62
     0
 10
81.98129
 20
13.399042
 11
81.98129
 21
17.099042
  0
POINT
  8
寸法
 62
     0
 10
81.98129
 20
13.399042
  0
POINT
  8
寸法
 62
     0
 10
81.98129
 20
17.099042
  0
TEXT
  7
TextStyle03
  8
寸法
  6
CONTINUOUS
 62
     0
 10
81.65
 20
7.5375
  1
111
 40
3.0
 50
90.0
 72
     5
 11
81.65
 21
12.4125
  0
ENDBLK
  0
BLOCK
  2
*GRP_0008
 70
    65
 10
0.0
 20
0.0
  0
LINE
  8
別途部材
  6
CONTINUOUS
 62
    96
 10
-113.742993
 20
-79.624597
 11
-114.142993
 21
-80.624597
  0
LINE
  8
別途部材
  6
CONTINUOUS
 10
-114.142993
 20
-80.624597
 11
-20.409657
 21
-80.624597
  0
LINE
  8
別途部材
  6
CONTINUOUS
 62
    96
 10
-113.742993
 20
-79.624597
 11
-20.409657
 21
-79.624597
  0
LINE
  8
別途部材
  6
CONTINUOUS
 10
-20.909657
 20
-70.291265
 11
-21.909657
 21
-71.291265
  0
LINE
  8
別途部材
  6
CONTINUOUS
 10
-22.909657
 20
-71.291265
 11
-23.909657
 21
-70.291265
  0
LINE
  8
別途部材
  6
CONTINUOUS
 10
-24.909657
 20
-70.291265
 11
-25.909657
 21
-71.291265
  0
LINE
  8
別途部材
  6
CONTINUOUS
 10
-23.909657
 20
-70.291265
 11
-24.909657
 21
-70.291265
  0
LINE
  8
別途部材
  6
CONTINUOUS
 10
-20.909657
 20
-70.291265
 11
-20.409657
 21
-70.291265
  0
LINE
  8
別途部材
  6
CONTINUOUS
 10
-26.909657
 20
-71.291265
 11
-27.909657
 21
-70.291265
  0
LINE
  8
別途部材
  6
CONTINUOUS
 10
-28.909657
 20
-70.291265
 11
-29.909657
 21
-71.291265
  0
LINE
  8
別途部材
  6
CONTINUOUS
 10
-27.909657
 20
-70.291265
 11
-28.909657
 21
-70.291265
  0
LINE
  8
別途部材
  6
CONTINUOUS
 10
-30.909657
 20
-71.291265
 11
-31.909657
 21
-70.291265
  0
LINE
  8
別途部材
  6
CONTINUOUS
 10
-32.909657
 20
-70.291265
 11
-33.909657
 21
-71.291265
  0
LINE
  8
別途部材
  6
CONTINUOUS
 10
-31.909657
 20
-70.291265
 11
-32.909657
 21
-70.291265
  0
LINE
  8
別途部材
  6
CONTINUOUS
 10
-34.909657
 20
-71.291265
 11
-35.909657
 21
-70.291265
  0
LINE
  8
別途部材
  6
CONTINUOUS
 10
-36.909657
 20
-70.291265
 11
-37.909657
 21
-71.291265
  0
LINE
  8
別途部材
  6
CONTINUOUS
 10
-35.909657
 20
-70.291265
 11
-36.909657
 21
-70.291265
  0
LINE
  8
別途部材
  6
CONTINUOUS
 10
-38.909657
 20
-71.291265
 11
-39.909657
 21
-70.291265
  0
LINE
  8
別途部材
  6
CONTINUOUS
 10
-40.909657
 20
-70.291265
 11
-41.909657
 21
-71.291265
  0
LINE
  8
別途部材
  6
CONTINUOUS
 10
-39.909657
 20
-70.291265
 11
-40.909657
 21
-70.291265
  0
LINE
  8
別途部材
  6
CONTINUOUS
 10
-42.909657
 20
-71.291265
 11
-43.909657
 21
-70.291265
  0
LINE
  8
別途部材
  6
CONTINUOUS
 10
-44.909657
 20
-70.291265
 11
-45.909657
 21
-71.291265
  0
LINE
  8
別途部材
  6
CONTINUOUS
 10
-43.909657
 20
-70.291265
 11
-44.909657
 21
-70.291265
  0
LINE
  8
別途部材
  6
CONTINUOUS
 10
-46.909657
 20
-71.291265
 11
-47.909657
 21
-70.291265
  0
LINE
  8
別途部材
  6
CONTINUOUS
 10
-48.909657
 20
-70.291265
 11
-49.909657
 21
-71.291265
  0
LINE
  8
別途部材
  6
CONTINUOUS
 10
-47.909657
 20
-70.291265
 11
-48.909657
 21
-70.291265
  0
LINE
  8
別途部材
  6
CONTINUOUS
 10
-50.909657
 20
-71.291265
 11
-51.909657
 21
-70.291265
  0
LINE
  8
別途部材
  6
CONTINUOUS
 10
-52.909657
 20
-70.291265
 11
-53.909657
 21
-71.291265
  0
LINE
  8
別途部材
  6
CONTINUOUS
 10
-51.909657
 20
-70.291265
 11
-52.909657
 21
-70.291265
  0
LINE
  8
別途部材
  6
CONTINUOUS
 10
-54.909657
 20
-71.291265
 11
-55.909657
 21
-70.291265
  0
LINE
  8
別途部材
  6
CONTINUOUS
 10
-56.909657
 20
-70.291265
 11
-57.909657
 21
-71.291265
  0
LINE
  8
別途部材
  6
CONTINUOUS
 10
-55.909657
 20
-70.291265
 11
-56.909657
 21
-70.291265
  0
LINE
  8
別途部材
  6
CONTINUOUS
 10
-58.909657
 20
-71.291265
 11
-59.909657
 21
-70.291265
  0
LINE
  8
別途部材
  6
CONTINUOUS
 10
-60.909657
 20
-70.291265
 11
-61.909657
 21
-71.291265
  0
LINE
  8
別途部材
  6
CONTINUOUS
 10
-59.909657
 20
-70.291265
 11
-60.909657
 21
-70.291265
  0
LINE
  8
別途部材
  6
CONTINUOUS
 10
-62.909657
 20
-71.291265
 11
-63.909657
 21
-70.291265
  0
LINE
  8
別途部材
  6
CONTINUOUS
 10
-64.909657
 20
-70.291265
 11
-65.909657
 21
-71.291265
  0
LINE
  8
別途部材
  6
CONTINUOUS
 10
-63.909657
 20
-70.291265
 11
-64.909657
 21
-70.291265
  0
LINE
  8
別途部材
  6
CONTINUOUS
 10
-61.909657
 20
-71.291265
 11
-62.909657
 21
-71.291265
  0
LINE
  8
別途部材
  6
CONTINUOUS
 10
-57.909657
 20
-71.291265
 11
-58.909657
 21
-71.291265
  0
LINE
  8
別途部材
  6
CONTINUOUS
 10
-53.909657
 20
-71.291265
 11
-54.909657
 21
-71.291265
  0
LINE
  8
別途部材
  6
CONTINUOUS
 10
-49.909657
 20
-71.291265
 11
-50.909657
 21
-71.291265
  0
LINE
  8
別途部材
  6
CONTINUOUS
 10
-45.909657
 20
-71.291265
 11
-46.909657
 21
-71.291265
  0
LINE
  8
別途部材
  6
CONTINUOUS
 10
-41.909657
 20
-71.291265
 11
-42.909657
 21
-71.291265
  0
LINE
  8
別途部材
  6
CONTINUOUS
 10
-37.909657
 20
-71.291265
 11
-38.909657
 21
-71.291265
  0
LINE
  8
別途部材
  6
CONTINUOUS
 10
-33.909657
 20
-71.291265
 11
-34.909657
 21
-71.291265
  0
LINE
  8
別途部材
  6
CONTINUOUS
 10
-29.909657
 20
-71.291265
 11
-30.909657
 21
-71.291265
  0
LINE
  8
別途部材
  6
CONTINUOUS
 10
-25.909657
 20
-71.291265
 11
-26.909657
 21
-71.291265
  0
LINE
  8
別途部材
  6
CONTINUOUS
 10
-22.909657
 20
-71.291265
 11
-21.909657
 21
-71.291265
  0
LINE
  8
別途部材
  6
CONTINUOUS
 10
-66.909657
 20
-71.291265
 11
-67.909657
 21
-70.291265
  0
LINE
  8
別途部材
  6
CONTINUOUS
 10
-68.909657
 20
-70.291265
 11
-69.909657
 21
-71.291265
  0
LINE
  8
別途部材
  6
CONTINUOUS
 10
-67.909657
 20
-70.291265
 11
-68.909657
 21
-70.291265
  0
LINE
  8
別途部材
  6
CONTINUOUS
 10
-70.909657
 20
-71.291265
 11
-71.909657
 21
-70.291265
  0
LINE
  8
別途部材
  6
CONTINUOUS
 10
-72.909657
 20
-70.291265
 11
-73.909657
 21
-71.291265
  0
LINE
  8
別途部材
  6
CONTINUOUS
 10
-71.909657
 20
-70.291265
 11
-72.909657
 21
-70.291265
  0
LINE
  8
別途部材
  6
CONTINUOUS
 10
-74.909657
 20
-71.291265
 11
-75.909657
 21
-70.291265
  0
LINE
  8
別途部材
  6
CONTINUOUS
 10
-76.909657
 20
-70.291265
 11
-77.909657
 21
-71.291265
  0
LINE
  8
別途部材
  6
CONTINUOUS
 10
-75.909657
 20
-70.291265
 11
-76.909657
 21
-70.291265
  0
LINE
  8
別途部材
  6
CONTINUOUS
 10
-78.909657
 20
-71.291265
 11
-79.909657
 21
-70.291265
  0
LINE
  8
別途部材
  6
CONTINUOUS
 10
-80.909657
 20
-70.291265
 11
-81.909657
 21
-71.291265
  0
LINE
  8
別途部材
  6
CONTINUOUS
 10
-79.909657
 20
-70.291265
 11
-80.909657
 21
-70.291265
  0
LINE
  8
別途部材
  6
CONTINUOUS
 10
-82.909657
 20
-71.291265
 11
-83.909657
 21
-70.291265
  0
LINE
  8
別途部材
  6
CONTINUOUS
 10
-84.909657
 20
-70.291265
 11
-85.909657
 21
-71.291265
  0
LINE
  8
別途部材
  6
CONTINUOUS
 10
-83.909657
 20
-70.291265
 11
-84.909657
 21
-70.291265
  0
LINE
  8
別途部材
  6
CONTINUOUS
 10
-86.909657
 20
-71.291265
 11
-87.909657
 21
-70.291265
  0
LINE
  8
別途部材
  6
CONTINUOUS
 10
-88.909657
 20
-70.291265
 11
-89.909657
 21
-71.291265
  0
LINE
  8
別途部材
  6
CONTINUOUS
 10
-87.909657
 20
-70.291265
 11
-88.909657
 21
-70.291265
  0
LINE
  8
別途部材
  6
CONTINUOUS
 10
-90.909657
 20
-71.291265
 11
-91.909657
 21
-70.291265
  0
LINE
  8
別途部材
  6
CONTINUOUS
 10
-92.909657
 20
-70.291265
 11
-93.909657
 21
-71.291265
  0
LINE
  8
別途部材
  6
CONTINUOUS
 10
-91.909657
 20
-70.291265
 11
-92.909657
 21
-70.291265
  0
LINE
  8
別途部材
  6
CONTINUOUS
 10
-94.909657
 20
-71.291265
 11
-95.909657
 21
-70.291265
  0
LINE
  8
別途部材
  6
CONTINUOUS
 10
-96.909657
 20
-70.291265
 11
-97.909657
 21
-71.291265
  0
LINE
  8
別途部材
  6
CONTINUOUS
 10
-95.909657
 20
-70.291265
 11
-96.909657
 21
-70.291265
  0
LINE
  8
別途部材
  6
CONTINUOUS
 10
-93.909657
 20
-71.291265
 11
-94.909657
 21
-71.291265
  0
LINE
  8
別途部材
  6
CONTINUOUS
 10
-89.909657
 20
-71.291265
 11
-90.909657
 21
-71.291265
  0
LINE
  8
別途部材
  6
CONTINUOUS
 10
-85.909657
 20
-71.291265
 11
-86.909657
 21
-71.291265
  0
LINE
  8
別途部材
  6
CONTINUOUS
 10
-81.909657
 20
-71.291265
 11
-82.909657
 21
-71.291265
  0
LINE
  8
別途部材
  6
CONTINUOUS
 10
-77.909657
 20
-71.291265
 11
-78.909657
 21
-71.291265
  0
LINE
  8
別途部材
  6
CONTINUOUS
 10
-73.909657
 20
-71.291265
 11
-74.909657
 21
-71.291265
  0
LINE
  8
別途部材
  6
CONTINUOUS
 10
-69.909657
 20
-71.291265
 11
-70.909657
 21
-71.291265
  0
LINE
  8
別途部材
  6
CONTINUOUS
 10
-65.909657
 20
-71.291265
 11
-66.909657
 21
-71.291265
  0
LINE
  8
別途部材
  6
CONTINUOUS
 10
-97.909657
 20
-71.291265
 11
-97.909657
 21
-79.624597
  0
LINE
  8
別途部材
  6
CONTINUOUS
 10
-95.909657
 20
-70.291265
 11
-95.909657
 21
-79.624597
  0
LINE
  8
別途部材
  6
CONTINUOUS
 10
-96.909657
 20
-70.291265
 11
-96.909657
 21
-79.624597
  0
LINE
  8
別途部材
  6
CONTINUOUS
 10
-93.909657
 20
-71.291265
 11
-93.909657
 21
-79.624597
  0
LINE
  8
別途部材
  6
CONTINUOUS
 10
-94.909657
 20
-71.291265
 11
-94.909657
 21
-79.624597
  0
LINE
  8
別途部材
  6
CONTINUOUS
 10
-92.909657
 20
-70.291265
 11
-92.909657
 21
-79.624597
  0
LINE
  8
別途部材
  6
CONTINUOUS
 10
-90.909657
 20
-71.291265
 11
-90.909657
 21
-79.624597
  0
LINE
  8
別途部材
  6
CONTINUOUS
 10
-91.909657
 20
-70.291265
 11
-91.909657
 21
-79.624597
  0
LINE
  8
別途部材
  6
CONTINUOUS
 10
-89.909657
 20
-71.291265
 11
-89.909657
 21
-79.624597
  0
LINE
  8
別途部材
  6
CONTINUOUS
 10
-88.909657
 20
-70.291265
 11
-88.909657
 21
-79.624597
  0
LINE
  8
別途部材
  6
CONTINUOUS
 10
-86.909657
 20
-71.291265
 11
-86.909657
 21
-79.624597
  0
LINE
  8
別途部材
  6
CONTINUOUS
 10
-87.909657
 20
-70.291265
 11
-87.909657
 21
-79.624597
  0
LINE
  8
別途部材
  6
CONTINUOUS
 10
-84.909657
 20
-70.291265
 11
-84.909657
 21
-79.624597
  0
LINE
  8
別途部材
  6
CONTINUOUS
 10
-85.909657
 20
-71.291265
 11
-85.909657
 21
-79.624597
  0
LINE
  8
別途部材
  6
CONTINUOUS
 10
-82.909657
 20
-71.291265
 11
-82.909657
 21
-79.624597
  0
LINE
  8
別途部材
  6
CONTINUOUS
 10
-83.909657
 20
-70.291265
 11
-83.909657
 21
-79.624597
  0
LINE
  8
別途部材
  6
CONTINUOUS
 10
-81.909657
 20
-71.291265
 11
-81.909657
 21
-79.624597
  0
LINE
  8
別途部材
  6
CONTINUOUS
 10
-79.909657
 20
-70.291265
 11
-79.909657
 21
-79.624597
  0
LINE
  8
別途部材
  6
CONTINUOUS
 10
-80.909657
 20
-70.291265
 11
-80.909657
 21
-79.624597
  0
LINE
  8
別途部材
  6
CONTINUOUS
 10
-78.909657
 20
-71.291265
 11
-78.909657
 21
-79.624597
  0
LINE
  8
別途部材
  6
CONTINUOUS
 10
-77.909657
 20
-71.291265
 11
-77.909657
 21
-79.624597
  0
LINE
  8
別途部材
  6
CONTINUOUS
 10
-76.909657
 20
-70.291265
 11
-76.909657
 21
-79.624597
  0
LINE
  8
別途部材
  6
CONTINUOUS
 10
-75.909657
 20
-70.291265
 11
-75.909657
 21
-79.624597
  0
LINE
  8
別途部材
  6
CONTINUOUS
 10
-71.909657
 20
-70.291265
 11
-71.909657
 21
-79.624597
  0
LINE
  8
別途部材
  6
CONTINUOUS
 10
-64.909657
 20
-70.291265
 11
-64.909657
 21
-79.624597
  0
LINE
  8
別途部材
  6
CONTINUOUS
 10
-60.909657
 20
-70.291265
 11
-60.909657
 21
-79.624597
  0
LINE
  8
別途部材
  6
CONTINUOUS
 10
-58.909657
 20
-71.291265
 11
-58.909657
 21
-79.624597
  0
LINE
  8
別途部材
  6
CONTINUOUS
 10
-63.909657
 20
-70.291265
 11
-63.909657
 21
-79.624597
  0
LINE
  8
別途部材
  6
CONTINUOUS
 10
-67.909657
 20
-70.291265
 11
-67.909657
 21
-79.624597
  0
LINE
  8
別途部材
  6
CONTINUOUS
 10
-69.909657
 20
-71.291265
 11
-69.909657
 21
-79.624597
  0
LINE
  8
別途部材
  6
CONTINUOUS
 10
-72.909657
 20
-70.291265
 11
-72.909657
 21
-79.624597
  0
LINE
  8
別途部材
  6
CONTINUOUS
 10
-73.909657
 20
-71.291265
 11
-73.909657
 21
-79.624597
  0
LINE
  8
別途部材
  6
CONTINUOUS
 10
-74.909657
 20
-71.291265
 11
-74.909657
 21
-79.624597
  0
LINE
  8
別途部材
  6
CONTINUOUS
 10
-70.909657
 20
-71.291265
 11
-70.909657
 21
-79.624597
  0
LINE
  8
別途部材
  6
CONTINUOUS
 10
-68.909657
 20
-70.291265
 11
-68.909657
 21
-79.624597
  0
LINE
  8
別途部材
  6
CONTINUOUS
 10
-66.909657
 20
-71.291265
 11
-66.909657
 21
-79.624597
  0
LINE
  8
別途部材
  6
CONTINUOUS
 10
-65.909657
 20
-71.291265
 11
-65.909657
 21
-79.624597
  0
LINE
  8
別途部材
  6
CONTINUOUS
 10
-62.909657
 20
-71.291265
 11
-62.909657
 21
-79.624597
  0
LINE
  8
別途部材
  6
CONTINUOUS
 10
-61.909657
 20
-71.291265
 11
-61.909657
 21
-79.624597
  0
LINE
  8
別途部材
  6
CONTINUOUS
 10
-59.909657
 20
-70.291265
 11
-59.909657
 21
-79.624597
  0
LINE
  8
別途部材
  6
CONTINUOUS
 10
-56.909657
 20
-70.291265
 11
-56.909657
 21
-79.624597
  0
LINE
  8
別途部材
  6
CONTINUOUS
 10
-57.909657
 20
-71.291265
 11
-57.909657
 21
-79.624597
  0
LINE
  8
別途部材
  6
CONTINUOUS
 10
-55.909657
 20
-70.291265
 11
-55.909657
 21
-79.624597
  0
LINE
  8
別途部材
  6
CONTINUOUS
 10
-54.909657
 20
-71.291265
 11
-54.909657
 21
-79.624597
  0
LINE
  8
別途部材
  6
CONTINUOUS
 10
-53.909657
 20
-71.291265
 11
-53.909657
 21
-79.624597
  0
LINE
  8
別途部材
  6
CONTINUOUS
 10
-52.909657
 20
-70.291265
 11
-52.909657
 21
-79.624597
  0
LINE
  8
別途部材
  6
CONTINUOUS
 10
-50.909657
 20
-71.291265
 11
-50.909657
 21
-79.624597
  0
LINE
  8
別途部材
  6
CONTINUOUS
 10
-51.909657
 20
-70.291265
 11
-51.909657
 21
-79.624597
  0
LINE
  8
別途部材
  6
CONTINUOUS
 10
-48.909657
 20
-70.291265
 11
-48.909657
 21
-79.624597
  0
LINE
  8
別途部材
  6
CONTINUOUS
 10
-49.909657
 20
-71.291265
 11
-49.909657
 21
-79.624597
  0
LINE
  8
別途部材
  6
CONTINUOUS
 10
-45.909657
 20
-71.291265
 11
-45.909657
 21
-79.624597
  0
LINE
  8
別途部材
  6
CONTINUOUS
 10
-44.909657
 20
-70.291265
 11
-44.909657
 21
-79.624597
  0
LINE
  8
別途部材
  6
CONTINUOUS
 10
-43.909657
 20
-70.291265
 11
-43.909657
 21
-79.624597
  0
LINE
  8
別途部材
  6
CONTINUOUS
 10
-46.909657
 20
-71.291265
 11
-46.909657
 21
-79.624597
  0
LINE
  8
別途部材
  6
CONTINUOUS
 10
-47.909657
 20
-70.291265
 11
-47.909657
 21
-79.624597
  0
LINE
  8
別途部材
  6
CONTINUOUS
 10
-39.909657
 20
-70.291265
 11
-39.909657
 21
-79.624597
  0
LINE
  8
別途部材
  6
CONTINUOUS
 10
-41.909657
 20
-71.291265
 11
-41.909657
 21
-79.624597
  0
LINE
  8
別途部材
  6
CONTINUOUS
 10
-42.909657
 20
-71.291265
 11
-42.909657
 21
-79.624597
  0
LINE
  8
別途部材
  6
CONTINUOUS
 10
-40.909657
 20
-70.291265
 11
-40.909657
 21
-79.624597
  0
LINE
  8
別途部材
  6
CONTINUOUS
 10
-38.909657
 20
-71.291265
 11
-38.909657
 21
-79.624597
  0
LINE
  8
別途部材
  6
CONTINUOUS
 10
-36.909657
 20
-70.291265
 11
-36.909657
 21
-79.624597
  0
LINE
  8
別途部材
  6
CONTINUOUS
 10
-35.909657
 20
-70.291265
 11
-35.909657
 21
-79.624597
  0
LINE
  8
別途部材
  6
CONTINUOUS
 10
-33.909657
 20
-71.291265
 11
-33.909657
 21
-79.624597
  0
LINE
  8
別途部材
  6
CONTINUOUS
 10
-34.909657
 20
-71.291265
 11
-34.909657
 21
-79.624597
  0
LINE
  8
別途部材
  6
CONTINUOUS
 10
-37.909657
 20
-71.291265
 11
-37.909657
 21
-79.624597
  0
LINE
  8
別途部材
  6
CONTINUOUS
 10
-32.909657
 20
-70.291265
 11
-32.909657
 21
-79.624597
  0
LINE
  8
別途部材
  6
CONTINUOUS
 10
-30.909657
 20
-71.291265
 11
-30.909657
 21
-79.624597
  0
LINE
  8
別途部材
  6
CONTINUOUS
 10
-31.909657
 20
-70.291265
 11
-31.909657
 21
-79.624597
  0
LINE
  8
別途部材
  6
CONTINUOUS
 10
-29.909657
 20
-71.291265
 11
-29.909657
 21
-79.624597
  0
LINE
  8
別途部材
  6
CONTINUOUS
 10
-28.909657
 20
-70.291265
 11
-28.909657
 21
-79.624597
  0
LINE
  8
別途部材
  6
CONTINUOUS
 10
-26.909657
 20
-71.291265
 11
-26.909657
 21
-79.624597
  0
LINE
  8
別途部材
  6
CONTINUOUS
 10
-27.909657
 20
-70.291265
 11
-27.909657
 21
-79.624597
  0
LINE
  8
別途部材
  6
CONTINUOUS
 10
-25.909657
 20
-71.291265
 11
-25.909657
 21
-79.624597
  0
LINE
  8
別途部材
  6
CONTINUOUS
 10
-24.909657
 20
-70.291265
 11
-24.909657
 21
-79.624597
  0
LINE
  8
別途部材
  6
CONTINUOUS
 10
-22.909657
 20
-71.291265
 11
-22.909657
 21
-79.624597
  0
LINE
  8
別途部材
  6
CONTINUOUS
 10
-23.909657
 20
-70.291265
 11
-23.909657
 21
-79.624597
  0
LINE
  8
別途部材
  6
CONTINUOUS
 10
-21.909657
 20
-71.291265
 11
-21.909657
 21
-79.624597
  0
LINE
  8
別途部材
  6
CONTINUOUS
 10
-20.909657
 20
-70.291265
 11
-20.909657
 21
-79.624597
  0
ARC
  8
別途部材
  6
CONTINUOUS
 10
-97.076326
 20
-88.957936
 40
17.666667
 50
92.703632
 51
148.109204
  0
LINE
  8
別途部材
  6
CONTINUOUS
 62
    96
 10
72.923675
 20
-79.624597
 11
73.323675
 21
-80.624597
  0
LINE
  8
別途部材
  6
CONTINUOUS
 10
73.323675
 20
-80.624597
 11
-20.409657
 21
-80.624597
  0
LINE
  8
別途部材
  6
CONTINUOUS
 62
    96
 10
72.923675
 20
-79.624597
 11
-20.409657
 21
-79.624597
  0
LINE
  8
別途部材
  6
CONTINUOUS
 10
-19.909657
 20
-70.291265
 11
-18.909657
 21
-71.291265
  0
LINE
  8
別途部材
  6
CONTINUOUS
 10
-17.909657
 20
-71.291265
 11
-16.909657
 21
-70.291265
  0
LINE
  8
別途部材
  6
CONTINUOUS
 10
-15.909657
 20
-70.291265
 11
-14.909657
 21
-71.291265
  0
LINE
  8
別途部材
  6
CONTINUOUS
 10
-16.909657
 20
-70.291265
 11
-15.909657
 21
-70.291265
  0
LINE
  8
別途部材
  6
CONTINUOUS
 10
-19.909657
 20
-70.291265
 11
-20.409657
 21
-70.291265
  0
LINE
  8
別途部材
  6
CONTINUOUS
 10
-13.909657
 20
-71.291265
 11
-12.909657
 21
-70.291265
  0
LINE
  8
別途部材
  6
CONTINUOUS
 10
-11.909657
 20
-70.291265
 11
-10.909657
 21
-71.291265
  0
LINE
  8
別途部材
  6
CONTINUOUS
 10
-12.909657
 20
-70.291265
 11
-11.909657
 21
-70.291265
  0
LINE
  8
別途部材
  6
CONTINUOUS
 10
-9.909657
 20
-71.291265
 11
-8.909657
 21
-70.291265
  0
LINE
  8
別途部材
  6
CONTINUOUS
 10
-7.909657
 20
-70.291265
 11
-6.909657
 21
-71.291265
  0
LINE
  8
別途部材
  6
CONTINUOUS
 10
-8.909657
 20
-70.291265
 11
-7.909657
 21
-70.291265
  0
LINE
  8
別途部材
  6
CONTINUOUS
 10
-5.909657
 20
-71.291265
 11
-4.909657
 21
-70.291265
  0
LINE
  8
別途部材
  6
CONTINUOUS
 10
-3.909657
 20
-70.291265
 11
-2.909657
 21
-71.291265
  0
LINE
  8
別途部材
  6
CONTINUOUS
 10
-4.909657
 20
-70.291265
 11
-3.909657
 21
-70.291265
  0
LINE
  8
別途部材
  6
CONTINUOUS
 10
-1.909657
 20
-71.291265
 11
-0.909657
 21
-70.291265
  0
LINE
  8
別途部材
  6
CONTINUOUS
 10
0.090343
 20
-70.291265
 11
1.090343
 21
-71.291265
  0
LINE
  8
別途部材
  6
CONTINUOUS
 10
-0.909657
 20
-70.291265
 11
0.090343
 21
-70.291265
  0
LINE
  8
別途部材
  6
CONTINUOUS
 10
2.090343
 20
-71.291265
 11
3.090343
 21
-70.291265
  0
LINE
  8
別途部材
  6
CONTINUOUS
 10
4.090343
 20
-70.291265
 11
5.090343
 21
-71.291265
  0
LINE
  8
別途部材
  6
CONTINUOUS
 10
3.090343
 20
-70.291265
 11
4.090343
 21
-70.291265
  0
LINE
  8
別途部材
  6
CONTINUOUS
 10
6.090343
 20
-71.291265
 11
7.090343
 21
-70.291265
  0
LINE
  8
別途部材
  6
CONTINUOUS
 10
8.090343
 20
-70.291265
 11
9.090343
 21
-71.291265
  0
LINE
  8
別途部材
  6
CONTINUOUS
 10
7.090343
 20
-70.291265
 11
8.090343
 21
-70.291265
  0
LINE
  8
別途部材
  6
CONTINUOUS
 10
10.090343
 20
-71.291265
 11
11.090343
 21
-70.291265
  0
LINE
  8
別途部材
  6
CONTINUOUS
 10
12.090343
 20
-70.291265
 11
13.090343
 21
-71.291265
  0
LINE
  8
別途部材
  6
CONTINUOUS
 10
11.090343
 20
-70.291265
 11
12.090343
 21
-70.291265
  0
LINE
  8
別途部材
  6
CONTINUOUS
 10
14.090343
 20
-71.291265
 11
15.090343
 21
-70.291265
  0
LINE
  8
別途部材
  6
CONTINUOUS
 10
16.090343
 20
-70.291265
 11
17.090343
 21
-71.291265
  0
LINE
  8
別途部材
  6
CONTINUOUS
 10
15.090343
 20
-70.291265
 11
16.090343
 21
-70.291265
  0
LINE
  8
別途部材
  6
CONTINUOUS
 10
18.090343
 20
-71.291265
 11
19.090343
 21
-70.291265
  0
LINE
  8
別途部材
  6
CONTINUOUS
 10
20.090343
 20
-70.291265
 11
21.090343
 21
-71.291265
  0
LINE
  8
別途部材
  6
CONTINUOUS
 10
19.090343
 20
-70.291265
 11
20.090343
 21
-70.291265
  0
LINE
  8
別途部材
  6
CONTINUOUS
 10
22.090343
 20
-71.291265
 11
23.090343
 21
-70.291265
  0
LINE
  8
別途部材
  6
CONTINUOUS
 10
24.090343
 20
-70.291265
 11
25.090343
 21
-71.291265
  0
LINE
  8
別途部材
  6
CONTINUOUS
 10
23.090343
 20
-70.291265
 11
24.090343
 21
-70.291265
  0
LINE
  8
別途部材
  6
CONTINUOUS
 10
21.090343
 20
-71.291265
 11
22.090343
 21
-71.291265
  0
LINE
  8
別途部材
  6
CONTINUOUS
 10
17.090343
 20
-71.291265
 11
18.090343
 21
-71.291265
  0
LINE
  8
別途部材
  6
CONTINUOUS
 10
13.090343
 20
-71.291265
 11
14.090343
 21
-71.291265
  0
LINE
  8
別途部材
  6
CONTINUOUS
 10
9.090343
 20
-71.291265
 11
10.090343
 21
-71.291265
  0
LINE
  8
別途部材
  6
CONTINUOUS
 10
5.090343
 20
-71.291265
 11
6.090343
 21
-71.291265
  0
LINE
  8
別途部材
  6
CONTINUOUS
 10
1.090343
 20
-71.291265
 11
2.090343
 21
-71.291265
  0
LINE
  8
別途部材
  6
CONTINUOUS
 10
-2.909657
 20
-71.291265
 11
-1.909657
 21
-71.291265
  0
LINE
  8
別途部材
  6
CONTINUOUS
 10
-6.909657
 20
-71.291265
 11
-5.909657
 21
-71.291265
  0
LINE
  8
別途部材
  6
CONTINUOUS
 10
-10.909657
 20
-71.291265
 11
-9.909657
 21
-71.291265
  0
LINE
  8
別途部材
  6
CONTINUOUS
 10
-14.909657
 20
-71.291265
 11
-13.909657
 21
-71.291265
  0
LINE
  8
別途部材
  6
CONTINUOUS
 10
-17.909657
 20
-71.291265
 11
-18.909657
 21
-71.291265
  0
LINE
  8
別途部材
  6
CONTINUOUS
 10
26.090343
 20
-71.291265
 11
27.090343
 21
-70.291265
  0
LINE
  8
別途部材
  6
CONTINUOUS
 10
28.090343
 20
-70.291265
 11
29.090343
 21
-71.291265
  0
LINE
  8
別途部材
  6
CONTINUOUS
 10
27.090343
 20
-70.291265
 11
28.090343
 21
-70.291265
  0
LINE
  8
別途部材
  6
CONTINUOUS
 10
30.090343
 20
-71.291265
 11
31.090343
 21
-70.291265
  0
LINE
  8
別途部材
  6
CONTINUOUS
 10
32.090343
 20
-70.291265
 11
33.090343
 21
-71.291265
  0
LINE
  8
別途部材
  6
CONTINUOUS
 10
31.090343
 20
-70.291265
 11
32.090343
 21
-70.291265
  0
LINE
  8
別途部材
  6
CONTINUOUS
 10
34.090343
 20
-71.291265
 11
35.090343
 21
-70.291265
  0
LINE
  8
別途部材
  6
CONTINUOUS
 10
36.090343
 20
-70.291265
 11
37.090343
 21
-71.291265
  0
LINE
  8
別途部材
  6
CONTINUOUS
 10
35.090343
 20
-70.291265
 11
36.090343
 21
-70.291265
  0
LINE
  8
別途部材
  6
CONTINUOUS
 10
38.090343
 20
-71.291265
 11
39.090343
 21
-70.291265
  0
LINE
  8
別途部材
  6
CONTINUOUS
 10
40.090343
 20
-70.291265
 11
41.090343
 21
-71.291265
  0
LINE
  8
別途部材
  6
CONTINUOUS
 10
39.090343
 20
-70.291265
 11
40.090343
 21
-70.291265
  0
LINE
  8
別途部材
  6
CONTINUOUS
 10
42.090343
 20
-71.291265
 11
43.090343
 21
-70.291265
  0
LINE
  8
別途部材
  6
CONTINUOUS
 10
44.090343
 20
-70.291265
 11
45.090343
 21
-71.291265
  0
LINE
  8
別途部材
  6
CONTINUOUS
 10
43.090343
 20
-70.291265
 11
44.090343
 21
-70.291265
  0
LINE
  8
別途部材
  6
CONTINUOUS
 10
46.090343
 20
-71.291265
 11
47.090343
 21
-70.291265
  0
LINE
  8
別途部材
  6
CONTINUOUS
 10
48.090343
 20
-70.291265
 11
49.090343
 21
-71.291265
  0
LINE
  8
別途部材
  6
CONTINUOUS
 10
47.090343
 20
-70.291265
 11
48.090343
 21
-70.291265
  0
LINE
  8
別途部材
  6
CONTINUOUS
 10
50.090343
 20
-71.291265
 11
51.090343
 21
-70.291265
  0
LINE
  8
別途部材
  6
CONTINUOUS
 10
52.090343
 20
-70.291265
 11
53.090343
 21
-71.291265
  0
LINE
  8
別途部材
  6
CONTINUOUS
 10
51.090343
 20
-70.291265
 11
52.090343
 21
-70.291265
  0
LINE
  8
別途部材
  6
CONTINUOUS
 10
54.090343
 20
-71.291265
 11
55.090343
 21
-70.291265
  0
LINE
  8
別途部材
  6
CONTINUOUS
 10
56.090343
 20
-70.291265
 11
57.090343
 21
-71.291265
  0
LINE
  8
別途部材
  6
CONTINUOUS
 10
55.090343
 20
-70.291265
 11
56.090343
 21
-70.291265
  0
LINE
  8
別途部材
  6
CONTINUOUS
 10
53.090343
 20
-71.291265
 11
54.090343
 21
-71.291265
  0
LINE
  8
別途部材
  6
CONTINUOUS
 10
49.090343
 20
-71.291265
 11
50.090343
 21
-71.291265
  0
LINE
  8
別途部材
  6
CONTINUOUS
 10
45.090343
 20
-71.291265
 11
46.090343
 21
-71.291265
  0
LINE
  8
別途部材
  6
CONTINUOUS
 10
41.090343
 20
-71.291265
 11
42.090343
 21
-71.291265
  0
LINE
  8
別途部材
  6
CONTINUOUS
 10
37.090343
 20
-71.291265
 11
38.090343
 21
-71.291265
  0
LINE
  8
別途部材
  6
CONTINUOUS
 10
33.090343
 20
-71.291265
 11
34.090343
 21
-71.291265
  0
LINE
  8
別途部材
  6
CONTINUOUS
 10
29.090343
 20
-71.291265
 11
30.090343
 21
-71.291265
  0
LINE
  8
別途部材
  6
CONTINUOUS
 10
25.090343
 20
-71.291265
 11
26.090343
 21
-71.291265
  0
LINE
  8
別途部材
  6
CONTINUOUS
 10
57.090343
 20
-71.291265
 11
57.090343
 21
-79.624597
  0
LINE
  8
別途部材
  6
CONTINUOUS
 10
55.090343
 20
-70.291265
 11
55.090343
 21
-79.624597
  0
LINE
  8
別途部材
  6
CONTINUOUS
 10
56.090343
 20
-70.291265
 11
56.090343
 21
-79.624597
  0
LINE
  8
別途部材
  6
CONTINUOUS
 10
53.090343
 20
-71.291265
 11
53.090343
 21
-79.624597
  0
LINE
  8
別途部材
  6
CONTINUOUS
 10
54.090343
 20
-71.291265
 11
54.090343
 21
-79.624597
  0
LINE
  8
別途部材
  6
CONTINUOUS
 10
52.090343
 20
-70.291265
 11
52.090343
 21
-79.624597
  0
LINE
  8
別途部材
  6
CONTINUOUS
 10
50.090343
 20
-71.291265
 11
50.090343
 21
-79.624597
  0
LINE
  8
別途部材
  6
CONTINUOUS
 10
51.090343
 20
-70.291265
 11
51.090343
 21
-79.624597
  0
LINE
  8
別途部材
  6
CONTINUOUS
 10
49.090343
 20
-71.291265
 11
49.090343
 21
-79.624597
  0
LINE
  8
別途部材
  6
CONTINUOUS
 10
48.090343
 20
-70.291265
 11
48.090343
 21
-79.624597
  0
LINE
  8
別途部材
  6
CONTINUOUS
 10
46.090343
 20
-71.291265
 11
46.090343
 21
-79.624597
  0
LINE
  8
別途部材
  6
CONTINUOUS
 10
47.090343
 20
-70.291265
 11
47.090343
 21
-79.624597
  0
LINE
  8
別途部材
  6
CONTINUOUS
 10
44.090343
 20
-70.291265
 11
44.090343
 21
-79.624597
  0
LINE
  8
別途部材
  6
CONTINUOUS
 10
45.090343
 20
-71.291265
 11
45.090343
 21
-79.624597
  0
LINE
  8
別途部材
  6
CONTINUOUS
 10
42.090343
 20
-71.291265
 11
42.090343
 21
-79.624597
  0
LINE
  8
別途部材
  6
CONTINUOUS
 10
43.090343
 20
-70.291265
 11
43.090343
 21
-79.624597
  0
LINE
  8
別途部材
  6
CONTINUOUS
 10
41.090343
 20
-71.291265
 11
41.090343
 21
-79.624597
  0
LINE
  8
別途部材
  6
CONTINUOUS
 10
39.090343
 20
-70.291265
 11
39.090343
 21
-79.624597
  0
LINE
  8
別途部材
  6
CONTINUOUS
 10
40.090343
 20
-70.291265
 11
40.090343
 21
-79.624597
  0
LINE
  8
別途部材
  6
CONTINUOUS
 10
38.090343
 20
-71.291265
 11
38.090343
 21
-79.624597
  0
LINE
  8
別途部材
  6
CONTINUOUS
 10
37.090343
 20
-71.291265
 11
37.090343
 21
-79.624597
  0
LINE
  8
別途部材
  6
CONTINUOUS
 10
36.090343
 20
-70.291265
 11
36.090343
 21
-79.624597
  0
LINE
  8
別途部材
  6
CONTINUOUS
 10
35.090343
 20
-70.291265
 11
35.090343
 21
-79.624597
  0
LINE
  8
別途部材
  6
CONTINUOUS
 10
31.090343
 20
-70.291265
 11
31.090343
 21
-79.624597
  0
LINE
  8
別途部材
  6
CONTINUOUS
 10
24.090343
 20
-70.291265
 11
24.090343
 21
-79.624597
  0
LINE
  8
別途部材
  6
CONTINUOUS
 10
20.090343
 20
-70.291265
 11
20.090343
 21
-79.624597
  0
LINE
  8
別途部材
  6
CONTINUOUS
 10
18.090343
 20
-71.291265
 11
18.090343
 21
-79.624597
  0
LINE
  8
別途部材
  6
CONTINUOUS
 10
23.090343
 20
-70.291265
 11
23.090343
 21
-79.624597
  0
LINE
  8
別途部材
  6
CONTINUOUS
 10
27.090343
 20
-70.291265
 11
27.090343
 21
-79.624597
  0
LINE
  8
別途部材
  6
CONTINUOUS
 10
29.090343
 20
-71.291265
 11
29.090343
 21
-79.624597
  0
LINE
  8
別途部材
  6
CONTINUOUS
 10
32.090343
 20
-70.291265
 11
32.090343
 21
-79.624597
  0
LINE
  8
別途部材
  6
CONTINUOUS
 10
33.090343
 20
-71.291265
 11
33.090343
 21
-79.624597
  0
LINE
  8
別途部材
  6
CONTINUOUS
 10
34.090343
 20
-71.291265
 11
34.090343
 21
-79.624597
  0
LINE
  8
別途部材
  6
CONTINUOUS
 10
30.090343
 20
-71.291265
 11
30.090343
 21
-79.624597
  0
LINE
  8
別途部材
  6
CONTINUOUS
 10
28.090343
 20
-70.291265
 11
28.090343
 21
-79.624597
  0
LINE
  8
別途部材
  6
CONTINUOUS
 10
26.090343
 20
-71.291265
 11
26.090343
 21
-79.624597
  0
LINE
  8
別途部材
  6
CONTINUOUS
 10
25.090343
 20
-71.291265
 11
25.090343
 21
-79.624597
  0
LINE
  8
別途部材
  6
CONTINUOUS
 10
22.090343
 20
-71.291265
 11
22.090343
 21
-79.624597
  0
LINE
  8
別途部材
  6
CONTINUOUS
 10
21.090343
 20
-71.291265
 11
21.090343
 21
-79.624597
  0
LINE
  8
別途部材
  6
CONTINUOUS
 10
19.090343
 20
-70.291265
 11
19.090343
 21
-79.624597
  0
LINE
  8
別途部材
  6
CONTINUOUS
 10
16.090343
 20
-70.291265
 11
16.090343
 21
-79.624597
  0
LINE
  8
別途部材
  6
CONTINUOUS
 10
17.090343
 20
-71.291265
 11
17.090343
 21
-79.624597
  0
LINE
  8
別途部材
  6
CONTINUOUS
 10
15.090343
 20
-70.291265
 11
15.090343
 21
-79.624597
  0
LINE
  8
別途部材
  6
CONTINUOUS
 10
14.090343
 20
-71.291265
 11
14.090343
 21
-79.624597
  0
LINE
  8
別途部材
  6
CONTINUOUS
 10
13.090343
 20
-71.291265
 11
13.090343
 21
-79.624597
  0
LINE
  8
別途部材
  6
CONTINUOUS
 10
12.090343
 20
-70.291265
 11
12.090343
 21
-79.624597
  0
LINE
  8
別途部材
  6
CONTINUOUS
 10
10.090343
 20
-71.291265
 11
10.090343
 21
-79.624597
  0
LINE
  8
別途部材
  6
CONTINUOUS
 10
11.090343
 20
-70.291265
 11
11.090343
 21
-79.624597
  0
LINE
  8
別途部材
  6
CONTINUOUS
 10
8.090343
 20
-70.291265
 11
8.090343
 21
-79.624597
  0
LINE
  8
別途部材
  6
CONTINUOUS
 10
9.090343
 20
-71.291265
 11
9.090343
 21
-79.624597
  0
LINE
  8
別途部材
  6
CONTINUOUS
 10
5.090343
 20
-71.291265
 11
5.090343
 21
-79.624597
  0
LINE
  8
別途部材
  6
CONTINUOUS
 10
4.090343
 20
-70.291265
 11
4.090343
 21
-79.624597
  0
LINE
  8
別途部材
  6
CONTINUOUS
 10
3.090343
 20
-70.291265
 11
3.090343
 21
-79.624597
  0
LINE
  8
別途部材
  6
CONTINUOUS
 10
6.090343
 20
-71.291265
 11
6.090343
 21
-79.624597
  0
LINE
  8
別途部材
  6
CONTINUOUS
 10
7.090343
 20
-70.291265
 11
7.090343
 21
-79.624597
  0
LINE
  8
別途部材
  6
CONTINUOUS
 10
-0.909657
 20
-70.291265
 11
-0.909657
 21
-79.624597
  0
LINE
  8
別途部材
  6
CONTINUOUS
 10
1.090343
 20
-71.291265
 11
1.090343
 21
-79.624597
  0
LINE
  8
別途部材
  6
CONTINUOUS
 10
2.090343
 20
-71.291265
 11
2.090343
 21
-79.624597
  0
LINE
  8
別途部材
  6
CONTINUOUS
 10
0.090343
 20
-70.291265
 11
0.090343
 21
-79.624597
  0
LINE
  8
別途部材
  6
CONTINUOUS
 10
-1.909657
 20
-71.291265
 11
-1.909657
 21
-79.624597
  0
LINE
  8
別途部材
  6
CONTINUOUS
 10
-3.909657
 20
-70.291265
 11
-3.909657
 21
-79.624597
  0
LINE
  8
別途部材
  6
CONTINUOUS
 10
-4.909657
 20
-70.291265
 11
-4.909657
 21
-79.624597
  0
LINE
  8
別途部材
  6
CONTINUOUS
 10
-6.909657
 20
-71.291265
 11
-6.909657
 21
-79.624597
  0
LINE
  8
別途部材
  6
CONTINUOUS
 10
-5.909657
 20
-71.291265
 11
-5.909657
 21
-79.624597
  0
LINE
  8
別途部材
  6
CONTINUOUS
 10
-2.909657
 20
-71.291265
 11
-2.909657
 21
-79.624597
  0
LINE
  8
別途部材
  6
CONTINUOUS
 10
-7.909657
 20
-70.291265
 11
-7.909657
 21
-79.624597
  0
LINE
  8
別途部材
  6
CONTINUOUS
 10
-9.909657
 20
-71.291265
 11
-9.909657
 21
-79.624597
  0
LINE
  8
別途部材
  6
CONTINUOUS
 10
-8.909657
 20
-70.291265
 11
-8.909657
 21
-79.624597
  0
LINE
  8
別途部材
  6
CONTINUOUS
 10
-10.909657
 20
-71.291265
 11
-10.909657
 21
-79.624597
  0
LINE
  8
別途部材
  6
CONTINUOUS
 10
-11.909657
 20
-70.291265
 11
-11.909657
 21
-79.624597
  0
LINE
  8
別途部材
  6
CONTINUOUS
 10
-13.909657
 20
-71.291265
 11
-13.909657
 21
-79.624597
  0
LINE
  8
別途部材
  6
CONTINUOUS
 10
-12.909657
 20
-70.291265
 11
-12.909657
 21
-79.624597
  0
LINE
  8
別途部材
  6
CONTINUOUS
 10
-14.909657
 20
-71.291265
 11
-14.909657
 21
-79.624597
  0
LINE
  8
別途部材
  6
CONTINUOUS
 10
-15.909657
 20
-70.291265
 11
-15.909657
 21
-79.624597
  0
LINE
  8
別途部材
  6
CONTINUOUS
 10
-17.909657
 20
-71.291265
 11
-17.909657
 21
-79.624597
  0
LINE
  8
別途部材
  6
CONTINUOUS
 10
-16.909657
 20
-70.291265
 11
-16.909657
 21
-79.624597
  0
LINE
  8
別途部材
  6
CONTINUOUS
 10
-18.909657
 20
-71.291265
 11
-18.909657
 21
-79.624597
  0
LINE
  8
別途部材
  6
CONTINUOUS
 10
-19.909657
 20
-70.291265
 11
-19.909657
 21
-79.624597
  0
ARC
  8
別途部材
  6
CONTINUOUS
 10
56.257009
 20
-88.957936
 40
17.666667
 50
31.890796
 51
87.296368
  0
ENDBLK
  0
BLOCK
  2
*GRP_0009
 70
    65
 10
0.0
 20
0.0
  0
LINE
  8
補助線
  6
BYBLOCK
 62
    64
 10
-92.012585
 20
-84.605558
 11
-92.14007
 21
-84.712918
  0
LINE
  8
補助線
  6
BYBLOCK
 62
    64
 10
-92.130008
 20
-84.595493
 11
-92.022648
 21
-84.72298
  0
LINE
  8
補助線
  6
BYBLOCK
 62
    64
 10
-83.522167
 20
-77.455535
 11
-83.649652
 21
-77.56289
  0
LINE
  8
補助線
  6
BYBLOCK
 62
    64
 10
-83.63959
 20
-77.44547
 11
-83.53223
 21
-77.572952
  0
LINE
  8
補助線
  6
BYBLOCK
 62
    64
 10
-75.159232
 20
-70.412865
 11
-75.03175
 21
-70.305508
  0
LINE
  8
補助線
  6
BYBLOCK
 62
    64
 10
-75.149172
 20
-70.295442
 11
-75.041813
 21
-70.42293
  0
LINE
  8
型材断面
  6
CONTINUOUS
 10
-92.868083
 20
-84.236535
 11
-92.92846
 21
-84.94106
  0
LINE
  8
型材断面
  6
CONTINUOUS
 10
-92.92846
 20
-84.94106
 11
-92.499028
 21
-85.450995
  0
LINE
  8
型材断面
  6
CONTINUOUS
 10
-92.499028
 20
-85.450995
 11
-91.794502
 21
-85.511373
  0
LINE
  8
型材断面
  6
CONTINUOUS
 10
-75.377315
 20
-69.507055
 11
-74.67279
 21
-69.567432
  0
LINE
  8
型材断面
  6
CONTINUOUS
 10
-74.67279
 20
-69.567432
 11
-74.243358
 21
-70.077368
  0
LINE
  8
型材断面
  6
CONTINUOUS
 10
-74.243358
 20
-70.077368
 11
-74.303735
 21
-70.781892
  0
LINE
  8
型材断面
  6
CONTINUOUS
 10
-92.868083
 20
-84.236535
 11
-75.377315
 21
-69.507055
  0
LINE
  8
型材断面
  6
CONTINUOUS
 10
-91.794502
 20
-85.511373
 11
-74.303735
 21
-70.781892
  0
CIRCLE
  8
ボルト／ビス
  6
CONTINUOUS
 10
-92.076328
 20
-84.659238
 40
0.250185
  0
CIRCLE
  8
ボルト／ビス
  6
CONTINUOUS
 10
-92.076328
 20
-84.659238
 40
0.301025
  0
LINE
  8
ボルト／ビス
  6
CONTINUOUS
 62
    64
 10
-92.322635
 20
-84.70312
 11
-92.237482
 21
-84.467872
  0
LINE
  8
ボルト／ビス
  6
CONTINUOUS
 62
    64
 10
-91.991175
 20
-84.423988
 11
-92.237482
 21
-84.467872
  0
LINE
  8
ボルト／ビス
  6
CONTINUOUS
 62
    64
 10
-92.16148
 20
-84.894488
 11
-91.915172
 21
-84.850602
  0
LINE
  8
ボルト／ビス
  6
CONTINUOUS
 62
    64
 10
-91.83002
 20
-84.615355
 11
-91.915172
 21
-84.850602
  0
LINE
  8
ボルト／ビス
  6
CONTINUOUS
 62
    64
 10
-92.322635
 20
-84.70312
 11
-92.16148
 21
-84.894488
  0
LINE
  8
ボルト／ビス
  6
CONTINUOUS
 62
    64
 10
-91.991175
 20
-84.423988
 11
-91.83002
 21
-84.615355
  0
CIRCLE
  8
ボルト／ビス
  6
CONTINUOUS
 62
    64
 10
-92.076328
 20
-84.659238
 40
0.216668
  0
CIRCLE
  8
ボルト／ビス
  6
CONTINUOUS
 10
-83.58591
 20
-77.509213
 40
0.250185
  0
CIRCLE
  8
ボルト／ビス
  6
CONTINUOUS
 10
-83.58591
 20
-77.509213
 40
0.301025
  0
LINE
  8
ボルト／ビス
  6
CONTINUOUS
 62
    64
 10
-83.832218
 20
-77.553095
 11
-83.747065
 21
-77.317845
  0
LINE
  8
ボルト／ビス
  6
CONTINUOUS
 62
    64
 10
-83.500757
 20
-77.273963
 11
-83.747065
 21
-77.317845
  0
LINE
  8
ボルト／ビス
  6
CONTINUOUS
 62
    64
 10
-83.671062
 20
-77.744463
 11
-83.424752
 21
-77.70058
  0
LINE
  8
ボルト／ビス
  6
CONTINUOUS
 62
    64
 10
-83.339602
 20
-77.465333
 11
-83.424752
 21
-77.70058
  0
LINE
  8
ボルト／ビス
  6
CONTINUOUS
 62
    64
 10
-83.832218
 20
-77.553095
 11
-83.671062
 21
-77.744463
  0
LINE
  8
ボルト／ビス
  6
CONTINUOUS
 62
    64
 10
-83.500757
 20
-77.273963
 11
-83.339602
 21
-77.465333
  0
CIRCLE
  8
ボルト／ビス
  6
CONTINUOUS
 62
    64
 10
-83.58591
 20
-77.509213
 40
0.216668
  0
CIRCLE
  8
ボルト／ビス
  6
CONTINUOUS
 10
-75.09549
 20
-70.359188
 40
0.250185
  0
CIRCLE
  8
ボルト／ビス
  6
CONTINUOUS
 10
-75.09549
 20
-70.359188
 40
0.301025
  0
LINE
  8
ボルト／ビス
  6
CONTINUOUS
 62
    64
 10
-75.010337
 20
-70.123938
 11
-75.256647
 21
-70.167822
  0
LINE
  8
ボルト／ビス
  6
CONTINUOUS
 62
    64
 10
-75.3418
 20
-70.40307
 11
-75.256647
 21
-70.167822
  0
LINE
  8
ボルト／ビス
  6
CONTINUOUS
 62
    64
 10
-74.849185
 20
-70.315305
 11
-74.934335
 21
-70.550552
  0
LINE
  8
ボルト／ビス
  6
CONTINUOUS
 62
    64
 10
-75.180645
 20
-70.594437
 11
-74.934335
 21
-70.550552
  0
LINE
  8
ボルト／ビス
  6
CONTINUOUS
 62
    64
 10
-75.010337
 20
-70.123938
 11
-74.849185
 21
-70.315305
  0
LINE
  8
ボルト／ビス
  6
CONTINUOUS
 62
    64
 10
-75.3418
 20
-70.40307
 11
-75.180645
 21
-70.594437
  0
CIRCLE
  8
ボルト／ビス
  6
CONTINUOUS
 62
    64
 10
-75.09549
 20
-70.359188
 40
0.216668
  0
ENDBLK
  0
BLOCK
  2
*GRP_0010
 70
    65
 10
0.0
 20
0.0
  0
LINE
  8
補助線
  6
BYBLOCK
 62
    64
 10
-75.159235
 20
-84.605558
 11
-75.03175
 21
-84.712918
  0
LINE
  8
補助線
  6
BYBLOCK
 62
    64
 10
-75.041813
 20
-84.595493
 11
-75.149172
 21
-84.72298
  0
LINE
  8
補助線
  6
BYBLOCK
 62
    64
 10
-83.649652
 20
-77.455535
 11
-83.522167
 21
-77.56289
  0
LINE
  8
補助線
  6
BYBLOCK
 62
    64
 10
-83.53223
 20
-77.44547
 11
-83.63959
 21
-77.572952
  0
LINE
  8
補助線
  6
BYBLOCK
 62
    64
 10
-92.012587
 20
-70.412865
 11
-92.14007
 21
-70.305508
  0
LINE
  8
補助線
  6
BYBLOCK
 62
    64
 10
-92.022648
 20
-70.295442
 11
-92.130008
 21
-70.42293
  0
LINE
  8
型材断面
  6
CONTINUOUS
 10
-74.303737
 20
-84.236535
 11
-74.24336
 21
-84.94106
  0
LINE
  8
型材断面
  6
CONTINUOUS
 10
-74.24336
 20
-84.94106
 11
-74.672793
 21
-85.450995
  0
LINE
  8
型材断面
  6
CONTINUOUS
 10
-74.672793
 20
-85.450995
 11
-75.377318
 21
-85.511373
  0
LINE
  8
型材断面
  6
CONTINUOUS
 10
-91.794505
 20
-69.507055
 11
-92.49903
 21
-69.567432
  0
LINE
  8
型材断面
  6
CONTINUOUS
 10
-92.49903
 20
-69.567432
 11
-92.928463
 21
-70.077368
  0
LINE
  8
型材断面
  6
CONTINUOUS
 10
-92.928463
 20
-70.077368
 11
-92.868085
 21
-70.781892
  0
LINE
  8
型材断面
  6
CONTINUOUS
 10
-74.303737
 20
-84.236535
 11
-91.794505
 21
-69.507055
  0
LINE
  8
型材断面
  6
CONTINUOUS
 10
-75.377318
 20
-85.511373
 11
-92.868085
 21
-70.781892
  0
CIRCLE
  8
ボルト／ビス
  6
CONTINUOUS
 10
-75.095493
 20
-84.659238
 40
0.250185
  0
CIRCLE
  8
ボルト／ビス
  6
CONTINUOUS
 10
-75.095493
 20
-84.659238
 40
0.301025
  0
LINE
  8
ボルト／ビス
  6
CONTINUOUS
 62
    64
 10
-74.849185
 20
-84.70312
 11
-74.934338
 21
-84.467872
  0
LINE
  8
ボルト／ビス
  6
CONTINUOUS
 62
    64
 10
-75.180645
 20
-84.423988
 11
-74.934338
 21
-84.467872
  0
LINE
  8
ボルト／ビス
  6
CONTINUOUS
 62
    64
 10
-75.01034
 20
-84.894488
 11
-75.256647
 21
-84.850602
  0
LINE
  8
ボルト／ビス
  6
CONTINUOUS
 62
    64
 10
-75.3418
 20
-84.615355
 11
-75.256647
 21
-84.850602
  0
LINE
  8
ボルト／ビス
  6
CONTINUOUS
 62
    64
 10
-74.849185
 20
-84.70312
 11
-75.01034
 21
-84.894488
  0
LINE
  8
ボルト／ビス
  6
CONTINUOUS
 62
    64
 10
-75.180645
 20
-84.423988
 11
-75.3418
 21
-84.615355
  0
CIRCLE
  8
ボルト／ビス
  6
CONTINUOUS
 62
    64
 10
-75.095493
 20
-84.659238
 40
0.216668
  0
CIRCLE
  8
ボルト／ビス
  6
CONTINUOUS
 10
-83.58591
 20
-77.509213
 40
0.250185
  0
CIRCLE
  8
ボルト／ビス
  6
CONTINUOUS
 10
-83.58591
 20
-77.509213
 40
0.301025
  0
LINE
  8
ボルト／ビス
  6
CONTINUOUS
 62
    64
 10
-83.339602
 20
-77.553095
 11
-83.424755
 21
-77.317845
  0
LINE
  8
ボルト／ビス
  6
CONTINUOUS
 62
    64
 10
-83.671062
 20
-77.273963
 11
-83.424755
 21
-77.317845
  0
LINE
  8
ボルト／ビス
  6
CONTINUOUS
 62
    64
 10
-83.500757
 20
-77.744463
 11
-83.747067
 21
-77.70058
  0
LINE
  8
ボルト／ビス
  6
CONTINUOUS
 62
    64
 10
-83.832218
 20
-77.465333
 11
-83.747067
 21
-77.70058
  0
LINE
  8
ボルト／ビス
  6
CONTINUOUS
 62
    64
 10
-83.339602
 20
-77.553095
 11
-83.500757
 21
-77.744463
  0
LINE
  8
ボルト／ビス
  6
CONTINUOUS
 62
    64
 10
-83.671062
 20
-77.273963
 11
-83.832218
 21
-77.465333
  0
CIRCLE
  8
ボルト／ビス
  6
CONTINUOUS
 62
    64
 10
-83.58591
 20
-77.509213
 40
0.216668
  0
CIRCLE
  8
ボルト／ビス
  6
CONTINUOUS
 10
-92.07633
 20
-70.359188
 40
0.250185
  0
CIRCLE
  8
ボルト／ビス
  6
CONTINUOUS
 10
-92.07633
 20
-70.359188
 40
0.301025
  0
LINE
  8
ボルト／ビス
  6
CONTINUOUS
 62
    64
 10
-92.161482
 20
-70.123938
 11
-91.915172
 21
-70.167822
  0
LINE
  8
ボルト／ビス
  6
CONTINUOUS
 62
    64
 10
-91.83002
 20
-70.40307
 11
-91.915172
 21
-70.167822
  0
LINE
  8
ボルト／ビス
  6
CONTINUOUS
 62
    64
 10
-92.322635
 20
-70.315305
 11
-92.237485
 21
-70.550552
  0
LINE
  8
ボルト／ビス
  6
CONTINUOUS
 62
    64
 10
-91.991175
 20
-70.594437
 11
-92.237485
 21
-70.550552
  0
LINE
  8
ボルト／ビス
  6
CONTINUOUS
 62
    64
 10
-92.161482
 20
-70.123938
 11
-92.322635
 21
-70.315305
  0
LINE
  8
ボルト／ビス
  6
CONTINUOUS
 62
    64
 10
-91.83002
 20
-70.40307
 11
-91.991175
 21
-70.594437
  0
CIRCLE
  8
ボルト／ビス
  6
CONTINUOUS
 62
    64
 10
-92.07633
 20
-70.359188
 40
0.216668
  0
ENDBLK
  0
BLOCK
  2
*GRP_0011
 70
    65
 10
0.0
 20
0.0
  0
LINE
  8
補助線
  6
BYBLOCK
 62
    64
 10
51.193265
 20
-84.605558
 11
51.32075
 21
-84.712918
  0
LINE
  8
補助線
  6
BYBLOCK
 62
    64
 10
51.310687
 20
-84.595493
 11
51.203327
 21
-84.72298
  0
LINE
  8
補助線
  6
BYBLOCK
 62
    64
 10
42.702847
 20
-77.455535
 11
42.830333
 21
-77.56289
  0
LINE
  8
補助線
  6
BYBLOCK
 62
    64
 10
42.82027
 20
-77.44547
 11
42.71291
 21
-77.572952
  0
LINE
  8
補助線
  6
BYBLOCK
 62
    64
 10
34.339912
 20
-70.412865
 11
34.21243
 21
-70.305508
  0
LINE
  8
補助線
  6
BYBLOCK
 62
    64
 10
34.329853
 20
-70.295442
 11
34.222493
 21
-70.42293
  0
LINE
  8
型材断面
  6
CONTINUOUS
 10
52.048762
 20
-84.236535
 11
52.10914
 21
-84.94106
  0
LINE
  8
型材断面
  6
CONTINUOUS
 10
52.10914
 20
-84.94106
 11
51.679708
 21
-85.450995
  0
LINE
  8
型材断面
  6
CONTINUOUS
 10
51.679708
 20
-85.450995
 11
50.975182
 21
-85.511373
  0
LINE
  8
型材断面
  6
CONTINUOUS
 10
34.557995
 20
-69.507055
 11
33.85347
 21
-69.567432
  0
LINE
  8
型材断面
  6
CONTINUOUS
 10
33.85347
 20
-69.567432
 11
33.424037
 21
-70.077368
  0
LINE
  8
型材断面
  6
CONTINUOUS
 10
33.424037
 20
-70.077368
 11
33.484415
 21
-70.781892
  0
LINE
  8
型材断面
  6
CONTINUOUS
 10
52.048762
 20
-84.236535
 11
34.557995
 21
-69.507055
  0
LINE
  8
型材断面
  6
CONTINUOUS
 10
50.975182
 20
-85.511373
 11
33.484415
 21
-70.781892
  0
CIRCLE
  8
ボルト／ビス
  6
CONTINUOUS
 10
51.257007
 20
-84.659238
 40
0.250185
  0
CIRCLE
  8
ボルト／ビス
  6
CONTINUOUS
 10
51.257007
 20
-84.659238
 40
0.301025
  0
LINE
  8
ボルト／ビス
  6
CONTINUOUS
 62
    64
 10
51.503315
 20
-84.70312
 11
51.418162
 21
-84.467872
  0
LINE
  8
ボルト／ビス
  6
CONTINUOUS
 62
    64
 10
51.171855
 20
-84.423988
 11
51.418162
 21
-84.467872
  0
LINE
  8
ボルト／ビス
  6
CONTINUOUS
 62
    64
 10
51.34216
 20
-84.894488
 11
51.095852
 21
-84.850602
  0
LINE
  8
ボルト／ビス
  6
CONTINUOUS
 62
    64
 10
51.0107
 20
-84.615355
 11
51.095852
 21
-84.850602
  0
LINE
  8
ボルト／ビス
  6
CONTINUOUS
 62
    64
 10
51.503315
 20
-84.70312
 11
51.34216
 21
-84.894488
  0
LINE
  8
ボルト／ビス
  6
CONTINUOUS
 62
    64
 10
51.171855
 20
-84.423988
 11
51.0107
 21
-84.615355
  0
CIRCLE
  8
ボルト／ビス
  6
CONTINUOUS
 62
    64
 10
51.257007
 20
-84.659238
 40
0.216668
  0
CIRCLE
  8
ボルト／ビス
  6
CONTINUOUS
 10
42.76659
 20
-77.509213
 40
0.250185
  0
CIRCLE
  8
ボルト／ビス
  6
CONTINUOUS
 10
42.76659
 20
-77.509213
 40
0.301025
  0
LINE
  8
ボルト／ビス
  6
CONTINUOUS
 62
    64
 10
43.012897
 20
-77.553095
 11
42.927745
 21
-77.317845
  0
LINE
  8
ボルト／ビス
  6
CONTINUOUS
 62
    64
 10
42.681437
 20
-77.273963
 11
42.927745
 21
-77.317845
  0
LINE
  8
ボルト／ビス
  6
CONTINUOUS
 62
    64
 10
42.851743
 20
-77.744463
 11
42.605432
 21
-77.70058
  0
LINE
  8
ボルト／ビス
  6
CONTINUOUS
 62
    64
 10
42.520283
 20
-77.465333
 11
42.605432
 21
-77.70058
  0
LINE
  8
ボルト／ビス
  6
CONTINUOUS
 62
    64
 10
43.012897
 20
-77.553095
 11
42.851743
 21
-77.744463
  0
LINE
  8
ボルト／ビス
  6
CONTINUOUS
 62
    64
 10
42.681437
 20
-77.273963
 11
42.520283
 21
-77.465333
  0
CIRCLE
  8
ボルト／ビス
  6
CONTINUOUS
 62
    64
 10
42.76659
 20
-77.509213
 40
0.216668
  0
CIRCLE
  8
ボルト／ビス
  6
CONTINUOUS
 10
34.27617
 20
-70.359188
 40
0.250185
  0
CIRCLE
  8
ボルト／ビス
  6
CONTINUOUS
 10
34.27617
 20
-70.359188
 40
0.301025
  0
LINE
  8
ボルト／ビス
  6
CONTINUOUS
 62
    64
 10
34.191018
 20
-70.123938
 11
34.437327
 21
-70.167822
  0
LINE
  8
ボルト／ビス
  6
CONTINUOUS
 62
    64
 10
34.52248
 20
-70.40307
 11
34.437327
 21
-70.167822
  0
LINE
  8
ボルト／ビス
  6
CONTINUOUS
 62
    64
 10
34.029865
 20
-70.315305
 11
34.115015
 21
-70.550552
  0
LINE
  8
ボルト／ビス
  6
CONTINUOUS
 62
    64
 10
34.361325
 20
-70.594437
 11
34.115015
 21
-70.550552
  0
LINE
  8
ボルト／ビス
  6
CONTINUOUS
 62
    64
 10
34.191018
 20
-70.123938
 11
34.029865
 21
-70.315305
  0
LINE
  8
ボルト／ビス
  6
CONTINUOUS
 62
    64
 10
34.52248
 20
-70.40307
 11
34.361325
 21
-70.594437
  0
CIRCLE
  8
ボルト／ビス
  6
CONTINUOUS
 62
    64
 10
34.27617
 20
-70.359188
 40
0.216668
  0
ENDBLK
  0
BLOCK
  2
*GRP_0012
 70
    65
 10
0.0
 20
0.0
  0
LINE
  8
補助線
  6
BYBLOCK
 62
    64
 10
34.339915
 20
-84.605558
 11
34.21243
 21
-84.712918
  0
LINE
  8
補助線
  6
BYBLOCK
 62
    64
 10
34.222493
 20
-84.595493
 11
34.329853
 21
-84.72298
  0
LINE
  8
補助線
  6
BYBLOCK
 62
    64
 10
42.830333
 20
-77.455535
 11
42.702847
 21
-77.56289
  0
LINE
  8
補助線
  6
BYBLOCK
 62
    64
 10
42.71291
 20
-77.44547
 11
42.82027
 21
-77.572952
  0
LINE
  8
補助線
  6
BYBLOCK
 62
    64
 10
51.193268
 20
-70.412865
 11
51.32075
 21
-70.305508
  0
LINE
  8
補助線
  6
BYBLOCK
 62
    64
 10
51.203327
 20
-70.295442
 11
51.310687
 21
-70.42293
  0
LINE
  8
型材断面
  6
CONTINUOUS
 10
33.484418
 20
-84.236535
 11
33.42404
 21
-84.94106
  0
LINE
  8
型材断面
  6
CONTINUOUS
 10
33.42404
 20
-84.94106
 11
33.853472
 21
-85.450995
  0
LINE
  8
型材断面
  6
CONTINUOUS
 10
33.853472
 20
-85.450995
 11
34.557998
 21
-85.511373
  0
LINE
  8
型材断面
  6
CONTINUOUS
 10
50.975185
 20
-69.507055
 11
51.67971
 21
-69.567432
  0
LINE
  8
型材断面
  6
CONTINUOUS
 10
51.67971
 20
-69.567432
 11
52.109143
 21
-70.077368
  0
LINE
  8
型材断面
  6
CONTINUOUS
 10
52.109143
 20
-70.077368
 11
52.048765
 21
-70.781892
  0
LINE
  8
型材断面
  6
CONTINUOUS
 10
33.484418
 20
-84.236535
 11
50.975185
 21
-69.507055
  0
LINE
  8
型材断面
  6
CONTINUOUS
 10
34.557998
 20
-85.511373
 11
52.048765
 21
-70.781892
  0
CIRCLE
  8
ボルト／ビス
  6
CONTINUOUS
 10
34.276173
 20
-84.659238
 40
0.250185
  0
CIRCLE
  8
ボルト／ビス
  6
CONTINUOUS
 10
34.276173
 20
-84.659238
 40
0.301025
  0
LINE
  8
ボルト／ビス
  6
CONTINUOUS
 62
    64
 10
34.029865
 20
-84.70312
 11
34.115018
 21
-84.467872
  0
LINE
  8
ボルト／ビス
  6
CONTINUOUS
 62
    64
 10
34.361325
 20
-84.423988
 11
34.115018
 21
-84.467872
  0
LINE
  8
ボルト／ビス
  6
CONTINUOUS
 62
    64
 10
34.19102
 20
-84.894488
 11
34.437327
 21
-84.850602
  0
LINE
  8
ボルト／ビス
  6
CONTINUOUS
 62
    64
 10
34.52248
 20
-84.615355
 11
34.437327
 21
-84.850602
  0
LINE
  8
ボルト／ビス
  6
CONTINUOUS
 62
    64
 10
34.029865
 20
-84.70312
 11
34.19102
 21
-84.894488
  0
LINE
  8
ボルト／ビス
  6
CONTINUOUS
 62
    64
 10
34.361325
 20
-84.423988
 11
34.52248
 21
-84.615355
  0
CIRCLE
  8
ボルト／ビス
  6
CONTINUOUS
 62
    64
 10
34.276173
 20
-84.659238
 40
0.216668
  0
CIRCLE
  8
ボルト／ビス
  6
CONTINUOUS
 10
42.76659
 20
-77.509213
 40
0.250185
  0
CIRCLE
  8
ボルト／ビス
  6
CONTINUOUS
 10
42.76659
 20
-77.509213
 40
0.301025
  0
LINE
  8
ボルト／ビス
  6
CONTINUOUS
 62
    64
 10
42.520283
 20
-77.553095
 11
42.605435
 21
-77.317845
  0
LINE
  8
ボルト／ビス
  6
CONTINUOUS
 62
    64
 10
42.851743
 20
-77.273963
 11
42.605435
 21
-77.317845
  0
LINE
  8
ボルト／ビス
  6
CONTINUOUS
 62
    64
 10
42.681437
 20
-77.744463
 11
42.927748
 21
-77.70058
  0
LINE
  8
ボルト／ビス
  6
CONTINUOUS
 62
    64
 10
43.012897
 20
-77.465333
 11
42.927748
 21
-77.70058
  0
LINE
  8
ボルト／ビス
  6
CONTINUOUS
 62
    64
 10
42.520283
 20
-77.553095
 11
42.681437
 21
-77.744463
  0
LINE
  8
ボルト／ビス
  6
CONTINUOUS
 62
    64
 10
42.851743
 20
-77.273963
 11
43.012897
 21
-77.465333
  0
CIRCLE
  8
ボルト／ビス
  6
CONTINUOUS
 62
    64
 10
42.76659
 20
-77.509213
 40
0.216668
  0
CIRCLE
  8
ボルト／ビス
  6
CONTINUOUS
 10
51.25701
 20
-70.359188
 40
0.250185
  0
CIRCLE
  8
ボルト／ビス
  6
CONTINUOUS
 10
51.25701
 20
-70.359188
 40
0.301025
  0
LINE
  8
ボルト／ビス
  6
CONTINUOUS
 62
    64
 10
51.342163
 20
-70.123938
 11
51.095852
 21
-70.167822
  0
LINE
  8
ボルト／ビス
  6
CONTINUOUS
 62
    64
 10
51.0107
 20
-70.40307
 11
51.095852
 21
-70.167822
  0
LINE
  8
ボルト／ビス
  6
CONTINUOUS
 62
    64
 10
51.503315
 20
-70.315305
 11
51.418165
 21
-70.550552
  0
LINE
  8
ボルト／ビス
  6
CONTINUOUS
 62
    64
 10
51.171855
 20
-70.594437
 11
51.418165
 21
-70.550552
  0
LINE
  8
ボルト／ビス
  6
CONTINUOUS
 62
    64
 10
51.342163
 20
-70.123938
 11
51.503315
 21
-70.315305
  0
LINE
  8
ボルト／ビス
  6
CONTINUOUS
 62
    64
 10
51.0107
 20
-70.40307
 11
51.171855
 21
-70.594437
  0
CIRCLE
  8
ボルト／ビス
  6
CONTINUOUS
 62
    64
 10
51.25701
 20
-70.359188
 40
0.216668
  0
ENDBLK
  0
BLOCK
  2
*DIM_0013
 70
    65
 10
0.0
 20
0.0
  0
LINE
  8
寸法
  6
BYBLOCK
 62
     0
 10
-115.076325
 20
38.399048
 11
-128.369163
 21
38.399048
  0
LINE
  8
寸法
  6
BYBLOCK
 62
     0
 10
-115.076325
 20
18.399048
 11
-128.369163
 21
18.399048
  0
LINE
  8
寸法
  6
BYBLOCK
 62
     0
 10
-128.369163
 20
38.399048
 11
-128.369163
 21
18.399048
  0
POINT
  8
寸法
 62
     0
 10
-128.369163
 20
38.399048
  0
POINT
  8
寸法
 62
     0
 10
-128.369163
 20
18.399048
  0
TEXT
  7
TextStyle03
  8
寸法
  6
CONTINUOUS
 62
     0
 10
-128.725
 20
25.9625
  1
600
 40
3.0
 50
90.0
 72
     5
 11
-128.725
 21
30.8375
  0
ENDBLK
  0
BLOCK
  2
*DIM_0014
 70
    65
 10
0.0
 20
0.0
  0
LINE
  8
寸法
  6
BYBLOCK
 62
     0
 10
-100.40966
 20
46.399048
 11
-100.40966
 21
75.50712
  0
LINE
  8
寸法
  6
BYBLOCK
 62
     0
 10
-73.742993
 20
46.399048
 11
-73.742993
 21
75.50712
  0
LINE
  8
寸法
  6
BYBLOCK
 62
     0
 10
-100.40966
 20
75.50712
 11
-73.742993
 21
75.50712
  0
POINT
  8
寸法
 62
     0
 10
-100.40966
 20
75.50712
  0
POINT
  8
寸法
 62
     0
 10
-73.742993
 20
75.50712
  0
TEXT
  7
TextStyle03
  8
寸法
  6
CONTINUOUS
 62
     0
 10
-89.5375
 20
75.875
  1
800
 40
3.0
 72
     5
 11
-84.6625
 21
75.875
  0
ENDBLK
  0
BLOCK
  2
*DIM_0015
 70
    65
 10
0.0
 20
0.0
  0
LINE
  8
寸法
  6
BYBLOCK
 62
     0
 10
-47.076328
 20
46.399048
 11
-47.076328
 21
75.50712
  0
LINE
  8
寸法
  6
BYBLOCK
 62
     0
 10
-73.742993
 20
75.50712
 11
-47.076328
 21
75.50712
  0
POINT
  8
寸法
 62
     0
 10
-47.076328
 20
75.50712
  0
TEXT
  7
TextStyle03
  8
寸法
  6
CONTINUOUS
 62
     0
 10
-62.8625
 20
75.875
  1
800
 40
3.0
 72
     5
 11
-57.9875
 21
75.875
  0
ENDBLK
  0
BLOCK
  2
*DIM_0016
 70
    65
 10
0.0
 20
0.0
  0
LINE
  8
寸法
  6
BYBLOCK
 62
     0
 10
-20.40966
 20
46.399048
 11
-20.40966
 21
75.50712
  0
LINE
  8
寸法
  6
BYBLOCK
 62
     0
 10
-47.076328
 20
75.50712
 11
-20.40966
 21
75.50712
  0
POINT
  8
寸法
 62
     0
 10
-20.40966
 20
75.50712
  0
TEXT
  7
TextStyle03
  8
寸法
  6
CONTINUOUS
 62
     0
 10
-36.1875
 20
75.875
  1
800
 40
3.0
 72
     5
 11
-31.3125
 21
75.875
  0
ENDBLK
  0
BLOCK
  2
*DIM_0017
 70
    65
 10
0.0
 20
0.0
  0
LINE
  8
寸法
  6
BYBLOCK
 62
     0
 10
6.257007
 20
46.399048
 11
6.257007
 21
75.50712
  0
LINE
  8
寸法
  6
BYBLOCK
 62
     0
 10
-20.40966
 20
75.50712
 11
6.257007
 21
75.50712
  0
POINT
  8
寸法
 62
     0
 10
6.257007
 20
75.50712
  0
TEXT
  7
TextStyle03
  8
寸法
  6
CONTINUOUS
 62
     0
 10
-9.5375
 20
75.875
  1
800
 40
3.0
 72
     5
 11
-4.6625
 21
75.875
  0
ENDBLK
  0
BLOCK
  2
*DIM_0018
 70
    65
 10
0.0
 20
0.0
  0
LINE
  8
寸法
  6
BYBLOCK
 62
     0
 10
32.923673
 20
46.399048
 11
32.923673
 21
75.50712
  0
LINE
  8
寸法
  6
BYBLOCK
 62
     0
 10
6.257007
 20
75.50712
 11
32.923673
 21
75.50712
  0
POINT
  8
寸法
 62
     0
 10
32.923673
 20
75.50712
  0
TEXT
  7
TextStyle03
  8
寸法
  6
CONTINUOUS
 62
     0
 10
17.1375
 20
75.875
  1
800
 40
3.0
 72
     5
 11
22.0125
 21
75.875
  0
ENDBLK
  0
BLOCK
  2
*DIM_0019
 70
    65
 10
0.0
 20
0.0
  0
LINE
  8
寸法
  6
BYBLOCK
 62
     0
 10
59.59034
 20
46.399048
 11
59.59034
 21
75.50712
  0
LINE
  8
寸法
  6
BYBLOCK
 62
     0
 10
32.923673
 20
75.50712
 11
59.59034
 21
75.50712
  0
POINT
  8
寸法
 62
     0
 10
59.59034
 20
75.50712
  0
TEXT
  7
TextStyle03
  8
寸法
  6
CONTINUOUS
 62
     0
 10
43.8125
 20
75.875
  1
800
 40
3.0
 72
     5
 11
48.6875
 21
75.875
  0
ENDBLK
  0
BLOCK
  2
*GRP_0020
 70
    65
 10
0.0
 20
0.0
  0
LINE
  8
補助線
  6
BYBLOCK
 62
    64
 10
-28.836335
 20
-84.605558
 11
-28.96382
 21
-84.712918
  0
LINE
  8
補助線
  6
BYBLOCK
 62
    64
 10
-28.953758
 20
-84.595493
 11
-28.846397
 21
-84.72298
  0
LINE
  8
補助線
  6
BYBLOCK
 62
    64
 10
-20.345917
 20
-77.455535
 11
-20.473402
 21
-77.56289
  0
LINE
  8
補助線
  6
BYBLOCK
 62
    64
 10
-20.46334
 20
-77.44547
 11
-20.35598
 21
-77.572952
  0
LINE
  8
補助線
  6
BYBLOCK
 62
    64
 10
-11.982982
 20
-70.412865
 11
-11.8555
 21
-70.305508
  0
LINE
  8
補助線
  6
BYBLOCK
 62
    64
 10
-11.972923
 20
-70.295442
 11
-11.865563
 21
-70.42293
  0
LINE
  8
型材断面
  6
CONTINUOUS
 10
-29.691832
 20
-84.236535
 11
-29.75221
 21
-84.94106
  0
LINE
  8
型材断面
  6
CONTINUOUS
 10
-29.75221
 20
-84.94106
 11
-29.322778
 21
-85.450995
  0
LINE
  8
型材断面
  6
CONTINUOUS
 10
-29.322778
 20
-85.450995
 11
-28.618253
 21
-85.511373
  0
LINE
  8
型材断面
  6
CONTINUOUS
 10
-12.201065
 20
-69.507055
 11
-11.49654
 21
-69.567432
  0
LINE
  8
型材断面
  6
CONTINUOUS
 10
-11.49654
 20
-69.567432
 11
-11.067108
 21
-70.077368
  0
LINE
  8
型材断面
  6
CONTINUOUS
 10
-11.067108
 20
-70.077368
 11
-11.127485
 21
-70.781892
  0
LINE
  8
型材断面
  6
CONTINUOUS
 10
-29.691832
 20
-84.236535
 11
-12.201065
 21
-69.507055
  0
LINE
  8
型材断面
  6
CONTINUOUS
 10
-28.618253
 20
-85.511373
 11
-11.127485
 21
-70.781892
  0
CIRCLE
  8
ボルト／ビス
  6
CONTINUOUS
 10
-28.900078
 20
-84.659238
 40
0.250185
  0
CIRCLE
  8
ボルト／ビス
  6
CONTINUOUS
 10
-28.900078
 20
-84.659238
 40
0.301025
  0
LINE
  8
ボルト／ビス
  6
CONTINUOUS
 62
    64
 10
-29.146385
 20
-84.70312
 11
-29.061233
 21
-84.467872
  0
LINE
  8
ボルト／ビス
  6
CONTINUOUS
 62
    64
 10
-28.814925
 20
-84.423988
 11
-29.061233
 21
-84.467872
  0
LINE
  8
ボルト／ビス
  6
CONTINUOUS
 62
    64
 10
-28.98523
 20
-84.894488
 11
-28.738922
 21
-84.850602
  0
LINE
  8
ボルト／ビス
  6
CONTINUOUS
 62
    64
 10
-28.65377
 20
-84.615355
 11
-28.738922
 21
-84.850602
  0
LINE
  8
ボルト／ビス
  6
CONTINUOUS
 62
    64
 10
-29.146385
 20
-84.70312
 11
-28.98523
 21
-84.894488
  0
LINE
  8
ボルト／ビス
  6
CONTINUOUS
 62
    64
 10
-28.814925
 20
-84.423988
 11
-28.65377
 21
-84.615355
  0
CIRCLE
  8
ボルト／ビス
  6
CONTINUOUS
 62
    64
 10
-28.900078
 20
-84.659238
 40
0.216668
  0
CIRCLE
  8
ボルト／ビス
  6
CONTINUOUS
 10
-20.40966
 20
-77.509213
 40
0.250185
  0
CIRCLE
  8
ボルト／ビス
  6
CONTINUOUS
 10
-20.40966
 20
-77.509213
 40
0.301025
  0
LINE
  8
ボルト／ビス
  6
CONTINUOUS
 62
    64
 10
-20.655968
 20
-77.553095
 11
-20.570815
 21
-77.317845
  0
LINE
  8
ボルト／ビス
  6
CONTINUOUS
 62
    64
 10
-20.324507
 20
-77.273963
 11
-20.570815
 21
-77.317845
  0
LINE
  8
ボルト／ビス
  6
CONTINUOUS
 62
    64
 10
-20.494812
 20
-77.744463
 11
-20.248502
 21
-77.70058
  0
LINE
  8
ボルト／ビス
  6
CONTINUOUS
 62
    64
 10
-20.163353
 20
-77.465333
 11
-20.248502
 21
-77.70058
  0
LINE
  8
ボルト／ビス
  6
CONTINUOUS
 62
    64
 10
-20.655968
 20
-77.553095
 11
-20.494812
 21
-77.744463
  0
LINE
  8
ボルト／ビス
  6
CONTINUOUS
 62
    64
 10
-20.324507
 20
-77.273963
 11
-20.163353
 21
-77.465333
  0
CIRCLE
  8
ボルト／ビス
  6
CONTINUOUS
 62
    64
 10
-20.40966
 20
-77.509213
 40
0.216668
  0
CIRCLE
  8
ボルト／ビス
  6
CONTINUOUS
 10
-11.91924
 20
-70.359188
 40
0.250185
  0
CIRCLE
  8
ボルト／ビス
  6
CONTINUOUS
 10
-11.91924
 20
-70.359188
 40
0.301025
  0
LINE
  8
ボルト／ビス
  6
CONTINUOUS
 62
    64
 10
-11.834087
 20
-70.123938
 11
-12.080397
 21
-70.167822
  0
LINE
  8
ボルト／ビス
  6
CONTINUOUS
 62
    64
 10
-12.16555
 20
-70.40307
 11
-12.080397
 21
-70.167822
  0
LINE
  8
ボルト／ビス
  6
CONTINUOUS
 62
    64
 10
-11.672935
 20
-70.315305
 11
-11.758085
 21
-70.550552
  0
LINE
  8
ボルト／ビス
  6
CONTINUOUS
 62
    64
 10
-12.004395
 20
-70.594437
 11
-11.758085
 21
-70.550552
  0
LINE
  8
ボルト／ビス
  6
CONTINUOUS
 62
    64
 10
-11.834087
 20
-70.123938
 11
-11.672935
 21
-70.315305
  0
LINE
  8
ボルト／ビス
  6
CONTINUOUS
 62
    64
 10
-12.16555
 20
-70.40307
 11
-12.004395
 21
-70.594437
  0
CIRCLE
  8
ボルト／ビス
  6
CONTINUOUS
 62
    64
 10
-11.91924
 20
-70.359188
 40
0.216668
  0
ENDBLK
  0
BLOCK
  2
*GRP_0021
 70
    65
 10
0.0
 20
0.0
  0
LINE
  8
補助線
  6
BYBLOCK
 62
    64
 10
-11.982985
 20
-84.605558
 11
-11.8555
 21
-84.712918
  0
LINE
  8
補助線
  6
BYBLOCK
 62
    64
 10
-11.865563
 20
-84.595493
 11
-11.972923
 21
-84.72298
  0
LINE
  8
補助線
  6
BYBLOCK
 62
    64
 10
-20.473402
 20
-77.455535
 11
-20.345917
 21
-77.56289
  0
LINE
  8
補助線
  6
BYBLOCK
 62
    64
 10
-20.35598
 20
-77.44547
 11
-20.46334
 21
-77.572952
  0
LINE
  8
補助線
  6
BYBLOCK
 62
    64
 10
-28.836337
 20
-70.412865
 11
-28.96382
 21
-70.305508
  0
LINE
  8
補助線
  6
BYBLOCK
 62
    64
 10
-28.846397
 20
-70.295442
 11
-28.953758
 21
-70.42293
  0
LINE
  8
型材断面
  6
CONTINUOUS
 10
-11.127488
 20
-84.236535
 11
-11.06711
 21
-84.94106
  0
LINE
  8
型材断面
  6
CONTINUOUS
 10
-11.06711
 20
-84.94106
 11
-11.496543
 21
-85.450995
  0
LINE
  8
型材断面
  6
CONTINUOUS
 10
-11.496543
 20
-85.450995
 11
-12.201068
 21
-85.511373
  0
LINE
  8
型材断面
  6
CONTINUOUS
 10
-28.618255
 20
-69.507055
 11
-29.32278
 21
-69.567432
  0
LINE
  8
型材断面
  6
CONTINUOUS
 10
-29.32278
 20
-69.567432
 11
-29.752213
 21
-70.077368
  0
LINE
  8
型材断面
  6
CONTINUOUS
 10
-29.752213
 20
-70.077368
 11
-29.691835
 21
-70.781892
  0
LINE
  8
型材断面
  6
CONTINUOUS
 10
-11.127488
 20
-84.236535
 11
-28.618255
 21
-69.507055
  0
LINE
  8
型材断面
  6
CONTINUOUS
 10
-12.201068
 20
-85.511373
 11
-29.691835
 21
-70.781892
  0
CIRCLE
  8
ボルト／ビス
  6
CONTINUOUS
 10
-11.919243
 20
-84.659238
 40
0.250185
  0
CIRCLE
  8
ボルト／ビス
  6
CONTINUOUS
 10
-11.919243
 20
-84.659238
 40
0.301025
  0
LINE
  8
ボルト／ビス
  6
CONTINUOUS
 62
    64
 10
-11.672935
 20
-84.70312
 11
-11.758087
 21
-84.467872
  0
LINE
  8
ボルト／ビス
  6
CONTINUOUS
 62
    64
 10
-12.004395
 20
-84.423988
 11
-11.758087
 21
-84.467872
  0
LINE
  8
ボルト／ビス
  6
CONTINUOUS
 62
    64
 10
-11.83409
 20
-84.894488
 11
-12.080397
 21
-84.850602
  0
LINE
  8
ボルト／ビス
  6
CONTINUOUS
 62
    64
 10
-12.16555
 20
-84.615355
 11
-12.080397
 21
-84.850602
  0
LINE
  8
ボルト／ビス
  6
CONTINUOUS
 62
    64
 10
-11.672935
 20
-84.70312
 11
-11.83409
 21
-84.894488
  0
LINE
  8
ボルト／ビス
  6
CONTINUOUS
 62
    64
 10
-12.004395
 20
-84.423988
 11
-12.16555
 21
-84.615355
  0
CIRCLE
  8
ボルト／ビス
  6
CONTINUOUS
 62
    64
 10
-11.919243
 20
-84.659238
 40
0.216668
  0
CIRCLE
  8
ボルト／ビス
  6
CONTINUOUS
 10
-20.40966
 20
-77.509213
 40
0.250185
  0
CIRCLE
  8
ボルト／ビス
  6
CONTINUOUS
 10
-20.40966
 20
-77.509213
 40
0.301025
  0
LINE
  8
ボルト／ビス
  6
CONTINUOUS
 62
    64
 10
-20.163353
 20
-77.553095
 11
-20.248505
 21
-77.317845
  0
LINE
  8
ボルト／ビス
  6
CONTINUOUS
 62
    64
 10
-20.494812
 20
-77.273963
 11
-20.248505
 21
-77.317845
  0
LINE
  8
ボルト／ビス
  6
CONTINUOUS
 62
    64
 10
-20.324507
 20
-77.744463
 11
-20.570817
 21
-77.70058
  0
LINE
  8
ボルト／ビス
  6
CONTINUOUS
 62
    64
 10
-20.655968
 20
-77.465333
 11
-20.570817
 21
-77.70058
  0
LINE
  8
ボルト／ビス
  6
CONTINUOUS
 62
    64
 10
-20.163353
 20
-77.553095
 11
-20.324507
 21
-77.744463
  0
LINE
  8
ボルト／ビス
  6
CONTINUOUS
 62
    64
 10
-20.494812
 20
-77.273963
 11
-20.655968
 21
-77.465333
  0
CIRCLE
  8
ボルト／ビス
  6
CONTINUOUS
 62
    64
 10
-20.40966
 20
-77.509213
 40
0.216668
  0
CIRCLE
  8
ボルト／ビス
  6
CONTINUOUS
 10
-28.90008
 20
-70.359188
 40
0.250185
  0
CIRCLE
  8
ボルト／ビス
  6
CONTINUOUS
 10
-28.90008
 20
-70.359188
 40
0.301025
  0
LINE
  8
ボルト／ビス
  6
CONTINUOUS
 62
    64
 10
-28.985232
 20
-70.123938
 11
-28.738922
 21
-70.167822
  0
LINE
  8
ボルト／ビス
  6
CONTINUOUS
 62
    64
 10
-28.65377
 20
-70.40307
 11
-28.738922
 21
-70.167822
  0
LINE
  8
ボルト／ビス
  6
CONTINUOUS
 62
    64
 10
-29.146385
 20
-70.315305
 11
-29.061235
 21
-70.550552
  0
LINE
  8
ボルト／ビス
  6
CONTINUOUS
 62
    64
 10
-28.814925
 20
-70.594437
 11
-29.061235
 21
-70.550552
  0
LINE
  8
ボルト／ビス
  6
CONTINUOUS
 62
    64
 10
-28.985232
 20
-70.123938
 11
-29.146385
 21
-70.315305
  0
LINE
  8
ボルト／ビス
  6
CONTINUOUS
 62
    64
 10
-28.65377
 20
-70.40307
 11
-28.814925
 21
-70.594437
  0
CIRCLE
  8
ボルト／ビス
  6
CONTINUOUS
 62
    64
 10
-28.90008
 20
-70.359188
 40
0.216668
  0
ENDBLK
  0
BLOCK
  2
*DIM_0022
 70
    65
 10
0.0
 20
0.0
  0
LINE
  8
寸法
  6
BYBLOCK
 62
     0
 10
152.45694
 20
29.399048
 11
152.45694
 21
58.954983
  0
LINE
  8
寸法
  6
BYBLOCK
 62
     0
 10
160.790272
 20
58.954983
 11
152.45694
 21
58.954983
  0
POINT
  8
寸法
 62
     0
 10
160.790272
 20
58.954983
  0
POINT
  8
寸法
 62
     0
 10
152.45694
 20
58.954983
  0
TEXT
  7
TextStyle03
  8
寸法
  6
CONTINUOUS
 62
     0
 10
154.1625
 20
59.325
  1
250
 40
3.0
 72
     5
 11
159.0375
 21
59.325
  0
ENDBLK
  0
BLOCK
  2
*DIM_0023
 70
    65
 10
0.0
 20
0.0
  0
LINE
  8
寸法
  6
BYBLOCK
 62
     0
 10
105.276657
 20
13.399048
 11
105.276657
 21
43.399048
  0
POINT
  8
寸法
 62
     0
 10
105.276657
 20
13.399048
  0
POINT
  8
寸法
 62
     0
 10
105.276657
 20
43.399048
  0
TEXT
  7
TextStyle03
  8
寸法
  6
CONTINUOUS
 62
     0
 10
104.9
 20
17.5
  1
呼称寸法　900
 40
3.0
 50
90.0
 72
     5
 11
104.9
 21
39.25
  0
ENDBLK
  0
BLOCK
  2
*DIM_0024
 70
    65
 10
0.0
 20
0.0
  0
LINE
  8
寸法
  6
CONTINUOUS
 10
105.276657
 20
13.399048
 11
105.276657
 21
10.635715
  0
POINT
  8
寸法
 10
105.276657
 20
13.399048
  0
POINT
  8
寸法
 10
105.276657
 20
10.635715
  0
TEXT
  7
TextStyle03
  8
寸法
  6
CONTINUOUS
 10
104.625
 20
6.36875
  1
82.9
 40
3.0
 50
90.0
 72
     5
 11
104.625
 21
12.93125
  0
ENDBLK
  0
BLOCK
  2
*DIM_0025
 70
    65
 10
0.0
 20
0.0
  0
LINE
  8
寸法
  6
CONTINUOUS
 10
105.276657
 20
43.399048
 11
105.276657
 21
46.16238
  0
POINT
  8
寸法
 10
105.276657
 20
43.399048
  0
POINT
  8
寸法
 10
105.276657
 20
46.16238
  0
TEXT
  7
TextStyle03
  8
寸法
  6
CONTINUOUS
 10
104.35
 20
43.84375
  1
82.9
 40
3.0
 50
90.0
 72
     5
 11
104.35
 21
50.40625
  0
ENDBLK
  0
BLOCK
  2
*DIM_0026
 70
    65
 10
0.0
 20
0.0
  0
LINE
  8
寸法
  6
CONTINUOUS
 10
-112.076325
 20
-22.536362
 11
-114.839657
 21
-22.536362
  0
POINT
  8
寸法
 10
-112.076325
 20
-22.536362
  0
POINT
  8
寸法
 10
-114.839657
 20
-22.536362
  0
TEXT
  7
TextStyle03
  8
寸法
  6
CONTINUOUS
 10
-119.03125
 20
-21.775
  1
82.9
 40
3.0
 72
     5
 11
-112.46875
 21
-21.775
  0
ENDBLK
  0
BLOCK
  2
*DIM_0027
 70
    65
 10
0.0
 20
0.0
  0
LINE
  8
寸法
  6
CONTINUOUS
 10
71.257007
 20
-22.536362
 11
74.020337
 21
-22.536362
  0
POINT
  8
寸法
 10
71.257007
 20
-22.536362
  0
POINT
  8
寸法
 10
74.020337
 20
-22.536362
  0
TEXT
  7
TextStyle03
  8
寸法
  6
CONTINUOUS
 10
71.94375
 20
-21.775
  1
82.9
 40
3.0
 72
     5
 11
78.50625
 21
-21.775
  0
ENDBLK
  0
BLOCK
  2
*DIM_0030
 70
    65
 10
0.0
 20
0.0
  0
LINE
  8
寸法
  6
CONTINUOUS
 10
121.939695
 20
-49.815305
 11
121.939695
 21
-44.91601
  0
LINE
  8
寸法
  6
CONTINUOUS
 10
157.739695
 20
-49.815305
 11
157.739695
 21
-44.91601
  0
LINE
  8
寸法
  6
CONTINUOUS
 10
121.939695
 20
-44.91601
 11
157.739695
 21
-44.91601
  0
POINT
  8
寸法
 10
121.939695
 20
-44.91601
  0
POINT
  8
寸法
 10
157.739695
 20
-44.91601
  0
TEXT
  7
TextStyle03
  8
寸法
  6
CONTINUOUS
 10
136.51875
 20
-44.525
  1
1074
 40
3.0
 72
     5
 11
143.08125
 21
-44.525
  0
ENDBLK
  0
BLOCK
  2
*DIM_0031
 70
    65
 10
0.0
 20
0.0
  0
LINE
  8
寸法
  6
CONTINUOUS
 10
162.739695
 20
-54.815305
 11
170.087773
 21
-54.815305
  0
LINE
  8
寸法
  6
CONTINUOUS
 10
162.739695
 20
-84.815305
 11
170.087773
 21
-84.815305
  0
LINE
  8
寸法
  6
CONTINUOUS
 10
170.087773
 20
-54.815305
 11
170.087773
 21
-84.815305
  0
POINT
  8
寸法
 10
170.087773
 20
-54.815305
  0
POINT
  8
寸法
 10
170.087773
 20
-84.815305
  0
TEXT
  7
TextStyle03
  8
寸法
  6
CONTINUOUS
 10
169.675
 20
-72.2375
  1
900
 40
3.0
 50
90.0
 72
     5
 11
169.675
 21
-67.3625
  0
ENDBLK
  0
BLOCK
  2
*DIM_0032
 70
    65
 10
0.0
 20
0.0
  0
LINE
  8
寸法
  6
CONTINUOUS
 10
77.92367
 20
-79.624603
 11
87.226652
 21
-79.624603
  0
LINE
  8
寸法
  6
CONTINUOUS
 10
79.020337
 20
-87.124605
 11
87.226652
 21
-87.124605
  0
LINE
  8
寸法
  6
CONTINUOUS
 10
87.226652
 20
-79.624603
 11
87.226652
 21
-87.124605
  0
POINT
  8
寸法
 10
87.226652
 20
-79.624603
  0
POINT
  8
寸法
 10
87.226652
 20
-87.124605
  0
TEXT
  7
TextStyle03
  8
寸法
  6
CONTINUOUS
 10
86.775
 20
-85.8125
  1
225
 40
3.0
 50
90.0
 72
     5
 11
86.775
 21
-80.9375
  0
ENDBLK
  0
BLOCK
  2
*DIM_0033
 70
    65
 10
0.0
 20
0.0
  0
LINE
  8
寸法
  6
CONTINUOUS
 10
160.790272
 20
50.065715
 11
160.790272
 21
58.954983
  0
LINE
  8
寸法
  6
CONTINUOUS
 10
168.290275
 20
51.16238
 11
168.290275
 21
58.954983
  0
LINE
  8
寸法
  6
CONTINUOUS
 10
160.790272
 20
58.954983
 11
168.290275
 21
58.954983
  0
POINT
  8
寸法
 10
160.790272
 20
58.954983
  0
POINT
  8
寸法
 10
168.290275
 20
58.954983
  0
TEXT
  7
TextStyle03
  8
寸法
  6
CONTINUOUS
 10
162.0375
 20
59.325
  1
225
 40
3.0
 72
     5
 11
166.9125
 21
59.325
  0
ENDBLK
  0
BLOCK
  2
*GRP_0034
 70
    65
 10
0.0
 20
0.0
  0
LINE
  8
型材断面
  6
DOT
 10
-20.40966
 20
-69.008053
 11
-113.436473
 21
-69.008053
  0
LINE
  8
型材断面
  6
DOT
 10
-20.40966
 20
-70.158053
 11
-114.839657
 21
-70.158053
  0
LINE
  8
型材断面
  6
DOT
 10
-20.40966
 20
-71.32472
 11
-114.839657
 21
-71.32472
  0
LINE
  8
型材断面
  6
DOT
 10
-20.40966
 20
-69.008053
 11
72.617152
 21
-69.008053
  0
LINE
  8
型材断面
  6
DOT
 10
-20.40966
 20
-70.158053
 11
74.020337
 21
-70.158053
  0
LINE
  8
型材断面
  6
DOT
 10
-20.40966
 20
-71.32472
 11
74.020337
 21
-71.32472
  0
LINE
  8
別途部材
  6
DOT
 62
    96
 10
-113.742993
 20
-67.95793
 11
-114.142993
 21
-68.95793
  0
LINE
  8
別途部材
  6
DOT
 10
-114.142993
 20
-68.95793
 11
-20.409657
 21
-68.95793
  0
LINE
  8
別途部材
  6
DOT
 62
    96
 10
-113.742993
 20
-67.95793
 11
-20.409657
 21
-67.95793
  0
LINE
  8
別途部材
  6
DOT
 62
    96
 10
72.923675
 20
-67.95793
 11
73.323675
 21
-68.95793
  0
LINE
  8
別途部材
  6
DOT
 10
73.323675
 20
-68.95793
 11
-20.409657
 21
-68.95793
  0
LINE
  8
別途部材
  6
DOT
 62
    96
 10
72.923675
 20
-67.95793
 11
-20.409657
 21
-67.95793
  0
LINE
  8
別途部材
  6
DOT
 10
21.090343
 20
-59.624597
 11
22.090343
 21
-59.624597
  0
ARC
  8
別途部材
  6
DOT
 10
56.257009
 20
-77.291268
 40
17.666667
 50
31.890796
 51
90.0
  0
LINE
  8
別途部材
  6
DOT
 10
56.25701
 20
-59.624597
 11
-20.40966
 21
-59.624597
  0
LINE
  8
別途部材
  6
DOT
 10
-97.076325
 20
-59.624597
 11
-20.40966
 21
-59.624597
  0
ARC
  8
別途部材
  6
DOT
 10
-97.076326
 20
-77.291268
 40
17.666667
 50
90.0
 51
148.109204
  0
LINE
  8
鉄骨等
  6
DOT
 62
    47
 10
-114.839657
 20
-71.32472
 11
-114.839657
 21
-70.158053
  0
LINE
  8
鉄骨等
  6
DOT
 62
    47
 10
-114.839657
 20
-70.158053
 11
-113.436473
 21
-69.008053
  0
LINE
  8
鉄骨等
  6
DOT
 62
    47
 10
-113.436473
 20
-69.008053
 11
-113.436473
 21
-68.957932
  0
LINE
  8
鉄骨等
  6
DOT
 62
    47
 10
74.020337
 20
-71.32472
 11
74.020337
 21
-70.158053
  0
LINE
  8
鉄骨等
  6
DOT
 62
    47
 10
74.020337
 20
-70.158053
 11
72.617152
 21
-69.008053
  0
LINE
  8
鉄骨等
  6
DOT
 62
    47
 10
72.617152
 20
-69.008053
 11
72.617152
 21
-68.957932
  0
ENDBLK
  0
BLOCK
  2
*GRP_0035
 70
    65
 10
0.0
 20
0.0
  0
LINE
  8
型材断面
  6
DOT
 10
150.173723
 20
28.399048
 11
150.173723
 21
12.0389
  0
LINE
  8
型材断面
  6
DOT
 10
151.323723
 20
28.399048
 11
151.323723
 21
10.635715
  0
LINE
  8
型材断面
  6
DOT
 10
152.49039
 20
28.399048
 11
152.49039
 21
10.635715
  0
LINE
  8
型材断面
  6
DOT
 10
150.173723
 20
28.399048
 11
150.173723
 21
44.759195
  0
LINE
  8
型材断面
  6
DOT
 10
151.323723
 20
28.399048
 11
151.323723
 21
46.16238
  0
LINE
  8
型材断面
  6
DOT
 10
152.49039
 20
28.399048
 11
152.49039
 21
46.16238
  0
LINE
  8
別途部材
  6
DOT
 62
    96
 10
149.123605
 20
11.73238
 11
150.123605
 21
11.33238
  0
LINE
  8
別途部材
  6
DOT
 62
    96
 10
149.123605
 20
11.73238
 11
149.123605
 21
28.399048
  0
LINE
  8
別途部材
  6
DOT
 10
150.123605
 20
11.33238
 11
150.123605
 21
28.399048
  0
LINE
  8
別途部材
  6
DOT
 62
    96
 10
149.123605
 20
45.065715
 11
150.123605
 21
45.465715
  0
LINE
  8
別途部材
  6
DOT
 62
    96
 10
149.123605
 20
45.065715
 11
149.123605
 21
28.399048
  0
LINE
  8
別途部材
  6
DOT
 10
150.123605
 20
45.465715
 11
150.123605
 21
28.399048
  0
ARC
  8
別途部材
  6
DOT
 10
158.456939
 20
28.399048
 40
17.666667
 50
121.890796
 51
238.109204
  0
LINE
  8
鉄骨等
  6
DOT
 62
    47
 10
152.49039
 20
10.635715
 11
151.323723
 21
10.635715
  0
LINE
  8
鉄骨等
  6
DOT
 62
    47
 10
151.323723
 20
10.635715
 11
150.173723
 21
12.0389
  0
LINE
  8
鉄骨等
  6
DOT
 62
    47
 10
150.173723
 20
12.0389
 11
150.123603
 21
12.0389
  0
LINE
  8
鉄骨等
  6
DOT
 62
    47
 10
152.49039
 20
46.16238
 11
151.323723
 21
46.16238
  0
LINE
  8
鉄骨等
  6
DOT
 62
    47
 10
151.323723
 20
46.16238
 11
150.173723
 21
44.759195
  0
LINE
  8
鉄骨等
  6
DOT
 62
    47
 10
150.173723
 20
44.759195
 11
150.123603
 21
44.759195
  0
ENDBLK
  0
BLOCK
  2
*GRP_0036
 70
    65
 10
0.0
 20
0.0
  0
LINE
  8
ボルト／ビス
  6
CONTINUOUS
 10
160.790272
 20
44.065715
 11
160.323608
 21
44.065715
  0
LINE
  8
ボルト／ビス
  6
CONTINUOUS
 10
160.790272
 20
43.69905
 11
160.723608
 21
43.69905
  0
LINE
  8
ボルト／ビス
  6
CONTINUOUS
 10
160.723608
 20
43.69905
 11
160.723608
 21
44.432382
  0
LINE
  8
ボルト／ビス
  6
CONTINUOUS
 10
160.723608
 20
44.432382
 11
160.790272
 21
44.432382
  0
LINE
  8
ボルト／ビス
  6
CONTINUOUS
 10
160.790272
 20
43.69905
 11
160.790272
 21
44.432382
  0
LINE
  8
ボルト／ビス
  6
CONTINUOUS
 10
160.690272
 20
43.765715
 11
160.723608
 21
43.765715
  0
LINE
  8
ボルト／ビス
  6
CONTINUOUS
 10
160.690272
 20
43.765715
 11
160.690272
 21
44.365715
  0
LINE
  8
ボルト／ビス
  6
CONTINUOUS
 10
160.690272
 20
44.365715
 11
160.723608
 21
44.365715
  0
LINE
  8
ボルト／ビス
  6
CONTINUOUS
 62
    64
 10
160.490273
 20
43.90534
 11
160.501947
 21
43.873265
  0
ARC
  8
ボルト／ビス
  6
CONTINUOUS
 62
    64
 10
160.595251
 20
43.921377
 40
0.104978
 50
152.721967
 51
180.0
  0
ARC
  8
ボルト／ビス
  6
CONTINUOUS
 62
    64
 10
160.892675
 20
44.065714
 40
0.402402
 50
166.165002
 51
193.834985
  0
LINE
  8
ボルト／ビス
  6
CONTINUOUS
 62
    64
 10
160.490273
 20
44.22609
 11
160.501947
 21
44.258165
  0
ARC
  8
ボルト／ビス
  6
CONTINUOUS
 62
    64
 10
160.595251
 20
44.210052
 40
0.104978
 50
180.0
 51
207.278033
  0
LINE
  8
ボルト／ビス
  6
CONTINUOUS
 62
    64
 10
160.490273
 20
43.90534
 11
160.490273
 21
44.22609
  0
LINE
  8
ボルト／ビス
  6
CONTINUOUS
 62
    64
 10
160.501947
 20
44.258165
 11
160.623608
 21
44.258165
  0
LINE
  8
ボルト／ビス
  6
CONTINUOUS
 62
    64
 10
160.501947
 20
44.16194
 11
160.623608
 21
44.16194
  0
LINE
  8
ボルト／ビス
  6
CONTINUOUS
 62
    64
 10
160.501947
 20
43.873265
 11
160.623608
 21
43.873265
  0
LINE
  8
ボルト／ビス
  6
CONTINUOUS
 62
    64
 10
160.501947
 20
43.96949
 11
160.623608
 21
43.96949
  0
LINE
  8
ボルト／ビス
  6
CONTINUOUS
 10
160.623608
 20
43.873265
 11
160.623608
 21
44.258165
  0
LINE
  8
ボルト／ビス
  6
CONTINUOUS
 10
160.623608
 20
43.865715
 11
160.690272
 21
43.865715
  0
LINE
  8
ボルト／ビス
  6
CONTINUOUS
 10
160.623608
 20
43.865715
 11
160.623608
 21
44.265715
  0
LINE
  8
ボルト／ビス
  6
CONTINUOUS
 10
160.623608
 20
44.265715
 11
160.690272
 21
44.265715
  0
ENDBLK
  0
BLOCK
  2
*GRP_0037
 70
    65
 10
0.0
 20
0.0
  0
LINE
  8
ボルト／ビス
  6
CONTINUOUS
 10
160.790272
 20
12.73238
 11
160.323608
 21
12.73238
  0
LINE
  8
ボルト／ビス
  6
CONTINUOUS
 10
160.790272
 20
13.099045
 11
160.723608
 21
13.099045
  0
LINE
  8
ボルト／ビス
  6
CONTINUOUS
 10
160.723608
 20
13.099045
 11
160.723608
 21
12.365712
  0
LINE
  8
ボルト／ビス
  6
CONTINUOUS
 10
160.723608
 20
12.365712
 11
160.790272
 21
12.365712
  0
LINE
  8
ボルト／ビス
  6
CONTINUOUS
 10
160.790272
 20
13.099045
 11
160.790272
 21
12.365712
  0
LINE
  8
ボルト／ビス
  6
CONTINUOUS
 10
160.690272
 20
13.03238
 11
160.723608
 21
13.03238
  0
LINE
  8
ボルト／ビス
  6
CONTINUOUS
 10
160.690272
 20
13.03238
 11
160.690272
 21
12.43238
  0
LINE
  8
ボルト／ビス
  6
CONTINUOUS
 10
160.690272
 20
12.43238
 11
160.723608
 21
12.43238
  0
LINE
  8
ボルト／ビス
  6
CONTINUOUS
 62
    64
 10
160.490273
 20
12.892755
 11
160.501947
 21
12.92483
  0
ARC
  8
ボルト／ビス
  6
CONTINUOUS
 62
    64
 10
160.595251
 20
12.876718
 40
0.104978
 50
180.0
 51
207.278033
  0
ARC
  8
ボルト／ビス
  6
CONTINUOUS
 62
    64
 10
160.892675
 20
12.732381
 40
0.402402
 50
166.165015
 51
193.834998
  0
LINE
  8
ボルト／ビス
  6
CONTINUOUS
 62
    64
 10
160.490273
 20
12.572005
 11
160.501947
 21
12.53993
  0
ARC
  8
ボルト／ビス
  6
CONTINUOUS
 62
    64
 10
160.595251
 20
12.588043
 40
0.104978
 50
152.721967
 51
180.0
  0
LINE
  8
ボルト／ビス
  6
CONTINUOUS
 62
    64
 10
160.490273
 20
12.892755
 11
160.490273
 21
12.572005
  0
LINE
  8
ボルト／ビス
  6
CONTINUOUS
 62
    64
 10
160.501947
 20
12.53993
 11
160.623608
 21
12.53993
  0
LINE
  8
ボルト／ビス
  6
CONTINUOUS
 62
    64
 10
160.501947
 20
12.636155
 11
160.623608
 21
12.636155
  0
LINE
  8
ボルト／ビス
  6
CONTINUOUS
 62
    64
 10
160.501947
 20
12.92483
 11
160.623608
 21
12.92483
  0
LINE
  8
ボルト／ビス
  6
CONTINUOUS
 62
    64
 10
160.501947
 20
12.828605
 11
160.623608
 21
12.828605
  0
LINE
  8
ボルト／ビス
  6
CONTINUOUS
 10
160.623608
 20
12.92483
 11
160.623608
 21
12.53993
  0
LINE
  8
ボルト／ビス
  6
CONTINUOUS
 10
160.623608
 20
12.93238
 11
160.690272
 21
12.93238
  0
LINE
  8
ボルト／ビス
  6
CONTINUOUS
 10
160.623608
 20
12.93238
 11
160.623608
 21
12.53238
  0
LINE
  8
ボルト／ビス
  6
CONTINUOUS
 10
160.623608
 20
12.53238
 11
160.690272
 21
12.53238
  0
ENDBLK
  0
BLOCK
  2
*GRP_0038
 70
    65
 10
0.0
 20
0.0
  0
LINE
  8
ボルト／ビス
  6
DOT
 10
149.123605
 20
44.065715
 11
148.65694
 21
44.065715
  0
LINE
  8
ボルト／ビス
  6
DOT
 10
149.123605
 20
43.69905
 11
149.05694
 21
43.69905
  0
LINE
  8
ボルト／ビス
  6
DOT
 10
149.05694
 20
43.69905
 11
149.05694
 21
44.432382
  0
LINE
  8
ボルト／ビス
  6
DOT
 10
149.05694
 20
44.432382
 11
149.123605
 21
44.432382
  0
LINE
  8
ボルト／ビス
  6
DOT
 10
149.123605
 20
43.69905
 11
149.123605
 21
44.432382
  0
LINE
  8
ボルト／ビス
  6
DOT
 10
149.023605
 20
43.765715
 11
149.05694
 21
43.765715
  0
LINE
  8
ボルト／ビス
  6
DOT
 10
149.023605
 20
43.765715
 11
149.023605
 21
44.365715
  0
LINE
  8
ボルト／ビス
  6
DOT
 10
149.023605
 20
44.365715
 11
149.05694
 21
44.365715
  0
LINE
  8
ボルト／ビス
  6
DOT
 62
    64
 10
148.823605
 20
43.90534
 11
148.83528
 21
43.873265
  0
ARC
  8
ボルト／ビス
  6
DOT
 62
    64
 10
148.928583
 20
43.921377
 40
0.104978
 50
152.721967
 51
180.0
  0
ARC
  8
ボルト／ビス
  6
DOT
 62
    64
 10
149.226007
 20
44.065714
 40
0.402402
 50
166.165002
 51
193.834985
  0
LINE
  8
ボルト／ビス
  6
DOT
 62
    64
 10
148.823605
 20
44.22609
 11
148.83528
 21
44.258165
  0
ARC
  8
ボルト／ビス
  6
DOT
 62
    64
 10
148.928583
 20
44.210052
 40
0.104978
 50
180.0
 51
207.278033
  0
LINE
  8
ボルト／ビス
  6
DOT
 62
    64
 10
148.823605
 20
43.90534
 11
148.823605
 21
44.22609
  0
LINE
  8
ボルト／ビス
  6
DOT
 62
    64
 10
148.83528
 20
44.258165
 11
148.95694
 21
44.258165
  0
LINE
  8
ボルト／ビス
  6
DOT
 62
    64
 10
148.83528
 20
44.16194
 11
148.95694
 21
44.16194
  0
LINE
  8
ボルト／ビス
  6
DOT
 62
    64
 10
148.83528
 20
43.873265
 11
148.95694
 21
43.873265
  0
LINE
  8
ボルト／ビス
  6
DOT
 62
    64
 10
148.83528
 20
43.96949
 11
148.95694
 21
43.96949
  0
LINE
  8
ボルト／ビス
  6
DOT
 10
148.95694
 20
43.873265
 11
148.95694
 21
44.258165
  0
LINE
  8
ボルト／ビス
  6
DOT
 10
148.95694
 20
43.865715
 11
149.023605
 21
43.865715
  0
LINE
  8
ボルト／ビス
  6
DOT
 10
148.95694
 20
43.865715
 11
148.95694
 21
44.265715
  0
LINE
  8
ボルト／ビス
  6
DOT
 10
148.95694
 20
44.265715
 11
149.023605
 21
44.265715
  0
ENDBLK
  0
BLOCK
  2
*GRP_0039
 70
    65
 10
0.0
 20
0.0
  0
LINE
  8
ボルト／ビス
  6
DOT
 10
149.123605
 20
12.73238
 11
148.65694
 21
12.73238
  0
LINE
  8
ボルト／ビス
  6
DOT
 10
149.123605
 20
13.099045
 11
149.05694
 21
13.099045
  0
LINE
  8
ボルト／ビス
  6
DOT
 10
149.05694
 20
13.099045
 11
149.05694
 21
12.365712
  0
LINE
  8
ボルト／ビス
  6
DOT
 10
149.05694
 20
12.365712
 11
149.123605
 21
12.365712
  0
LINE
  8
ボルト／ビス
  6
DOT
 10
149.123605
 20
13.099045
 11
149.123605
 21
12.365712
  0
LINE
  8
ボルト／ビス
  6
DOT
 10
149.023605
 20
13.03238
 11
149.05694
 21
13.03238
  0
LINE
  8
ボルト／ビス
  6
DOT
 10
149.023605
 20
13.03238
 11
149.023605
 21
12.43238
  0
LINE
  8
ボルト／ビス
  6
DOT
 10
149.023605
 20
12.43238
 11
149.05694
 21
12.43238
  0
LINE
  8
ボルト／ビス
  6
DOT
 62
    64
 10
148.823605
 20
12.892755
 11
148.83528
 21
12.92483
  0
ARC
  8
ボルト／ビス
  6
DOT
 62
    64
 10
148.928583
 20
12.876718
 40
0.104978
 50
180.0
 51
207.278033
  0
ARC
  8
ボルト／ビス
  6
DOT
 62
    64
 10
149.226007
 20
12.732381
 40
0.402402
 50
166.165015
 51
193.834998
  0
LINE
  8
ボルト／ビス
  6
DOT
 62
    64
 10
148.823605
 20
12.572005
 11
148.83528
 21
12.53993
  0
ARC
  8
ボルト／ビス
  6
DOT
 62
    64
 10
148.928583
 20
12.588043
 40
0.104978
 50
152.721967
 51
180.0
  0
LINE
  8
ボルト／ビス
  6
DOT
 62
    64
 10
148.823605
 20
12.892755
 11
148.823605
 21
12.572005
  0
LINE
  8
ボルト／ビス
  6
DOT
 62
    64
 10
148.83528
 20
12.53993
 11
148.95694
 21
12.53993
  0
LINE
  8
ボルト／ビス
  6
DOT
 62
    64
 10
148.83528
 20
12.636155
 11
148.95694
 21
12.636155
  0
LINE
  8
ボルト／ビス
  6
DOT
 62
    64
 10
148.83528
 20
12.92483
 11
148.95694
 21
12.92483
  0
LINE
  8
ボルト／ビス
  6
DOT
 62
    64
 10
148.83528
 20
12.828605
 11
148.95694
 21
12.828605
  0
LINE
  8
ボルト／ビス
  6
DOT
 10
148.95694
 20
12.92483
 11
148.95694
 21
12.53993
  0
LINE
  8
ボルト／ビス
  6
DOT
 10
148.95694
 20
12.93238
 11
149.023605
 21
12.93238
  0
LINE
  8
ボルト／ビス
  6
DOT
 10
148.95694
 20
12.93238
 11
148.95694
 21
12.53238
  0
LINE
  8
ボルト／ビス
  6
DOT
 10
148.95694
 20
12.53238
 11
149.023605
 21
12.53238
  0
ENDBLK
  0
BLOCK
  2
*GRP_0040
 70
    65
 10
0.0
 20
0.0
  0
LINE
  8
ボルト／ビス
  6
CONTINUOUS
 10
71.923675
 20
-79.624597
 11
71.923675
 21
-79.157932
  0
LINE
  8
ボルト／ビス
  6
CONTINUOUS
 10
71.55701
 20
-79.624597
 11
71.55701
 21
-79.557932
  0
LINE
  8
ボルト／ビス
  6
CONTINUOUS
 10
71.55701
 20
-79.557932
 11
72.290343
 21
-79.557932
  0
LINE
  8
ボルト／ビス
  6
CONTINUOUS
 10
72.290343
 20
-79.557932
 11
72.290343
 21
-79.624597
  0
LINE
  8
ボルト／ビス
  6
CONTINUOUS
 10
71.55701
 20
-79.624597
 11
72.290343
 21
-79.624597
  0
LINE
  8
ボルト／ビス
  6
CONTINUOUS
 10
71.623675
 20
-79.524597
 11
71.623675
 21
-79.557932
  0
LINE
  8
ボルト／ビス
  6
CONTINUOUS
 10
71.623675
 20
-79.524597
 11
72.223675
 21
-79.524597
  0
LINE
  8
ボルト／ビス
  6
CONTINUOUS
 10
72.223675
 20
-79.524597
 11
72.223675
 21
-79.557932
  0
LINE
  8
ボルト／ビス
  6
CONTINUOUS
 62
    64
 10
71.7633
 20
-79.324597
 11
71.731225
 21
-79.336272
  0
ARC
  8
ボルト／ビス
  6
CONTINUOUS
 62
    64
 10
71.77934
 20
-79.429579
 40
0.104978
 50
62.721967
 51
90.0
  0
ARC
  8
ボルト／ビス
  6
CONTINUOUS
 62
    64
 10
71.923678
 20
-79.727003
 40
0.402402
 50
76.165002
 51
103.834985
  0
LINE
  8
ボルト／ビス
  6
CONTINUOUS
 62
    64
 10
72.08405
 20
-79.324597
 11
72.116125
 21
-79.336272
  0
ARC
  8
ボルト／ビス
  6
CONTINUOUS
 62
    64
 10
72.068016
 20
-79.429579
 40
0.104978
 50
90.0
 51
117.278033
  0
LINE
  8
ボルト／ビス
  6
CONTINUOUS
 62
    64
 10
71.7633
 20
-79.324597
 11
72.08405
 21
-79.324597
  0
LINE
  8
ボルト／ビス
  6
CONTINUOUS
 62
    64
 10
72.116125
 20
-79.336272
 11
72.116125
 21
-79.457932
  0
LINE
  8
ボルト／ビス
  6
CONTINUOUS
 62
    64
 10
72.0199
 20
-79.336272
 11
72.0199
 21
-79.457932
  0
LINE
  8
ボルト／ビス
  6
CONTINUOUS
 62
    64
 10
71.731225
 20
-79.336272
 11
71.731225
 21
-79.457932
  0
LINE
  8
ボルト／ビス
  6
CONTINUOUS
 62
    64
 10
71.82745
 20
-79.336272
 11
71.82745
 21
-79.457932
  0
LINE
  8
ボルト／ビス
  6
CONTINUOUS
 10
71.731225
 20
-79.457932
 11
72.116125
 21
-79.457932
  0
LINE
  8
ボルト／ビス
  6
CONTINUOUS
 10
71.723675
 20
-79.457932
 11
71.723675
 21
-79.524597
  0
LINE
  8
ボルト／ビス
  6
CONTINUOUS
 10
71.723675
 20
-79.457932
 11
72.123675
 21
-79.457932
  0
LINE
  8
ボルト／ビス
  6
CONTINUOUS
 10
72.123675
 20
-79.457932
 11
72.123675
 21
-79.524597
  0
ENDBLK
  0
BLOCK
  2
*GRP_0041
 70
    65
 10
0.0
 20
0.0
  0
LINE
  8
ボルト／ビス
  6
DOT
 10
71.923675
 20
-67.95793
 11
71.923675
 21
-67.491265
  0
LINE
  8
ボルト／ビス
  6
DOT
 10
71.55701
 20
-67.95793
 11
71.55701
 21
-67.891265
  0
LINE
  8
ボルト／ビス
  6
DOT
 10
71.55701
 20
-67.891265
 11
72.290343
 21
-67.891265
  0
LINE
  8
ボルト／ビス
  6
DOT
 10
72.290343
 20
-67.891265
 11
72.290343
 21
-67.95793
  0
LINE
  8
ボルト／ビス
  6
DOT
 10
71.55701
 20
-67.95793
 11
72.290343
 21
-67.95793
  0
LINE
  8
ボルト／ビス
  6
DOT
 10
71.623675
 20
-67.85793
 11
71.623675
 21
-67.891265
  0
LINE
  8
ボルト／ビス
  6
DOT
 10
71.623675
 20
-67.85793
 11
72.223675
 21
-67.85793
  0
LINE
  8
ボルト／ビス
  6
DOT
 10
72.223675
 20
-67.85793
 11
72.223675
 21
-67.891265
  0
LINE
  8
ボルト／ビス
  6
DOT
 62
    64
 10
71.7633
 20
-67.65793
 11
71.731225
 21
-67.669605
  0
ARC
  8
ボルト／ビス
  6
DOT
 62
    64
 10
71.77934
 20
-67.762911
 40
0.104978
 50
62.721967
 51
90.0
  0
ARC
  8
ボルト／ビス
  6
DOT
 62
    64
 10
71.923678
 20
-68.060335
 40
0.402402
 50
76.165002
 51
103.834985
  0
LINE
  8
ボルト／ビス
  6
DOT
 62
    64
 10
72.08405
 20
-67.65793
 11
72.116125
 21
-67.669605
  0
ARC
  8
ボルト／ビス
  6
DOT
 62
    64
 10
72.068016
 20
-67.762911
 40
0.104978
 50
90.0
 51
117.278033
  0
LINE
  8
ボルト／ビス
  6
DOT
 62
    64
 10
71.7633
 20
-67.65793
 11
72.08405
 21
-67.65793
  0
LINE
  8
ボルト／ビス
  6
DOT
 62
    64
 10
72.116125
 20
-67.669605
 11
72.116125
 21
-67.791265
  0
LINE
  8
ボルト／ビス
  6
DOT
 62
    64
 10
72.0199
 20
-67.669605
 11
72.0199
 21
-67.791265
  0
LINE
  8
ボルト／ビス
  6
DOT
 62
    64
 10
71.731225
 20
-67.669605
 11
71.731225
 21
-67.791265
  0
LINE
  8
ボルト／ビス
  6
DOT
 62
    64
 10
71.82745
 20
-67.669605
 11
71.82745
 21
-67.791265
  0
LINE
  8
ボルト／ビス
  6
DOT
 10
71.731225
 20
-67.791265
 11
72.116125
 21
-67.791265
  0
LINE
  8
ボルト／ビス
  6
DOT
 10
71.723675
 20
-67.791265
 11
71.723675
 21
-67.85793
  0
LINE
  8
ボルト／ビス
  6
DOT
 10
71.723675
 20
-67.791265
 11
72.123675
 21
-67.791265
  0
LINE
  8
ボルト／ビス
  6
DOT
 10
72.123675
 20
-67.791265
 11
72.123675
 21
-67.85793
  0
ENDBLK
  0
BLOCK
  2
*GRP_0042
 70
    65
 10
0.0
 20
0.0
  0
LINE
  8
ボルト／ビス
  6
CONTINUOUS
 10
-112.742995
 20
-79.624597
 11
-112.742995
 21
-79.157932
  0
LINE
  8
ボルト／ビス
  6
CONTINUOUS
 10
-112.37633
 20
-79.624597
 11
-112.37633
 21
-79.557932
  0
LINE
  8
ボルト／ビス
  6
CONTINUOUS
 10
-112.37633
 20
-79.557932
 11
-113.109663
 21
-79.557932
  0
LINE
  8
ボルト／ビス
  6
CONTINUOUS
 10
-113.109663
 20
-79.557932
 11
-113.109663
 21
-79.624597
  0
LINE
  8
ボルト／ビス
  6
CONTINUOUS
 10
-112.37633
 20
-79.624597
 11
-113.109663
 21
-79.624597
  0
LINE
  8
ボルト／ビス
  6
CONTINUOUS
 10
-112.442995
 20
-79.524597
 11
-112.442995
 21
-79.557932
  0
LINE
  8
ボルト／ビス
  6
CONTINUOUS
 10
-112.442995
 20
-79.524597
 11
-113.042995
 21
-79.524597
  0
LINE
  8
ボルト／ビス
  6
CONTINUOUS
 10
-113.042995
 20
-79.524597
 11
-113.042995
 21
-79.557932
  0
LINE
  8
ボルト／ビス
  6
CONTINUOUS
 62
    64
 10
-112.58262
 20
-79.324597
 11
-112.550545
 21
-79.336272
  0
ARC
  8
ボルト／ビス
  6
CONTINUOUS
 62
    64
 10
-112.59866
 20
-79.429579
 40
0.104978
 50
90.0
 51
117.278033
  0
ARC
  8
ボルト／ビス
  6
CONTINUOUS
 62
    64
 10
-112.742998
 20
-79.727003
 40
0.402402
 50
76.165015
 51
103.834998
  0
LINE
  8
ボルト／ビス
  6
CONTINUOUS
 62
    64
 10
-112.90337
 20
-79.324597
 11
-112.935445
 21
-79.336272
  0
ARC
  8
ボルト／ビス
  6
CONTINUOUS
 62
    64
 10
-112.887336
 20
-79.429579
 40
0.104978
 50
62.721967
 51
90.0
  0
LINE
  8
ボルト／ビス
  6
CONTINUOUS
 62
    64
 10
-112.58262
 20
-79.324597
 11
-112.90337
 21
-79.324597
  0
LINE
  8
ボルト／ビス
  6
CONTINUOUS
 62
    64
 10
-112.935445
 20
-79.336272
 11
-112.935445
 21
-79.457932
  0
LINE
  8
ボルト／ビス
  6
CONTINUOUS
 62
    64
 10
-112.83922
 20
-79.336272
 11
-112.83922
 21
-79.457932
  0
LINE
  8
ボルト／ビス
  6
CONTINUOUS
 62
    64
 10
-112.550545
 20
-79.336272
 11
-112.550545
 21
-79.457932
  0
LINE
  8
ボルト／ビス
  6
CONTINUOUS
 62
    64
 10
-112.64677
 20
-79.336272
 11
-112.64677
 21
-79.457932
  0
LINE
  8
ボルト／ビス
  6
CONTINUOUS
 10
-112.550545
 20
-79.457932
 11
-112.935445
 21
-79.457932
  0
LINE
  8
ボルト／ビス
  6
CONTINUOUS
 10
-112.542995
 20
-79.457932
 11
-112.542995
 21
-79.524597
  0
LINE
  8
ボルト／ビス
  6
CONTINUOUS
 10
-112.542995
 20
-79.457932
 11
-112.942995
 21
-79.457932
  0
LINE
  8
ボルト／ビス
  6
CONTINUOUS
 10
-112.942995
 20
-79.457932
 11
-112.942995
 21
-79.524597
  0
ENDBLK
  0
BLOCK
  2
*GRP_0043
 70
    65
 10
0.0
 20
0.0
  0
LINE
  8
ボルト／ビス
  6
DOT
 10
-112.742995
 20
-67.95793
 11
-112.742995
 21
-67.491265
  0
LINE
  8
ボルト／ビス
  6
DOT
 10
-112.37633
 20
-67.95793
 11
-112.37633
 21
-67.891265
  0
LINE
  8
ボルト／ビス
  6
DOT
 10
-112.37633
 20
-67.891265
 11
-113.109663
 21
-67.891265
  0
LINE
  8
ボルト／ビス
  6
DOT
 10
-113.109663
 20
-67.891265
 11
-113.109663
 21
-67.95793
  0
LINE
  8
ボルト／ビス
  6
DOT
 10
-112.37633
 20
-67.95793
 11
-113.109663
 21
-67.95793
  0
LINE
  8
ボルト／ビス
  6
DOT
 10
-112.442995
 20
-67.85793
 11
-112.442995
 21
-67.891265
  0
LINE
  8
ボルト／ビス
  6
DOT
 10
-112.442995
 20
-67.85793
 11
-113.042995
 21
-67.85793
  0
LINE
  8
ボルト／ビス
  6
DOT
 10
-113.042995
 20
-67.85793
 11
-113.042995
 21
-67.891265
  0
LINE
  8
ボルト／ビス
  6
DOT
 62
    64
 10
-112.58262
 20
-67.65793
 11
-112.550545
 21
-67.669605
  0
ARC
  8
ボルト／ビス
  6
DOT
 62
    64
 10
-112.59866
 20
-67.762911
 40
0.104978
 50
90.0
 51
117.278033
  0
ARC
  8
ボルト／ビス
  6
DOT
 62
    64
 10
-112.742998
 20
-68.060335
 40
0.402402
 50
76.165015
 51
103.834998
  0
LINE
  8
ボルト／ビス
  6
DOT
 62
    64
 10
-112.90337
 20
-67.65793
 11
-112.935445
 21
-67.669605
  0
ARC
  8
ボルト／ビス
  6
DOT
 62
    64
 10
-112.887336
 20
-67.762911
 40
0.104978
 50
62.721967
 51
90.0
  0
LINE
  8
ボルト／ビス
  6
DOT
 62
    64
 10
-112.58262
 20
-67.65793
 11
-112.90337
 21
-67.65793
  0
LINE
  8
ボルト／ビス
  6
DOT
 62
    64
 10
-112.935445
 20
-67.669605
 11
-112.935445
 21
-67.791265
  0
LINE
  8
ボルト／ビス
  6
DOT
 62
    64
 10
-112.83922
 20
-67.669605
 11
-112.83922
 21
-67.791265
  0
LINE
  8
ボルト／ビス
  6
DOT
 62
    64
 10
-112.550545
 20
-67.669605
 11
-112.550545
 21
-67.791265
  0
LINE
  8
ボルト／ビス
  6
DOT
 62
    64
 10
-112.64677
 20
-67.669605
 11
-112.64677
 21
-67.791265
  0
LINE
  8
ボルト／ビス
  6
DOT
 10
-112.550545
 20
-67.791265
 11
-112.935445
 21
-67.791265
  0
LINE
  8
ボルト／ビス
  6
DOT
 10
-112.542995
 20
-67.791265
 11
-112.542995
 21
-67.85793
  0
LINE
  8
ボルト／ビス
  6
DOT
 10
-112.542995
 20
-67.791265
 11
-112.942995
 21
-67.791265
  0
LINE
  8
ボルト／ビス
  6
DOT
 10
-112.942995
 20
-67.791265
 11
-112.942995
 21
-67.85793
  0
ENDBLK
  0
BLOCK
  2
*DIM_0044
 70
    65
 10
0.0
 20
0.0
  0
LINE
  8
寸法
  6
BYBLOCK
 62
     0
 10
59.257007
 20
-59.624597
 11
87.226657
 21
-59.624597
  0
LINE
  8
寸法
  6
BYBLOCK
 62
     0
 10
87.226657
 20
-71.291265
 11
87.226657
 21
-59.624597
  0
POINT
  8
寸法
 62
     0
 10
87.226657
 20
-71.291265
  0
POINT
  8
寸法
 62
     0
 10
87.226657
 20
-59.624597
  0
TEXT
  7
TextStyle03
  8
寸法
  6
CONTINUOUS
 62
     0
 10
86.525
 20
-57.2875
  1
上昇高さ350
 40
3.0
 50
90.0
 72
     5
 11
86.525
 21
-38.9125
  0
ENDBLK
  0
BLOCK
  2
*DIM_0045
 70
    65
 10
0.0
 20
0.0
  0
LINE
  8
寸法
  6
BYBLOCK
 62
     0
 10
152.45694
 20
58.954983
 11
140.790272
 21
58.954983
  0
POINT
  8
寸法
 62
     0
 10
152.45694
 20
58.954983
  0
POINT
  8
寸法
 62
     0
 10
140.790272
 20
58.954983
  0
TEXT
  7
TextStyle03
  8
寸法
  6
CONTINUOUS
 62
     0
 10
118.8125
 20
55.9
  1
上昇高さ350
 40
3.0
 72
     5
 11
137.1875
 21
55.9
  0
ENDBLK
  0
ENDSEC
  0
SECTION
  2
ENTITIES
  0
POLYLINE
  8
通り芯
  6
CONTINUOUS
 66
     1
 70
     1
  0
VERTEX
  8
通り芯
 10
-210.0
 20
-148.5
  0
VERTEX
  8
通り芯
 10
210.0
 20
-148.5
  0
VERTEX
  8
通り芯
 10
210.0
 20
148.5
  0
VERTEX
  8
通り芯
 10
-210.0
 20
148.5
  0
SEQEND
  0
INSERT
  2
*GRP_0001
  8
型材断面
  6
CONTINUOUS
 10
0.0
 20
0.0
  0
LINE
  8
型材断面
  6
DASHDOT
 10
71.257007
 20
-87.251428
 11
71.257007
 21
43.399048
  0
LINE
  8
型材断面
  6
DASHDOT
 10
-20.40966
 20
-87.251428
 11
-20.40966
 21
43.399048
  0
LINE
  8
型材断面
  6
DASHDOT
 10
-112.076325
 20
-87.251428
 11
-112.076325
 21
43.399048
  0
LINE
  8
型材断面
  6
DASHDOT
 10
168.93377
 20
43.399048
 11
-112.076325
 21
43.399048
  0
LINE
  8
型材断面
  6
DASHDOT
 10
168.93377
 20
28.399048
 11
-112.076325
 21
28.399048
  0
LINE
  8
型材断面
  6
DASHDOT
 10
168.93377
 20
13.399048
 11
-112.076325
 21
13.399048
  0
POLYLINE
  8
型材断面
  6
CONTINUOUS
 66
     1
 70
     1
  0
VERTEX
  8
型材断面
 10
-10.957247
 20
3.623125
  0
VERTEX
  8
型材断面
 10
-29.729177
 20
3.623125
  0
VERTEX
  8
型材断面
 10
-29.729177
 20
-1.113717
  0
VERTEX
  8
型材断面
 10
-10.957247
 20
-1.113717
  0
SEQEND
  0
POLYLINE
  8
型材断面
  6
CONTINUOUS
 66
     1
 70
     1
  0
VERTEX
  8
型材断面
 10
-10.957247
 20
53.17497
  0
VERTEX
  8
型材断面
 10
-29.729177
 20
53.17497
  0
VERTEX
  8
型材断面
 10
-29.729177
 20
57.911813
  0
VERTEX
  8
型材断面
 10
-10.957247
 20
57.911813
  0
SEQEND
  0
LINE
  8
型材断面
  6
CONTINUOUS
 10
-152.928532
 20
81.37652
 11
-152.332478
 21
78.786012
  0
LINE
  8
型材断面
  6
CONTINUOUS
 10
-152.928532
 20
81.37652
 11
-153.52459
 21
78.786012
  0
LINE
  8
型材断面
  6
CONTINUOUS
 10
-153.52459
 20
78.786012
 11
-152.332478
 21
78.786012
  0
LINE
  8
型材断面
  6
CONTINUOUS
 10
-158.95112
 20
75.50712
 11
-112.709343
 21
75.50712
  0
LINE
  8
型材断面
  6
CONTINUOUS
 10
-152.928532
 20
87.906395
 11
-154.424162
 21
85.315887
  0
LINE
  8
型材断面
  6
CONTINUOUS
 10
-152.928532
 20
87.906395
 11
-151.432903
 21
85.315887
  0
LINE
  8
型材断面
  6
CONTINUOUS
 10
-151.432903
 20
85.315887
 11
-154.424162
 21
85.315887
  0
LINE
  8
型材断面
  6
CONTINUOUS
 10
-158.95112
 20
84.377292
 11
-112.709343
 21
84.377292
  0
LINE
  8
型材断面
  6
CONTINUOUS
 10
-158.95112
 20
69.719088
 11
-112.709343
 21
69.719088
  0
INSERT
  2
*GRP_0009
  8
型材断面
  6
CONTINUOUS
 10
0.0
 20
0.0
  0
INSERT
  2
*GRP_0010
  8
型材断面
  6
CONTINUOUS
 10
0.0
 20
0.0
  0
INSERT
  2
*GRP_0011
  8
型材断面
  6
CONTINUOUS
 10
0.0
 20
0.0
  0
INSERT
  2
*GRP_0012
  8
型材断面
  6
CONTINUOUS
 10
0.0
 20
0.0
  0
INSERT
  2
*GRP_0020
  8
型材断面
  6
CONTINUOUS
 10
0.0
 20
0.0
  0
INSERT
  2
*GRP_0021
  8
型材断面
  6
CONTINUOUS
 10
0.0
 20
0.0
  0
LINE
  8
型材断面
  6
CONTINUOUS
 10
-158.95112
 20
63.931055
 11
-112.709343
 21
63.931055
  0
LINE
  8
型材断面
  6
CONTINUOUS
 10
161.84039
 20
28.399048
 11
161.84039
 21
12.0389
  0
LINE
  8
型材断面
  6
CONTINUOUS
 10
162.99039
 20
28.399048
 11
162.99039
 21
10.635715
  0
LINE
  8
型材断面
  6
CONTINUOUS
 10
164.157057
 20
28.399048
 11
164.157057
 21
10.635715
  0
LINE
  8
型材断面
  6
CONTINUOUS
 10
161.84039
 20
28.399048
 11
161.84039
 21
44.759195
  0
LINE
  8
型材断面
  6
CONTINUOUS
 10
162.99039
 20
28.399048
 11
162.99039
 21
46.16238
  0
LINE
  8
型材断面
  6
CONTINUOUS
 10
164.157057
 20
28.399048
 11
164.157057
 21
46.16238
  0
LINE
  8
型材断面
  6
CONTINUOUS
 10
-20.40966
 20
-80.67472
 11
-113.436473
 21
-80.67472
  0
LINE
  8
型材断面
  6
CONTINUOUS
 10
-20.40966
 20
-81.82472
 11
-114.839657
 21
-81.82472
  0
LINE
  8
型材断面
  6
CONTINUOUS
 10
-20.40966
 20
-82.991388
 11
-114.839657
 21
-82.991388
  0
LINE
  8
型材断面
  6
CONTINUOUS
 10
-20.40966
 20
-80.67472
 11
72.617152
 21
-80.67472
  0
LINE
  8
型材断面
  6
CONTINUOUS
 10
-20.40966
 20
-81.82472
 11
74.020337
 21
-81.82472
  0
LINE
  8
型材断面
  6
CONTINUOUS
 10
-20.40966
 20
-82.991388
 11
74.020337
 21
-82.991388
  0
LINE
  8
型材断面
  6
CONTINUOUS
 10
-114.142995
 20
45.465715
 11
-114.839663
 21
46.16238
  0
LINE
  8
型材断面
  6
CONTINUOUS
 10
-114.839657
 20
46.16238
 11
-114.839657
 21
10.635715
  0
LINE
  8
型材断面
  6
CONTINUOUS
 10
-114.142995
 20
11.33238
 11
-114.839663
 21
10.635715
  0
LINE
  8
型材断面
  6
CONTINUOUS
 10
-114.839657
 20
10.635715
 11
74.020337
 21
10.635715
  0
LINE
  8
型材断面
  6
CONTINUOUS
 10
73.323675
 20
11.33238
 11
74.020337
 21
10.63572
  0
LINE
  8
型材断面
  6
CONTINUOUS
 10
74.020337
 20
10.635715
 11
74.020337
 21
46.16238
  0
LINE
  8
型材断面
  6
CONTINUOUS
 10
-114.839657
 20
46.16238
 11
74.020337
 21
46.16238
  0
LINE
  8
型材断面
  6
CONTINUOUS
 10
73.323675
 20
45.465715
 11
74.020342
 21
46.16238
  0
LINE
  8
型材断面
  6
CONTINUOUS
 10
-114.839657
 20
28.399048
 11
-117.430165
 21
29.894678
  0
LINE
  8
型材断面
  6
CONTINUOUS
 10
-114.839657
 20
28.399048
 11
-117.430165
 21
26.903418
  0
LINE
  8
型材断面
  6
CONTINUOUS
 10
-117.430165
 20
26.903418
 11
-117.430165
 21
29.894678
  0
LINE
  8
型材断面
  6
CONTINUOUS
 10
-114.83966
 20
39.69905
 11
-117.43017
 21
39.102997
  0
LINE
  8
型材断面
  6
CONTINUOUS
 10
-114.83966
 20
39.69905
 11
-117.430167
 21
40.29511
  0
LINE
  8
型材断面
  6
CONTINUOUS
 10
-117.430167
 20
40.29511
 11
-117.43017
 21
39.102997
  0
LINE
  8
型材断面
  6
CONTINUOUS
 10
-114.83966
 20
17.099045
 11
-117.43017
 21
17.695097
  0
LINE
  8
型材断面
  6
CONTINUOUS
 10
-114.83966
 20
17.099045
 11
-117.430167
 21
16.502985
  0
LINE
  8
型材断面
  6
CONTINUOUS
 10
-117.430167
 20
16.502985
 11
-117.43017
 21
17.695097
  0
LINE
  8
型材断面
  6
CONTINUOUS
 10
-95.409657
 20
46.16238
 11
-96.905288
 21
48.752888
  0
LINE
  8
型材断面
  6
CONTINUOUS
 10
-95.409657
 20
46.16238
 11
-93.914027
 21
48.752888
  0
LINE
  8
型材断面
  6
CONTINUOUS
 10
-93.914027
 20
48.752888
 11
-96.905288
 21
48.752888
  0
LINE
  8
型材断面
  6
CONTINUOUS
 10
54.590337
 20
46.16238
 11
56.085967
 21
48.752888
  0
LINE
  8
型材断面
  6
CONTINUOUS
 10
54.590337
 20
46.16238
 11
53.094708
 21
48.752888
  0
LINE
  8
型材断面
  6
CONTINUOUS
 10
53.094708
 20
48.752888
 11
56.085967
 21
48.752888
  0
LINE
  8
型材断面
  6
CONTINUOUS
 10
-20.40966
 20
46.162378
 11
-21.90529
 21
48.752885
  0
LINE
  8
型材断面
  6
CONTINUOUS
 10
-20.40966
 20
46.162378
 11
-18.91403
 21
48.752885
  0
LINE
  8
型材断面
  6
CONTINUOUS
 10
-18.91403
 20
48.752885
 11
-21.90529
 21
48.752885
  0
LINE
  8
型材断面
  6
CONTINUOUS
 10
74.020337
 20
28.399048
 11
76.610845
 21
29.894678
  0
LINE
  8
型材断面
  6
CONTINUOUS
 10
74.020337
 20
28.399048
 11
76.610845
 21
26.903418
  0
LINE
  8
型材断面
  6
CONTINUOUS
 10
76.610845
 20
26.903418
 11
76.610845
 21
29.894678
  0
LINE
  8
型材断面
  6
CONTINUOUS
 10
74.02034
 20
39.69905
 11
76.61085
 21
39.102997
  0
LINE
  8
型材断面
  6
CONTINUOUS
 10
74.02034
 20
39.69905
 11
76.610848
 21
40.29511
  0
LINE
  8
型材断面
  6
CONTINUOUS
 10
76.610848
 20
40.29511
 11
76.61085
 21
39.102997
  0
LINE
  8
型材断面
  6
CONTINUOUS
 10
74.02034
 20
17.099045
 11
76.61085
 21
17.695097
  0
LINE
  8
型材断面
  6
CONTINUOUS
 10
74.02034
 20
17.099045
 11
76.610848
 21
16.502985
  0
LINE
  8
型材断面
  6
CONTINUOUS
 10
76.610848
 20
16.502985
 11
76.61085
 21
17.695097
  0
LINE
  8
型材断面
  6
CONTINUOUS
 10
-95.409657
 20
10.635717
 11
-96.905288
 21
8.04521
  0
LINE
  8
型材断面
  6
CONTINUOUS
 10
-95.409657
 20
10.635717
 11
-93.914027
 21
8.04521
  0
LINE
  8
型材断面
  6
CONTINUOUS
 10
-93.914027
 20
8.04521
 11
-96.905288
 21
8.04521
  0
LINE
  8
型材断面
  6
CONTINUOUS
 10
54.590337
 20
10.635717
 11
56.085967
 21
8.04521
  0
LINE
  8
型材断面
  6
CONTINUOUS
 10
54.590337
 20
10.635717
 11
53.094708
 21
8.04521
  0
LINE
  8
型材断面
  6
CONTINUOUS
 10
53.094708
 20
8.04521
 11
56.085967
 21
8.04521
  0
LINE
  8
型材断面
  6
CONTINUOUS
 10
-20.40966
 20
10.635715
 11
-21.90529
 21
8.045207
  0
LINE
  8
型材断面
  6
CONTINUOUS
 10
-20.40966
 20
10.635715
 11
-18.91403
 21
8.045207
  0
LINE
  8
型材断面
  6
CONTINUOUS
 10
-18.91403
 20
8.045207
 11
-21.90529
 21
8.045207
  0
LINE
  8
型材断面
  6
DOT
 10
-74.47966
 20
13.399048
 11
-74.47966
 21
43.399048
  0
LINE
  8
型材断面
  6
DOT
 10
-76.97966
 20
13.399048
 11
-76.97966
 21
43.399048
  0
LINE
  8
型材断面
  6
DASHDOT
 10
-75.72966
 20
13.399048
 11
-75.72966
 21
43.399048
  0
LINE
  8
型材断面
  6
DASHDOT
 10
-38.84966
 20
13.399048
 11
-38.84966
 21
43.399048
  0
LINE
  8
型材断面
  6
DOT
 10
-37.59966
 20
13.399048
 11
-37.59966
 21
43.399048
  0
LINE
  8
型材断面
  6
DOT
 10
-40.09966
 20
13.399048
 11
-40.09966
 21
43.399048
  0
LINE
  8
型材断面
  6
DOT
 10
33.66034
 20
13.399048
 11
33.66034
 21
43.399048
  0
LINE
  8
型材断面
  6
DOT
 10
36.16034
 20
13.399048
 11
36.16034
 21
43.399048
  0
LINE
  8
型材断面
  6
DASHDOT
 10
34.91034
 20
13.399048
 11
34.91034
 21
43.399048
  0
LINE
  8
型材断面
  6
DASHDOT
 10
-1.96966
 20
13.399048
 11
-1.96966
 21
43.399048
  0
LINE
  8
型材断面
  6
DOT
 10
-3.21966
 20
13.399048
 11
-3.21966
 21
43.399048
  0
LINE
  8
型材断面
  6
DOT
 10
-0.71966
 20
13.399048
 11
-0.71966
 21
43.399048
  0
LINE
  8
型材断面
  6
CONTINUOUS
 10
73.520337
 20
-87.124605
 11
73.520337
 21
-87.46127
  0
LINE
  8
型材断面
  6
CONTINUOUS
 10
74.020337
 20
-87.124605
 11
73.520337
 21
-87.124605
  0
LINE
  8
型材断面
  6
CONTINUOUS
 10
74.020337
 20
-83.224723
 11
73.823712
 21
-83.0281
  0
LINE
  8
型材断面
  6
CONTINUOUS
 10
74.020337
 20
-83.224723
 11
74.020337
 21
-87.124605
  0
LINE
  8
型材断面
  6
CONTINUOUS
 10
168.290275
 20
45.66238
 11
168.62694
 21
45.66238
  0
LINE
  8
型材断面
  6
CONTINUOUS
 10
168.290275
 20
46.16238
 11
168.290275
 21
45.66238
  0
LINE
  8
型材断面
  6
CONTINUOUS
 10
164.390393
 20
46.16238
 11
164.19377
 21
45.965755
  0
LINE
  8
型材断面
  6
CONTINUOUS
 10
164.390393
 20
46.16238
 11
168.290275
 21
46.16238
  0
LINE
  8
型材断面
  6
CONTINUOUS
 62
    47
 10
164.19377
 20
45.965755
 11
164.19377
 21
28.399048
  0
LINE
  8
型材断面
  6
CONTINUOUS
 10
164.390393
 20
46.16238
 11
164.390393
 21
28.399048
  0
LINE
  8
型材断面
  6
CONTINUOUS
 10
168.290275
 20
46.16238
 11
168.290275
 21
28.399048
  0
LINE
  8
型材断面
  6
CONTINUOUS
 10
168.62694
 20
45.66238
 11
168.62694
 21
28.399048
  0
LINE
  8
型材断面
  6
CONTINUOUS
 10
168.290275
 20
11.135715
 11
168.62694
 21
11.135715
  0
LINE
  8
型材断面
  6
CONTINUOUS
 10
164.390393
 20
10.635715
 11
164.19377
 21
10.83234
  0
LINE
  8
型材断面
  6
CONTINUOUS
 10
164.390393
 20
10.635715
 11
168.290275
 21
10.635715
  0
LINE
  8
型材断面
  6
CONTINUOUS
 62
    47
 10
164.19377
 20
10.83234
 11
164.19377
 21
28.399048
  0
LINE
  8
型材断面
  6
CONTINUOUS
 10
164.390393
 20
10.635715
 11
164.390393
 21
28.399048
  0
LINE
  8
型材断面
  6
CONTINUOUS
 10
168.290275
 20
10.635715
 11
168.290275
 21
28.399048
  0
LINE
  8
型材断面
  6
CONTINUOUS
 10
168.62694
 20
11.135715
 11
168.62694
 21
28.399048
  0
LINE
  8
型材断面
  6
CONTINUOUS
 62
    47
 10
73.823712
 20
-83.0281
 11
-20.40966
 21
-83.0281
  0
LINE
  8
型材断面
  6
CONTINUOUS
 10
74.020337
 20
-83.224723
 11
-20.40966
 21
-83.224723
  0
LINE
  8
型材断面
  6
CONTINUOUS
 10
74.020337
 20
-87.124605
 11
-20.40966
 21
-87.124605
  0
LINE
  8
型材断面
  6
CONTINUOUS
 10
73.520337
 20
-87.46127
 11
-20.40966
 21
-87.46127
  0
LINE
  8
型材断面
  6
CONTINUOUS
 10
-114.339657
 20
-87.124605
 11
-114.339657
 21
-87.46127
  0
LINE
  8
型材断面
  6
CONTINUOUS
 10
-114.839657
 20
-87.124605
 11
-114.339657
 21
-87.124605
  0
LINE
  8
型材断面
  6
CONTINUOUS
 10
-114.839657
 20
-83.224723
 11
-114.643033
 21
-83.0281
  0
LINE
  8
型材断面
  6
CONTINUOUS
 10
-114.839657
 20
-83.224723
 11
-114.839657
 21
-87.124605
  0
LINE
  8
型材断面
  6
CONTINUOUS
 62
    47
 10
-114.643033
 20
-83.0281
 11
-20.40966
 21
-83.0281
  0
LINE
  8
型材断面
  6
CONTINUOUS
 10
-114.839657
 20
-83.224723
 11
-20.40966
 21
-83.224723
  0
LINE
  8
型材断面
  6
CONTINUOUS
 10
-114.839657
 20
-87.124605
 11
-20.40966
 21
-87.124605
  0
LINE
  8
型材断面
  6
CONTINUOUS
 10
-114.339657
 20
-87.46127
 11
-20.40966
 21
-87.46127
  0
TEXT
  7
TextStyle03
  8
文字
  6
CONTINUOUS
 10
-28.65
 20
-0.075
  1
可動装置側
 40
3.0
 72
     5
 11
-12.15
 21
-0.075
  0
TEXT
  7
TextStyle03
  8
文字
  6
CONTINUOUS
 10
-28.65
 20
53.875
  1
可動装置側
 40
3.0
 72
     5
 11
-12.15
 21
53.875
  0
TEXT
  7
TextStyle03
  8
文字
  6
CONTINUOUS
 10
-150.125
 20
80.0
  1
はケーシング位置を示す
 40
3.0
 72
     5
 11
-113.375
 21
80.0
  0
TEXT
  7
TextStyle03
  8
文字
  6
CONTINUOUS
 10
-150.125
 20
76.625
  1
４ヶ所中1ヶ所に設定
 40
3.0
 72
     5
 11
-118.4375
 21
76.625
  0
TEXT
  7
TextStyle03
  8
文字
  6
CONTINUOUS
 10
-150.125
 20
85.525
  1
は排水穴位置を示す
 40
3.0
 72
     5
 11
-120.125
 21
85.525
  0
TEXT
  7
TextStyle03
  8
文字
  6
CONTINUOUS
 10
-133.05
 20
6.875
  1
アンカーピッチ
 40
3.0
 50
90.0
 72
     5
 11
-133.05
 21
30.125
  0
TEXT
  7
TextStyle03
  8
文字
  6
CONTINUOUS
 10
-98.025
 20
79.8
  1
アンカーピッチ
 40
3.0
 72
     5
 11
-74.775
 21
79.8
  0
TEXT
  7
TextStyle03
  8
文字
  6
CONTINUOUS
 10
-153.85
 20
70.65
  1
アンカー数量　１８ヶ所
 40
3.0
 72
     5
 11
-117.1
 21
70.65
  0
TEXT
  7
TextStyle03
  8
文字
  6
CONTINUOUS
 10
-153.925
 20
64.875
  1
アームユニット数　４～６ヶ所
 40
3.0
 72
     5
 11
-107.05
 21
64.875
  0
TEXT
  7
TextStyle03
  8
文字
  6
CONTINUOUS
 10
-158.85
 20
59.925
  1
※重量に依るのでご相談ください
 40
3.0
 72
     5
 11
-108.6
 21
59.925
  0
LINE
  8
文字
  6
CONTINUOUS
 10
105.276657
 20
10.635715
 11
161.81576
 21
10.635715
  0
LINE
  8
文字
  6
CONTINUOUS
 10
105.276657
 20
46.16238
 11
161.733605
 21
46.16238
  0
LINE
  8
文字
  6
CONTINUOUS
 10
140.790272
 20
29.399048
 11
140.790272
 21
58.954983
  0
LINE
  8
文字
  6
CONTINUOUS
 10
-114.839657
 20
-22.536362
 11
-114.839657
 21
-80.652695
  0
LINE
  8
文字
  6
CONTINUOUS
 10
74.020337
 20
-22.536362
 11
74.020337
 21
-80.61266
  0
TEXT
  7
TextStyle03
  8
文字
  6
CONTINUOUS
 10
137.675
 20
-78.0
  1
網入り6.8t
 40
3.0
 72
     5
 11
154.3625
 21
-78.0
  0
TEXT
  7
TextStyle03
  8
文字
  6
CONTINUOUS
 10
144.35
 20
-82.675
  1
×５枚
 40
3.0
 72
     5
 11
154.1
 21
-82.675
  0
TEXT
  7
TextStyle03
  8
文字
  6
CONTINUOUS
 10
78.1
 20
125.25
  1
シリーズ：ＴＤ１Ｌ
 40
5.0
 72
     5
 11
128.1
 21
125.25
  0
TEXT
  7
TextStyle03
  8
文字
  6
CONTINUOUS
 10
78.1
 20
119.625
  1
　　　　　（上下可動）900×5500タイプ
 40
5.0
 72
     5
 11
181.5375
 21
119.625
  0
TEXT
  7
TextStyle03
  8
文字
  6
CONTINUOUS
 10
78.1
 20
114.0
  1
図面名　：外観姿図
 40
5.0
 72
     5
 11
128.1
 21
114.0
  0
TEXT
  7
TextStyle03
  8
文字
  6
CONTINUOUS
 10
78.1
 20
108.375
  1
　　　　　　
 40
5.0
 72
     5
 11
111.225
 21
108.375
  0
TEXT
  7
TextStyle03
  8
文字
  6
CONTINUOUS
 10
78.75
 20
104.35
  1
ＮＳコード：ＮＳＤＬ
 40
5.0
 72
     5
 11
134.375
 21
104.35
  0
INSERT
  2
*DIM_0002
  8
寸法
  6
CONTINUOUS
 10
0.0
 20
0.0
  0
INSERT
  2
*DIM_0003
  8
寸法
  6
CONTINUOUS
 10
0.0
 20
0.0
  0
INSERT
  2
*DIM_0004
  8
寸法
  6
CONTINUOUS
 10
0.0
 20
0.0
  0
INSERT
  2
*DIM_0005
  8
寸法
  6
CONTINUOUS
 10
0.0
 20
0.0
  0
INSERT
  2
*DIM_0006
  8
寸法
  6
CONTINUOUS
 10
0.0
 20
0.0
  0
INSERT
  2
*DIM_0007
  8
寸法
  6
CONTINUOUS
 10
0.0
 20
0.0
  0
INSERT
  2
*DIM_0013
  8
寸法
  6
CONTINUOUS
 10
0.0
 20
0.0
  0
INSERT
  2
*DIM_0014
  8
寸法
  6
CONTINUOUS
 10
0.0
 20
0.0
  0
INSERT
  2
*DIM_0015
  8
寸法
  6
CONTINUOUS
 10
0.0
 20
0.0
  0
INSERT
  2
*DIM_0016
  8
寸法
  6
CONTINUOUS
 10
0.0
 20
0.0
  0
INSERT
  2
*DIM_0017
  8
寸法
  6
CONTINUOUS
 10
0.0
 20
0.0
  0
INSERT
  2
*DIM_0018
  8
寸法
  6
CONTINUOUS
 10
0.0
 20
0.0
  0
INSERT
  2
*DIM_0019
  8
寸法
  6
CONTINUOUS
 10
0.0
 20
0.0
  0
INSERT
  2
*DIM_0022
  8
寸法
  6
CONTINUOUS
 10
0.0
 20
0.0
  0
INSERT
  2
*DIM_0023
  8
寸法
  6
CONTINUOUS
 10
0.0
 20
0.0
  0
INSERT
  2
*DIM_0024
  8
寸法
  6
CONTINUOUS
 10
0.0
 20
0.0
  0
INSERT
  2
*DIM_0025
  8
寸法
  6
CONTINUOUS
 10
0.0
 20
0.0
  0
INSERT
  2
*DIM_0026
  8
寸法
  6
CONTINUOUS
 10
0.0
 20
0.0
  0
INSERT
  2
*DIM_0027
  8
寸法
  6
CONTINUOUS
 10
0.0
 20
0.0
  0
INSERT
  2
*DIM_0030
  8
寸法
  6
CONTINUOUS
 10
0.0
 20
0.0
  0
INSERT
  2
*DIM_0031
  8
寸法
  6
CONTINUOUS
 10
0.0
 20
0.0
  0
INSERT
  2
*DIM_0032
  8
寸法
  6
CONTINUOUS
 10
0.0
 20
0.0
  0
INSERT
  2
*DIM_0033
  8
寸法
  6
CONTINUOUS
 10
0.0
 20
0.0
  0
INSERT
  2
*DIM_0044
  8
寸法
  6
CONTINUOUS
 10
0.0
 20
0.0
  0
INSERT
  2
*DIM_0045
  8
寸法
  6
CONTINUOUS
 10
0.0
 20
0.0
  0
LINE
  8
別途部材
  6
CONTINUOUS
 10
73.323675
 20
11.33238
 11
72.923675
 21
11.73238
  0
LINE
  8
別途部材
  6
CONTINUOUS
 10
71.257007
 20
13.399048
 11
63.197753
 21
21.458305
  0
LINE
  8
別途部材
  6
CONTINUOUS
 10
72.923675
 20
11.73238
 11
72.923675
 21
28.399048
  0
LINE
  8
別途部材
  6
CONTINUOUS
 10
73.323675
 20
11.33238
 11
73.323675
 21
28.399048
  0
LINE
  8
別途部材
  6
CONTINUOUS
 10
73.323675
 20
45.465715
 11
72.923675
 21
45.065715
  0
LINE
  8
別途部材
  6
CONTINUOUS
 10
71.257007
 20
43.399048
 11
63.197753
 21
35.33979
  0
LINE
  8
別途部材
  6
CONTINUOUS
 10
72.923675
 20
45.065715
 11
72.923675
 21
28.399048
  0
LINE
  8
別途部材
  6
CONTINUOUS
 10
73.323675
 20
45.465715
 11
73.323675
 21
28.399048
  0
LINE
  8
別途部材
  6
CONTINUOUS
 10
72.923675
 20
45.065715
 11
-20.40966
 21
45.065715
  0
LINE
  8
別途部材
  6
CONTINUOUS
 10
73.323675
 20
45.465715
 11
-20.40966
 21
45.465715
  0
LINE
  8
別途部材
  6
CONTINUOUS
 10
72.923675
 20
11.73238
 11
-20.40966
 21
11.73238
  0
LINE
  8
別途部材
  6
CONTINUOUS
 10
73.323675
 20
11.33238
 11
-20.40966
 21
11.33238
  0
LINE
  8
別途部材
  6
CONTINUOUS
 10
-114.142995
 20
11.33238
 11
-113.742995
 21
11.73238
  0
LINE
  8
別途部材
  6
CONTINUOUS
 10
-112.076328
 20
13.399048
 11
-104.017073
 21
21.458305
  0
LINE
  8
別途部材
  6
CONTINUOUS
 10
-113.742995
 20
11.73238
 11
-113.742995
 21
28.399048
  0
LINE
  8
別途部材
  6
CONTINUOUS
 10
-114.142995
 20
11.33238
 11
-114.142995
 21
28.399048
  0
LINE
  8
別途部材
  6
CONTINUOUS
 10
-114.142995
 20
45.465715
 11
-113.742995
 21
45.065715
  0
LINE
  8
別途部材
  6
CONTINUOUS
 10
-112.076328
 20
43.399048
 11
-104.017073
 21
35.33979
  0
LINE
  8
別途部材
  6
CONTINUOUS
 10
-113.742995
 20
45.065715
 11
-113.742995
 21
28.399048
  0
LINE
  8
別途部材
  6
CONTINUOUS
 10
-114.142995
 20
45.465715
 11
-114.142995
 21
28.399048
  0
LINE
  8
別途部材
  6
CONTINUOUS
 10
-113.742995
 20
45.065715
 11
-20.40966
 21
45.065715
  0
LINE
  8
別途部材
  6
CONTINUOUS
 10
-114.142995
 20
45.465715
 11
-20.40966
 21
45.465715
  0
LINE
  8
別途部材
  6
CONTINUOUS
 10
-113.742995
 20
11.73238
 11
-20.40966
 21
11.73238
  0
LINE
  8
別途部材
  6
CONTINUOUS
 10
-114.142995
 20
11.33238
 11
-20.40966
 21
11.33238
  0
INSERT
  2
*GRP_0008
  8
別途部材
  6
CONTINUOUS
 10
0.0
 20
0.0
  0
LINE
  8
別途部材
  6
CONTINUOUS
 62
    96
 10
160.790272
 20
11.73238
 11
161.790272
 21
11.33238
  0
LINE
  8
別途部材
  6
CONTINUOUS
 62
    96
 10
160.790272
 20
11.73238
 11
160.790272
 21
28.399048
  0
LINE
  8
別途部材
  6
CONTINUOUS
 10
161.790272
 20
11.33238
 11
161.790272
 21
28.399048
  0
LINE
  8
別途部材
  6
CONTINUOUS
 62
    96
 10
160.790272
 20
45.065715
 11
161.790272
 21
45.465715
  0
LINE
  8
別途部材
  6
CONTINUOUS
 62
    96
 10
160.790272
 20
45.065715
 11
160.790272
 21
28.399048
  0
LINE
  8
別途部材
  6
CONTINUOUS
 10
161.790272
 20
45.465715
 11
161.790272
 21
28.399048
  0
ARC
  8
別途部材
  6
CONTINUOUS
 10
170.123605
 20
28.399048
 40
17.666667
 50
121.890796
 51
238.109204
  0
INSERT
  2
*GRP_0036
  8
別途部材
  6
DOT
 10
0.0
 20
0.0
  0
INSERT
  2
*GRP_0037
  8
別途部材
  6
DOT
 10
0.0
 20
0.0
  0
INSERT
  2
*GRP_0038
  8
別途部材
  6
DOT
 10
0.0
 20
0.0
  0
INSERT
  2
*GRP_0039
  8
別途部材
  6
DOT
 10
0.0
 20
0.0
  0
INSERT
  2
*GRP_0040
  8
別途部材
  6
DOT
 10
0.0
 20
0.0
  0
INSERT
  2
*GRP_0041
  8
別途部材
  6
DOT
 10
0.0
 20
0.0
  0
INSERT
  2
*GRP_0042
  8
別途部材
  6
DOT
 10
0.0
 20
0.0
  0
INSERT
  2
*GRP_0043
  8
別途部材
  6
DOT
 10
0.0
 20
0.0
  0
POLYLINE
  8
曲げ物
  6
CONTINUOUS
 66
     1
 70
     1
  0
VERTEX
  8
曲げ物
 10
157.739695
 20
-54.815305
  0
VERTEX
  8
曲げ物
 10
121.939695
 20
-54.815305
  0
VERTEX
  8
曲げ物
 10
121.939695
 20
-84.815305
  0
VERTEX
  8
曲げ物
 10
157.739695
 20
-84.815305
  0
SEQEND
  0
INSERT
  2
*GRP_0034
  8
曲げ物
  6
DOT
 10
0.0
 20
0.0
  0
INSERT
  2
*GRP_0035
  8
曲げ物
  6
DOT
 10
0.0
 20
0.0
  0
LINE
  8
鉄骨等
  6
CONTINUOUS
 62
    47
 10
164.157057
 20
10.635715
 11
162.99039
 21
10.635715
  0
LINE
  8
鉄骨等
  6
CONTINUOUS
 62
    47
 10
162.99039
 20
10.635715
 11
161.84039
 21
12.0389
  0
LINE
  8
鉄骨等
  6
CONTINUOUS
 62
    47
 10
161.84039
 20
12.0389
 11
161.79027
 21
12.0389
  0
LINE
  8
鉄骨等
  6
CONTINUOUS
 62
    47
 10
164.157057
 20
46.16238
 11
162.99039
 21
46.16238
  0
LINE
  8
鉄骨等
  6
CONTINUOUS
 62
    47
 10
162.99039
 20
46.16238
 11
161.84039
 21
44.759195
  0
LINE
  8
鉄骨等
  6
CONTINUOUS
 62
    47
 10
161.84039
 20
44.759195
 11
161.79027
 21
44.759195
  0
LINE
  8
鉄骨等
  6
CONTINUOUS
 62
    47
 10
-114.839657
 20
-82.991388
 11
-114.839657
 21
-81.82472
  0
LINE
  8
鉄骨等
  6
CONTINUOUS
 62
    47
 10
-114.839657
 20
-81.82472
 11
-113.436473
 21
-80.67472
  0
LINE
  8
鉄骨等
  6
CONTINUOUS
 62
    47
 10
-113.436473
 20
-80.67472
 11
-113.436473
 21
-80.6246
  0
LINE
  8
鉄骨等
  6
CONTINUOUS
 62
    47
 10
74.020337
 20
-82.991388
 11
74.020337
 21
-81.82472
  0
LINE
  8
鉄骨等
  6
CONTINUOUS
 62
    47
 10
74.020337
 20
-81.82472
 11
72.617152
 21
-80.67472
  0
LINE
  8
鉄骨等
  6
CONTINUOUS
 62
    47
 10
72.617152
 20
-80.67472
 11
72.617152
 21
-80.6246
  0
ENDSEC
  0
EOF
