  0
SECTION
  2
HEADER
  9
$EXTMIN
 10
-210.0
 20
-148.5
  9
$EXTMAX
 10
210.0
 20
148.5
  9
$PDMODE
 70
    32
  9
$PDSIZE
 40
1.5
  9
$LTSCALE
 40
10.0
  0
ENDSEC
  0
SECTION
  2
TABLES
  0
TABLE
  2
LTYPE
 70
    15
  0
LTYPE
  2
CONTINUOUS
 70
    64
  3
実線
 72
    65
 73
     0
 40
0.0
  0
LTYPE
  2
DASHED
 70
    64
  3
破線A
 72
    65
 73
     2
 40
0.6
 49
0.4
 49
-0.2
  0
LTYPE
  2
DASHEDX2
 70
    64
  3
破線B
 72
    65
 73
     2
 40
1.3
 49
0.9
 49
-0.4
  0
LTYPE
  2
DASHDOT
 70
    64
  3
１点鎖線A
 72
    65
 73
     4
 40
0.5375
 49
0.375
 49
-0.05
 49
0.0625
 49
-0.05
  0
LTYPE
  2
DASHDOTX2
 70
    64
  3
１点鎖線B
 72
    65
 73
     4
 40
1.075
 49
0.75
 49
-0.1
 49
0.125
 49
-0.1
  0
LTYPE
  2
DIVIDE2
 70
    64
  3
２点鎖線A
 72
    65
 73
     6
 40
0.5125
 49
0.3
 49
-0.0375
 49
0.05
 49
-0.0375
 49
0.05
 49
-0.0375
  0
LTYPE
  2
DIVIDE
 70
    64
  3
２点鎖線B
 72
    65
 73
     6
 40
1.05
 49
0.55
 49
-0.1
 49
0.1
 49
-0.1
 49
0.1
 49
-0.1
  0
LTYPE
  2
DOT
 70
    64
  3
点線A
 72
    65
 73
     2
 40
0.1125
 49
0.0625
 49
-0.05
  0
LTYPE
  2
DOTX2
 70
    64
  3
点線B
 72
    65
 73
     2
 40
0.275
 49
0.15
 49
-0.125
  0
LTYPE
  2
CONTINUOUS
 70
    64
  3
実線
 72
    65
 73
     0
 40
0.0
  0
LTYPE
  2
CONTINUOUS
 70
    64
  3
実線
 72
    65
 73
     0
 40
0.0
  0
LTYPE
  2
CONTINUOUS
 70
    64
  3
実線
 72
    65
 73
     0
 40
0.0
  0
LTYPE
  2
CONTINUOUS
 70
    64
  3
実線
 72
    65
 73
     0
 40
0.0
  0
LTYPE
  2
CONTINUOUS
 70
    64
  3
実線
 72
    65
 73
     0
 40
0.0
  0
LTYPE
  2
CONTINUOUS
 70
    64
  3
実線
 72
    65
 73
     0
 40
0.0
  0
ENDTAB
  0
TABLE
  2
LAYER
 70
    34
  0
LAYER
  2
通り芯
 70
     0
 62
    15
  6
CONTINUOUS
  0
LAYER
  2
補助線
 70
     0
 62
    16
  6
DOT
  0
LAYER
  2
躯体
 70
     0
 62
    31
  6
CONTINUOUS
  0
LAYER
  2
型材
 70
     0
 62
    32
  6
CONTINUOUS
  0
LAYER
  2
型材断面
 70
     0
 62
    47
  6
CONTINUOUS
  0
LAYER
  2
ガラス
 70
     0
 62
    48
  6
CONTINUOUS
  0
LAYER
  2
ゴム等
 70
     0
 62
    63
  6
CONTINUOUS
  0
LAYER
  2
ボルト／ビス
 70
     0
 62
    64
  6
CONTINUOUS
  0
LAYER
  2
文字
 70
     0
 62
    79
  6
CONTINUOUS
  0
LAYER
  2
寸法
 70
     0
 62
    80
  6
CONTINUOUS
  0
LAYER
  2
ﾊｯﾁﾝｸﾞ
 70
     0
 62
    95
  6
CONTINUOUS
  0
LAYER
  2
別途部材
 70
     0
 62
    96
  6
CONTINUOUS
  0
LAYER
  2
曲げ物
 70
     0
 62
   111
  6
CONTINUOUS
  0
LAYER
  2
鉄骨等
 70
     0
 62
   112
  6
CONTINUOUS
  0
LAYER
  2
St
 70
     0
 62
   127
  6
CONTINUOUS
  0
LAYER
  2
その他部品等
 70
     0
 62
   128
  6
CONTINUOUS
  0
LAYER
  2
ｶﾞｽｹｯﾄ
 70
     0
 62
   143
  6
CONTINUOUS
  0
LAYER
  2
ｽｹｯﾁ
 70
     0
 62
    14
  6
CONTINUOUS
  0
LAYER
  2
0
 70
     0
 62
    17
  6
CONTINUOUS
  0
LAYER
  2
1
 70
     0
 62
    30
  6
CONTINUOUS
  0
LAYER
  2
4
 70
     0
 62
    33
  6
CONTINUOUS
  0
LAYER
  2
ﾚｲﾔ3
 70
     0
 62
    46
  6
CONTINUOUS
  0
LAYER
  2
外形線
 70
     0
 62
    49
  6
CONTINUOUS
  0
LAYER
  2
部品
 70
     0
 62
    14
  6
CONTINUOUS
  0
LAYER
  2
サッシ芯
 70
     0
 62
    17
  6
DASHDOTX2
  0
LAYER
  2
寸法線
 70
     0
 62
    62
  6
CONTINUOUS
  0
LAYER
  2
姿図外形線
 70
     0
 62
    65
  6
CONTINUOUS
  0
LAYER
  2
姿補助線
 70
     0
 62
    30
  6
CONTINUOUS
  0
LAYER
  2
透視線
 70
     0
 62
    78
  6
DOT
  0
LAYER
  2
用紙
 70
     0
 62
    81
  6
CONTINUOUS
  0
LAYER
  2
実線図枠
 70
     0
 62
    94
  6
CONTINUOUS
  0
LAYER
  2
補助図枠
 70
     0
 62
    97
  6
CONTINUOUS
  0
LAYER
  2
建具記号
 70
     0
 62
   110
  6
CONTINUOUS
  0
LAYER
  2
補助文字
 70
     0
 62
   113
  6
CONTINUOUS
  0
ENDTAB
  0
TABLE
  2
STYLE
 70
    10
  0
STYLE
  2
STANDARD
 70
     0
 40
1.0
 41
1.0
 42
1.0
 50
0.0
 71
     0
  3
TXT
  4
BIGFONT
  0
STYLE
  2
TATE
 70
     4
 40
1.0
 41
1.0
 42
1.0
 50
0.0
 71
     0
  3
TXT
  4
BIGFONT
  0
STYLE
  2
TextStyle03
 70
     0
 40
1.0
 41
1.0
 42
1.0
 50
0.0
 71
     0
  3
MONOTXT
  4
BIGFONT
  0
STYLE
  2
TextStyle04
 70
     0
 40
1.0
 41
1.0
 42
1.0
 50
0.0
 71
     0
  3
MONOTXT
  4
BIGFONT
  0
STYLE
  2
TextStyle05
 70
     0
 40
1.0
 41
1.0
 42
1.0
 50
0.0
 71
     0
  3
MONOTXT
  4
BIGFONT
  0
STYLE
  2
TextStyle06
 70
     0
 40
1.0
 41
1.0
 42
1.0
 50
0.0
 71
     0
  3
MONOTXT
  4
BIGFONT
  0
STYLE
  2
TextStyle07
 70
     0
 40
1.0
 41
1.0
 42
1.0
 50
0.0
 71
     0
  3
MONOTXT
  4
BIGFONT
  0
STYLE
  2
TextStyle08
 70
     0
 40
1.0
 41
1.0
 42
1.0
 50
0.0
 71
     0
  3
MONOTXT
  4
BIGFONT
  0
STYLE
  2
TextStyle09
 70
     0
 40
1.0
 41
1.0
 42
1.0
 50
0.0
 71
     0
  3
MONOTXT
  4
BIGFONT
  0
STYLE
  2
TextStyle10
 70
     0
 40
1.0
 41
1.0
 42
1.0
 50
0.0
 71
     0
  3
MONOTXT
  4
BIGFONT
  0
ENDTAB
  0
ENDSEC
  0
SECTION
  2
BLOCKS
  0
BLOCK
  2
*GRP_0001
 70
    65
 10
0.0
 20
0.0
  0
LINE
  8
型材断面
  6
CONTINUOUS
 10
195.0
 20
133.5
 11
195.0
 21
-133.5
  0
LINE
  8
型材断面
  6
CONTINUOUS
 10
195.0
 20
-133.5
 11
-185.0
 21
-133.5
  0
LINE
  8
型材断面
  6
CONTINUOUS
 10
-185.0
 20
-133.5
 11
-185.0
 21
133.5
  0
LINE
  8
型材断面
  6
CONTINUOUS
 10
195.0
 20
133.5
 11
-185.0
 21
133.5
  0
LINE
  8
型材断面
  6
CONTINUOUS
 10
145.0
 20
-133.5
 11
145.0
 21
-118.5
  0
LINE
  8
型材断面
  6
CONTINUOUS
 10
195.0
 20
-118.5
 11
145.0
 21
-118.5
  0
ENDBLK
  0
BLOCK
  2
*DIM_0002
 70
    65
 10
0.0
 20
0.0
  0
LINE
  8
寸法
  6
BYBLOCK
 62
     0
 10
43.990438
 20
-61.87628
 11
73.960088
 21
-61.87628
  0
LINE
  8
寸法
  6
BYBLOCK
 62
     0
 10
73.960088
 20
-70.209613
 11
73.960088
 21
-61.87628
  0
POINT
  8
寸法
 62
     0
 10
73.960088
 20
-70.209613
  0
POINT
  8
寸法
 62
     0
 10
73.960088
 20
-61.87628
  0
TEXT
  7
TextStyle03
  8
寸法
  6
CONTINUOUS
 62
     0
 10
73.6
 20
-68.5125
  1
250
 40
3.0
 50
90.0
 72
     5
 11
73.6
 21
-63.6375
  0
ENDBLK
  0
BLOCK
  2
*DIM_0003
 70
    65
 10
0.0
 20
0.0
  0
LINE
  8
寸法
  6
BYBLOCK
 62
     0
 10
-108.676228
 20
-13.511205
 11
-108.676228
 21
-13.121378
  0
LINE
  8
寸法
  6
BYBLOCK
 62
     0
 10
57.990438
 20
-13.121378
 11
-108.676228
 21
-13.121378
  0
POINT
  8
寸法
 62
     0
 10
57.990438
 20
-13.121378
  0
POINT
  8
寸法
 62
     0
 10
-108.676228
 20
-13.121378
  0
TEXT
  7
TextStyle03
  8
寸法
  6
CONTINUOUS
 62
     0
 10
-37.06875
 20
-12.775
  1
呼称寸法　5000
 40
3.0
 72
     5
 11
-13.63125
 21
-12.775
  0
ENDBLK
  0
BLOCK
  2
*DIM_0004
 70
    65
 10
0.0
 20
0.0
  0
LINE
  8
寸法
  6
BYBLOCK
 62
     0
 10
-92.00956
 20
19.183902
 11
-92.00956
 21
13.88158
  0
LINE
  8
寸法
  6
BYBLOCK
 62
     0
 10
-25.342895
 20
19.183905
 11
-25.342895
 21
13.88158
  0
LINE
  8
寸法
  6
BYBLOCK
 62
     0
 10
-92.00956
 20
13.88158
 11
-25.342895
 21
13.88158
  0
POINT
  8
寸法
 62
     0
 10
-92.00956
 20
13.88158
  0
POINT
  8
寸法
 62
     0
 10
-25.342895
 20
13.88158
  0
TEXT
  7
TextStyle03
  8
寸法
  6
CONTINUOUS
 62
     0
 10
-61.98125
 20
14.25
  1
2000
 40
3.0
 72
     5
 11
-55.41875
 21
14.25
  0
ENDBLK
  0
BLOCK
  2
*DIM_0005
 70
    65
 10
0.0
 20
0.0
  0
LINE
  8
寸法
  6
BYBLOCK
 62
     0
 10
41.32377
 20
19.183902
 11
41.32377
 21
13.88158
  0
LINE
  8
寸法
  6
BYBLOCK
 62
     0
 10
-25.342895
 20
13.88158
 11
41.32377
 21
13.88158
  0
POINT
  8
寸法
 62
     0
 10
41.32377
 20
13.88158
  0
TEXT
  7
TextStyle03
  8
寸法
  6
CONTINUOUS
 62
     0
 10
4.69375
 20
14.25
  1
2000
 40
3.0
 72
     5
 11
11.25625
 21
14.25
  0
ENDBLK
  0
BLOCK
  2
*DIM_0006
 70
    65
 10
0.0
 20
0.0
  0
LINE
  8
寸法
  6
BYBLOCK
 62
     0
 10
58.990438
 20
52.814035
 11
68.71472
 21
52.814035
  0
LINE
  8
寸法
  6
BYBLOCK
 62
     0
 10
61.620567
 20
49.114035
 11
68.71472
 21
49.114035
  0
LINE
  8
寸法
  6
BYBLOCK
 62
     0
 10
68.71472
 20
52.814035
 11
68.71472
 21
49.114035
  0
POINT
  8
寸法
 62
     0
 10
68.71472
 20
52.814035
  0
POINT
  8
寸法
 62
     0
 10
68.71472
 20
49.114035
  0
TEXT
  7
TextStyle03
  8
寸法
  6
CONTINUOUS
 62
     0
 10
68.375
 20
53.8125
  1
111
 40
3.0
 50
90.0
 72
     5
 11
68.375
 21
58.6875
  0
ENDBLK
  0
BLOCK
  2
*DIM_0007
 70
    65
 10
0.0
 20
0.0
  0
LINE
  8
寸法
  6
BYBLOCK
 62
     0
 10
58.990438
 20
22.81403
 11
68.71472
 21
22.814027
  0
LINE
  8
寸法
  6
BYBLOCK
 62
     0
 10
61.620567
 20
26.51403
 11
68.71472
 21
26.514027
  0
LINE
  8
寸法
  6
BYBLOCK
 62
     0
 10
68.71472
 20
22.814027
 11
68.71472
 21
26.514027
  0
POINT
  8
寸法
 62
     0
 10
68.71472
 20
22.814027
  0
POINT
  8
寸法
 62
     0
 10
68.71472
 20
26.514027
  0
TEXT
  7
TextStyle03
  8
寸法
  6
CONTINUOUS
 62
     0
 10
68.375
 20
16.9375
  1
111
 40
3.0
 50
90.0
 72
     5
 11
68.375
 21
21.8125
  0
ENDBLK
  0
BLOCK
  2
*GRP_0008
 70
    65
 10
0.0
 20
0.0
  0
LINE
  8
別途部材
  6
CONTINUOUS
 62
    96
 10
-110.342895
 20
-70.209613
 11
-110.742895
 21
-71.209613
  0
LINE
  8
別途部材
  6
CONTINUOUS
 62
    96
 10
-110.342895
 20
-70.209613
 11
-25.342895
 21
-70.209613
  0
LINE
  8
別途部材
  6
CONTINUOUS
 10
-110.742895
 20
-71.209613
 11
-25.342895
 21
-71.209613
  0
LINE
  8
別途部材
  6
CONTINUOUS
 10
-25.842895
 20
-60.87628
 11
-26.842895
 21
-61.87628
  0
LINE
  8
別途部材
  6
CONTINUOUS
 10
-27.842895
 20
-61.87628
 11
-28.842895
 21
-60.87628
  0
LINE
  8
別途部材
  6
CONTINUOUS
 10
-29.842895
 20
-60.87628
 11
-30.842895
 21
-61.87628
  0
LINE
  8
別途部材
  6
CONTINUOUS
 10
-28.842895
 20
-60.87628
 11
-29.842895
 21
-60.87628
  0
LINE
  8
別途部材
  6
CONTINUOUS
 10
-25.842895
 20
-60.87628
 11
-25.342895
 21
-60.87628
  0
LINE
  8
別途部材
  6
CONTINUOUS
 10
-31.842895
 20
-61.87628
 11
-32.842895
 21
-60.87628
  0
LINE
  8
別途部材
  6
CONTINUOUS
 10
-33.842895
 20
-60.87628
 11
-34.842895
 21
-61.87628
  0
LINE
  8
別途部材
  6
CONTINUOUS
 10
-32.842895
 20
-60.87628
 11
-33.842895
 21
-60.87628
  0
LINE
  8
別途部材
  6
CONTINUOUS
 10
-35.842895
 20
-61.87628
 11
-36.842895
 21
-60.87628
  0
LINE
  8
別途部材
  6
CONTINUOUS
 10
-37.842895
 20
-60.87628
 11
-38.842895
 21
-61.87628
  0
LINE
  8
別途部材
  6
CONTINUOUS
 10
-36.842895
 20
-60.87628
 11
-37.842895
 21
-60.87628
  0
LINE
  8
別途部材
  6
CONTINUOUS
 10
-39.842895
 20
-61.87628
 11
-40.842895
 21
-60.87628
  0
LINE
  8
別途部材
  6
CONTINUOUS
 10
-41.842895
 20
-60.87628
 11
-42.842895
 21
-61.87628
  0
LINE
  8
別途部材
  6
CONTINUOUS
 10
-40.842895
 20
-60.87628
 11
-41.842895
 21
-60.87628
  0
LINE
  8
別途部材
  6
CONTINUOUS
 10
-43.842895
 20
-61.87628
 11
-44.842895
 21
-60.87628
  0
LINE
  8
別途部材
  6
CONTINUOUS
 10
-45.842895
 20
-60.87628
 11
-46.842895
 21
-61.87628
  0
LINE
  8
別途部材
  6
CONTINUOUS
 10
-44.842895
 20
-60.87628
 11
-45.842895
 21
-60.87628
  0
LINE
  8
別途部材
  6
CONTINUOUS
 10
-47.842895
 20
-61.87628
 11
-48.842895
 21
-60.87628
  0
LINE
  8
別途部材
  6
CONTINUOUS
 10
-49.842895
 20
-60.87628
 11
-50.842895
 21
-61.87628
  0
LINE
  8
別途部材
  6
CONTINUOUS
 10
-48.842895
 20
-60.87628
 11
-49.842895
 21
-60.87628
  0
LINE
  8
別途部材
  6
CONTINUOUS
 10
-51.842895
 20
-61.87628
 11
-52.842895
 21
-60.87628
  0
LINE
  8
別途部材
  6
CONTINUOUS
 10
-53.842895
 20
-60.87628
 11
-54.842895
 21
-61.87628
  0
LINE
  8
別途部材
  6
CONTINUOUS
 10
-52.842895
 20
-60.87628
 11
-53.842895
 21
-60.87628
  0
LINE
  8
別途部材
  6
CONTINUOUS
 10
-55.842895
 20
-61.87628
 11
-56.842895
 21
-60.87628
  0
LINE
  8
別途部材
  6
CONTINUOUS
 10
-57.842895
 20
-60.87628
 11
-58.842895
 21
-61.87628
  0
LINE
  8
別途部材
  6
CONTINUOUS
 10
-56.842895
 20
-60.87628
 11
-57.842895
 21
-60.87628
  0
LINE
  8
別途部材
  6
CONTINUOUS
 10
-59.842895
 20
-61.87628
 11
-60.842895
 21
-60.87628
  0
LINE
  8
別途部材
  6
CONTINUOUS
 10
-61.842895
 20
-60.87628
 11
-62.842895
 21
-61.87628
  0
LINE
  8
別途部材
  6
CONTINUOUS
 10
-60.842895
 20
-60.87628
 11
-61.842895
 21
-60.87628
  0
LINE
  8
別途部材
  6
CONTINUOUS
 10
-63.842895
 20
-61.87628
 11
-64.842895
 21
-60.87628
  0
LINE
  8
別途部材
  6
CONTINUOUS
 10
-65.842895
 20
-60.87628
 11
-66.842895
 21
-61.87628
  0
LINE
  8
別途部材
  6
CONTINUOUS
 10
-64.842895
 20
-60.87628
 11
-65.842895
 21
-60.87628
  0
LINE
  8
別途部材
  6
CONTINUOUS
 10
-67.842895
 20
-61.87628
 11
-68.842895
 21
-60.87628
  0
LINE
  8
別途部材
  6
CONTINUOUS
 10
-69.842895
 20
-60.87628
 11
-70.842895
 21
-61.87628
  0
LINE
  8
別途部材
  6
CONTINUOUS
 10
-68.842895
 20
-60.87628
 11
-69.842895
 21
-60.87628
  0
LINE
  8
別途部材
  6
CONTINUOUS
 10
-66.842895
 20
-61.87628
 11
-67.842895
 21
-61.87628
  0
LINE
  8
別途部材
  6
CONTINUOUS
 10
-62.842895
 20
-61.87628
 11
-63.842895
 21
-61.87628
  0
LINE
  8
別途部材
  6
CONTINUOUS
 10
-58.842895
 20
-61.87628
 11
-59.842895
 21
-61.87628
  0
LINE
  8
別途部材
  6
CONTINUOUS
 10
-54.842895
 20
-61.87628
 11
-55.842895
 21
-61.87628
  0
LINE
  8
別途部材
  6
CONTINUOUS
 10
-50.842895
 20
-61.87628
 11
-51.842895
 21
-61.87628
  0
LINE
  8
別途部材
  6
CONTINUOUS
 10
-46.842895
 20
-61.87628
 11
-47.842895
 21
-61.87628
  0
LINE
  8
別途部材
  6
CONTINUOUS
 10
-42.842895
 20
-61.87628
 11
-43.842895
 21
-61.87628
  0
LINE
  8
別途部材
  6
CONTINUOUS
 10
-38.842895
 20
-61.87628
 11
-39.842895
 21
-61.87628
  0
LINE
  8
別途部材
  6
CONTINUOUS
 10
-34.842895
 20
-61.87628
 11
-35.842895
 21
-61.87628
  0
LINE
  8
別途部材
  6
CONTINUOUS
 10
-30.842895
 20
-61.87628
 11
-31.842895
 21
-61.87628
  0
LINE
  8
別途部材
  6
CONTINUOUS
 10
-27.842895
 20
-61.87628
 11
-26.842895
 21
-61.87628
  0
LINE
  8
別途部材
  6
CONTINUOUS
 10
-71.842895
 20
-61.87628
 11
-72.842895
 21
-60.87628
  0
LINE
  8
別途部材
  6
CONTINUOUS
 10
-73.842895
 20
-60.87628
 11
-74.842895
 21
-61.87628
  0
LINE
  8
別途部材
  6
CONTINUOUS
 10
-72.842895
 20
-60.87628
 11
-73.842895
 21
-60.87628
  0
LINE
  8
別途部材
  6
CONTINUOUS
 10
-75.842895
 20
-61.87628
 11
-76.842895
 21
-60.87628
  0
LINE
  8
別途部材
  6
CONTINUOUS
 10
-77.842895
 20
-60.87628
 11
-78.842895
 21
-61.87628
  0
LINE
  8
別途部材
  6
CONTINUOUS
 10
-76.842895
 20
-60.87628
 11
-77.842895
 21
-60.87628
  0
LINE
  8
別途部材
  6
CONTINUOUS
 10
-79.842895
 20
-61.87628
 11
-80.842895
 21
-60.87628
  0
LINE
  8
別途部材
  6
CONTINUOUS
 10
-81.842895
 20
-60.87628
 11
-82.842895
 21
-61.87628
  0
LINE
  8
別途部材
  6
CONTINUOUS
 10
-80.842895
 20
-60.87628
 11
-81.842895
 21
-60.87628
  0
LINE
  8
別途部材
  6
CONTINUOUS
 10
-83.842895
 20
-61.87628
 11
-84.842895
 21
-60.87628
  0
LINE
  8
別途部材
  6
CONTINUOUS
 10
-85.842895
 20
-60.87628
 11
-86.842895
 21
-61.87628
  0
LINE
  8
別途部材
  6
CONTINUOUS
 10
-84.842895
 20
-60.87628
 11
-85.842895
 21
-60.87628
  0
LINE
  8
別途部材
  6
CONTINUOUS
 10
-87.842895
 20
-61.87628
 11
-88.842895
 21
-60.87628
  0
LINE
  8
別途部材
  6
CONTINUOUS
 10
-89.842895
 20
-60.87628
 11
-90.842895
 21
-61.87628
  0
LINE
  8
別途部材
  6
CONTINUOUS
 10
-88.842895
 20
-60.87628
 11
-89.842895
 21
-60.87628
  0
LINE
  8
別途部材
  6
CONTINUOUS
 10
-91.842895
 20
-61.87628
 11
-92.842895
 21
-60.87628
  0
LINE
  8
別途部材
  6
CONTINUOUS
 10
-93.842895
 20
-60.87628
 11
-94.842895
 21
-61.87628
  0
LINE
  8
別途部材
  6
CONTINUOUS
 10
-92.842895
 20
-60.87628
 11
-93.842895
 21
-60.87628
  0
LINE
  8
別途部材
  6
CONTINUOUS
 10
-90.842895
 20
-61.87628
 11
-91.842895
 21
-61.87628
  0
LINE
  8
別途部材
  6
CONTINUOUS
 10
-86.842895
 20
-61.87628
 11
-87.842895
 21
-61.87628
  0
LINE
  8
別途部材
  6
CONTINUOUS
 10
-82.842895
 20
-61.87628
 11
-83.842895
 21
-61.87628
  0
LINE
  8
別途部材
  6
CONTINUOUS
 10
-78.842895
 20
-61.87628
 11
-79.842895
 21
-61.87628
  0
LINE
  8
別途部材
  6
CONTINUOUS
 10
-74.842895
 20
-61.87628
 11
-75.842895
 21
-61.87628
  0
LINE
  8
別途部材
  6
CONTINUOUS
 10
-70.842895
 20
-61.87628
 11
-71.842895
 21
-61.87628
  0
LINE
  8
別途部材
  6
CONTINUOUS
 10
-94.842895
 20
-61.87628
 11
-94.842895
 21
-70.209613
  0
LINE
  8
別途部材
  6
CONTINUOUS
 10
-93.842895
 20
-60.87628
 11
-93.842895
 21
-70.209613
  0
LINE
  8
別途部材
  6
CONTINUOUS
 10
-91.842895
 20
-61.87628
 11
-91.842895
 21
-70.209613
  0
LINE
  8
別途部材
  6
CONTINUOUS
 10
-92.842895
 20
-60.87628
 11
-92.842895
 21
-70.209613
  0
LINE
  8
別途部材
  6
CONTINUOUS
 10
-89.842895
 20
-60.87628
 11
-89.842895
 21
-70.209613
  0
LINE
  8
別途部材
  6
CONTINUOUS
 10
-90.842895
 20
-61.87628
 11
-90.842895
 21
-70.209613
  0
LINE
  8
別途部材
  6
CONTINUOUS
 10
-87.842895
 20
-61.87628
 11
-87.842895
 21
-70.209613
  0
LINE
  8
別途部材
  6
CONTINUOUS
 10
-88.842895
 20
-60.87628
 11
-88.842895
 21
-70.209613
  0
LINE
  8
別途部材
  6
CONTINUOUS
 10
-86.842895
 20
-61.87628
 11
-86.842895
 21
-70.209613
  0
LINE
  8
別途部材
  6
CONTINUOUS
 10
-84.842895
 20
-60.87628
 11
-84.842895
 21
-70.209613
  0
LINE
  8
別途部材
  6
CONTINUOUS
 10
-85.842895
 20
-60.87628
 11
-85.842895
 21
-70.209613
  0
LINE
  8
別途部材
  6
CONTINUOUS
 10
-83.842895
 20
-61.87628
 11
-83.842895
 21
-70.209613
  0
LINE
  8
別途部材
  6
CONTINUOUS
 10
-82.842895
 20
-61.87628
 11
-82.842895
 21
-70.209613
  0
LINE
  8
別途部材
  6
CONTINUOUS
 10
-81.842895
 20
-60.87628
 11
-81.842895
 21
-70.209613
  0
LINE
  8
別途部材
  6
CONTINUOUS
 10
-80.842895
 20
-60.87628
 11
-80.842895
 21
-70.209613
  0
LINE
  8
別途部材
  6
CONTINUOUS
 10
-76.842895
 20
-60.87628
 11
-76.842895
 21
-70.209613
  0
LINE
  8
別途部材
  6
CONTINUOUS
 10
-69.842895
 20
-60.87628
 11
-69.842895
 21
-70.209613
  0
LINE
  8
別途部材
  6
CONTINUOUS
 10
-65.842895
 20
-60.87628
 11
-65.842895
 21
-70.209613
  0
LINE
  8
別途部材
  6
CONTINUOUS
 10
-63.842895
 20
-61.87628
 11
-63.842895
 21
-70.209613
  0
LINE
  8
別途部材
  6
CONTINUOUS
 10
-68.842895
 20
-60.87628
 11
-68.842895
 21
-70.209613
  0
LINE
  8
別途部材
  6
CONTINUOUS
 10
-72.842895
 20
-60.87628
 11
-72.842895
 21
-70.209613
  0
LINE
  8
別途部材
  6
CONTINUOUS
 10
-74.842895
 20
-61.87628
 11
-74.842895
 21
-70.209613
  0
LINE
  8
別途部材
  6
CONTINUOUS
 10
-77.842895
 20
-60.87628
 11
-77.842895
 21
-70.209613
  0
LINE
  8
別途部材
  6
CONTINUOUS
 10
-78.842895
 20
-61.87628
 11
-78.842895
 21
-70.209613
  0
LINE
  8
別途部材
  6
CONTINUOUS
 10
-79.842895
 20
-61.87628
 11
-79.842895
 21
-70.209613
  0
LINE
  8
別途部材
  6
CONTINUOUS
 10
-75.842895
 20
-61.87628
 11
-75.842895
 21
-70.209613
  0
LINE
  8
別途部材
  6
CONTINUOUS
 10
-73.842895
 20
-60.87628
 11
-73.842895
 21
-70.209613
  0
LINE
  8
別途部材
  6
CONTINUOUS
 10
-71.842895
 20
-61.87628
 11
-71.842895
 21
-70.209613
  0
LINE
  8
別途部材
  6
CONTINUOUS
 10
-70.842895
 20
-61.87628
 11
-70.842895
 21
-70.209613
  0
LINE
  8
別途部材
  6
CONTINUOUS
 10
-67.842895
 20
-61.87628
 11
-67.842895
 21
-70.209613
  0
LINE
  8
別途部材
  6
CONTINUOUS
 10
-66.842895
 20
-61.87628
 11
-66.842895
 21
-70.209613
  0
LINE
  8
別途部材
  6
CONTINUOUS
 10
-64.842895
 20
-60.87628
 11
-64.842895
 21
-70.209613
  0
LINE
  8
別途部材
  6
CONTINUOUS
 10
-61.842895
 20
-60.87628
 11
-61.842895
 21
-70.209613
  0
LINE
  8
別途部材
  6
CONTINUOUS
 10
-62.842895
 20
-61.87628
 11
-62.842895
 21
-70.209613
  0
LINE
  8
別途部材
  6
CONTINUOUS
 10
-60.842895
 20
-60.87628
 11
-60.842895
 21
-70.209613
  0
LINE
  8
別途部材
  6
CONTINUOUS
 10
-59.842895
 20
-61.87628
 11
-59.842895
 21
-70.209613
  0
LINE
  8
別途部材
  6
CONTINUOUS
 10
-58.842895
 20
-61.87628
 11
-58.842895
 21
-70.209613
  0
LINE
  8
別途部材
  6
CONTINUOUS
 10
-57.842895
 20
-60.87628
 11
-57.842895
 21
-70.209613
  0
LINE
  8
別途部材
  6
CONTINUOUS
 10
-55.842895
 20
-61.87628
 11
-55.842895
 21
-70.209613
  0
LINE
  8
別途部材
  6
CONTINUOUS
 10
-56.842895
 20
-60.87628
 11
-56.842895
 21
-70.209613
  0
LINE
  8
別途部材
  6
CONTINUOUS
 10
-53.842895
 20
-60.87628
 11
-53.842895
 21
-70.209613
  0
LINE
  8
別途部材
  6
CONTINUOUS
 10
-54.842895
 20
-61.87628
 11
-54.842895
 21
-70.209613
  0
LINE
  8
別途部材
  6
CONTINUOUS
 10
-50.842895
 20
-61.87628
 11
-50.842895
 21
-70.209613
  0
LINE
  8
別途部材
  6
CONTINUOUS
 10
-49.842895
 20
-60.87628
 11
-49.842895
 21
-70.209613
  0
LINE
  8
別途部材
  6
CONTINUOUS
 10
-48.842895
 20
-60.87628
 11
-48.842895
 21
-70.209613
  0
LINE
  8
別途部材
  6
CONTINUOUS
 10
-51.842895
 20
-61.87628
 11
-51.842895
 21
-70.209613
  0
LINE
  8
別途部材
  6
CONTINUOUS
 10
-52.842895
 20
-60.87628
 11
-52.842895
 21
-70.209613
  0
LINE
  8
別途部材
  6
CONTINUOUS
 10
-44.842895
 20
-60.87628
 11
-44.842895
 21
-70.209613
  0
LINE
  8
別途部材
  6
CONTINUOUS
 10
-46.842895
 20
-61.87628
 11
-46.842895
 21
-70.209613
  0
LINE
  8
別途部材
  6
CONTINUOUS
 10
-47.842895
 20
-61.87628
 11
-47.842895
 21
-70.209613
  0
LINE
  8
別途部材
  6
CONTINUOUS
 10
-45.842895
 20
-60.87628
 11
-45.842895
 21
-70.209613
  0
LINE
  8
別途部材
  6
CONTINUOUS
 10
-43.842895
 20
-61.87628
 11
-43.842895
 21
-70.209613
  0
LINE
  8
別途部材
  6
CONTINUOUS
 10
-41.842895
 20
-60.87628
 11
-41.842895
 21
-70.209613
  0
LINE
  8
別途部材
  6
CONTINUOUS
 10
-40.842895
 20
-60.87628
 11
-40.842895
 21
-70.209613
  0
LINE
  8
別途部材
  6
CONTINUOUS
 10
-38.842895
 20
-61.87628
 11
-38.842895
 21
-70.209613
  0
LINE
  8
別途部材
  6
CONTINUOUS
 10
-39.842895
 20
-61.87628
 11
-39.842895
 21
-70.209613
  0
LINE
  8
別途部材
  6
CONTINUOUS
 10
-42.842895
 20
-61.87628
 11
-42.842895
 21
-70.209613
  0
LINE
  8
別途部材
  6
CONTINUOUS
 10
-37.842895
 20
-60.87628
 11
-37.842895
 21
-70.209613
  0
LINE
  8
別途部材
  6
CONTINUOUS
 10
-35.842895
 20
-61.87628
 11
-35.842895
 21
-70.209613
  0
LINE
  8
別途部材
  6
CONTINUOUS
 10
-36.842895
 20
-60.87628
 11
-36.842895
 21
-70.209613
  0
LINE
  8
別途部材
  6
CONTINUOUS
 10
-34.842895
 20
-61.87628
 11
-34.842895
 21
-70.209613
  0
LINE
  8
別途部材
  6
CONTINUOUS
 10
-33.842895
 20
-60.87628
 11
-33.842895
 21
-70.209613
  0
LINE
  8
別途部材
  6
CONTINUOUS
 10
-31.842895
 20
-61.87628
 11
-31.842895
 21
-70.209613
  0
LINE
  8
別途部材
  6
CONTINUOUS
 10
-32.842895
 20
-60.87628
 11
-32.842895
 21
-70.209613
  0
LINE
  8
別途部材
  6
CONTINUOUS
 10
-30.842895
 20
-61.87628
 11
-30.842895
 21
-70.209613
  0
LINE
  8
別途部材
  6
CONTINUOUS
 10
-29.842895
 20
-60.87628
 11
-29.842895
 21
-70.209613
  0
LINE
  8
別途部材
  6
CONTINUOUS
 10
-27.842895
 20
-61.87628
 11
-27.842895
 21
-70.209613
  0
LINE
  8
別途部材
  6
CONTINUOUS
 10
-28.842895
 20
-60.87628
 11
-28.842895
 21
-70.209613
  0
LINE
  8
別途部材
  6
CONTINUOUS
 10
-26.842895
 20
-61.87628
 11
-26.842895
 21
-70.209613
  0
LINE
  8
別途部材
  6
CONTINUOUS
 10
-25.842895
 20
-60.87628
 11
-25.842895
 21
-70.209613
  0
ARC
  8
別途部材
  6
CONTINUOUS
 10
-93.676227
 20
-79.542947
 40
17.666667
 50
93.786444
 51
148.109204
  0
LINE
  8
別途部材
  6
CONTINUOUS
 62
    96
 10
59.657105
 20
-70.209613
 11
60.057105
 21
-71.209613
  0
LINE
  8
別途部材
  6
CONTINUOUS
 62
    96
 10
59.657105
 20
-70.209613
 11
-25.342895
 21
-70.209613
  0
LINE
  8
別途部材
  6
CONTINUOUS
 10
60.057105
 20
-71.209613
 11
-25.342895
 21
-71.209613
  0
LINE
  8
別途部材
  6
CONTINUOUS
 10
-24.842895
 20
-60.87628
 11
-23.842895
 21
-61.87628
  0
LINE
  8
別途部材
  6
CONTINUOUS
 10
-22.842895
 20
-61.87628
 11
-21.842895
 21
-60.87628
  0
LINE
  8
別途部材
  6
CONTINUOUS
 10
-20.842895
 20
-60.87628
 11
-19.842895
 21
-61.87628
  0
LINE
  8
別途部材
  6
CONTINUOUS
 10
-21.842895
 20
-60.87628
 11
-20.842895
 21
-60.87628
  0
LINE
  8
別途部材
  6
CONTINUOUS
 10
-24.842895
 20
-60.87628
 11
-25.342895
 21
-60.87628
  0
LINE
  8
別途部材
  6
CONTINUOUS
 10
-18.842895
 20
-61.87628
 11
-17.842895
 21
-60.87628
  0
LINE
  8
別途部材
  6
CONTINUOUS
 10
-16.842895
 20
-60.87628
 11
-15.842895
 21
-61.87628
  0
LINE
  8
別途部材
  6
CONTINUOUS
 10
-17.842895
 20
-60.87628
 11
-16.842895
 21
-60.87628
  0
LINE
  8
別途部材
  6
CONTINUOUS
 10
-14.842895
 20
-61.87628
 11
-13.842895
 21
-60.87628
  0
LINE
  8
別途部材
  6
CONTINUOUS
 10
-12.842895
 20
-60.87628
 11
-11.842895
 21
-61.87628
  0
LINE
  8
別途部材
  6
CONTINUOUS
 10
-13.842895
 20
-60.87628
 11
-12.842895
 21
-60.87628
  0
LINE
  8
別途部材
  6
CONTINUOUS
 10
-10.842895
 20
-61.87628
 11
-9.842895
 21
-60.87628
  0
LINE
  8
別途部材
  6
CONTINUOUS
 10
-8.842895
 20
-60.87628
 11
-7.842895
 21
-61.87628
  0
LINE
  8
別途部材
  6
CONTINUOUS
 10
-9.842895
 20
-60.87628
 11
-8.842895
 21
-60.87628
  0
LINE
  8
別途部材
  6
CONTINUOUS
 10
-6.842895
 20
-61.87628
 11
-5.842895
 21
-60.87628
  0
LINE
  8
別途部材
  6
CONTINUOUS
 10
-4.842895
 20
-60.87628
 11
-3.842895
 21
-61.87628
  0
LINE
  8
別途部材
  6
CONTINUOUS
 10
-5.842895
 20
-60.87628
 11
-4.842895
 21
-60.87628
  0
LINE
  8
別途部材
  6
CONTINUOUS
 10
-2.842895
 20
-61.87628
 11
-1.842895
 21
-60.87628
  0
LINE
  8
別途部材
  6
CONTINUOUS
 10
-0.842895
 20
-60.87628
 11
0.157105
 21
-61.87628
  0
LINE
  8
別途部材
  6
CONTINUOUS
 10
-1.842895
 20
-60.87628
 11
-0.842895
 21
-60.87628
  0
LINE
  8
別途部材
  6
CONTINUOUS
 10
1.157105
 20
-61.87628
 11
2.157105
 21
-60.87628
  0
LINE
  8
別途部材
  6
CONTINUOUS
 10
3.157105
 20
-60.87628
 11
4.157105
 21
-61.87628
  0
LINE
  8
別途部材
  6
CONTINUOUS
 10
2.157105
 20
-60.87628
 11
3.157105
 21
-60.87628
  0
LINE
  8
別途部材
  6
CONTINUOUS
 10
5.157105
 20
-61.87628
 11
6.157105
 21
-60.87628
  0
LINE
  8
別途部材
  6
CONTINUOUS
 10
7.157105
 20
-60.87628
 11
8.157105
 21
-61.87628
  0
LINE
  8
別途部材
  6
CONTINUOUS
 10
6.157105
 20
-60.87628
 11
7.157105
 21
-60.87628
  0
LINE
  8
別途部材
  6
CONTINUOUS
 10
9.157105
 20
-61.87628
 11
10.157105
 21
-60.87628
  0
LINE
  8
別途部材
  6
CONTINUOUS
 10
11.157105
 20
-60.87628
 11
12.157105
 21
-61.87628
  0
LINE
  8
別途部材
  6
CONTINUOUS
 10
10.157105
 20
-60.87628
 11
11.157105
 21
-60.87628
  0
LINE
  8
別途部材
  6
CONTINUOUS
 10
13.157105
 20
-61.87628
 11
14.157105
 21
-60.87628
  0
LINE
  8
別途部材
  6
CONTINUOUS
 10
15.157105
 20
-60.87628
 11
16.157105
 21
-61.87628
  0
LINE
  8
別途部材
  6
CONTINUOUS
 10
14.157105
 20
-60.87628
 11
15.157105
 21
-60.87628
  0
LINE
  8
別途部材
  6
CONTINUOUS
 10
17.157105
 20
-61.87628
 11
18.157105
 21
-60.87628
  0
LINE
  8
別途部材
  6
CONTINUOUS
 10
19.157105
 20
-60.87628
 11
20.157105
 21
-61.87628
  0
LINE
  8
別途部材
  6
CONTINUOUS
 10
18.157105
 20
-60.87628
 11
19.157105
 21
-60.87628
  0
LINE
  8
別途部材
  6
CONTINUOUS
 10
16.157105
 20
-61.87628
 11
17.157105
 21
-61.87628
  0
LINE
  8
別途部材
  6
CONTINUOUS
 10
12.157105
 20
-61.87628
 11
13.157105
 21
-61.87628
  0
LINE
  8
別途部材
  6
CONTINUOUS
 10
8.157105
 20
-61.87628
 11
9.157105
 21
-61.87628
  0
LINE
  8
別途部材
  6
CONTINUOUS
 10
4.157105
 20
-61.87628
 11
5.157105
 21
-61.87628
  0
LINE
  8
別途部材
  6
CONTINUOUS
 10
0.157105
 20
-61.87628
 11
1.157105
 21
-61.87628
  0
LINE
  8
別途部材
  6
CONTINUOUS
 10
-3.842895
 20
-61.87628
 11
-2.842895
 21
-61.87628
  0
LINE
  8
別途部材
  6
CONTINUOUS
 10
-7.842895
 20
-61.87628
 11
-6.842895
 21
-61.87628
  0
LINE
  8
別途部材
  6
CONTINUOUS
 10
-11.842895
 20
-61.87628
 11
-10.842895
 21
-61.87628
  0
LINE
  8
別途部材
  6
CONTINUOUS
 10
-15.842895
 20
-61.87628
 11
-14.842895
 21
-61.87628
  0
LINE
  8
別途部材
  6
CONTINUOUS
 10
-19.842895
 20
-61.87628
 11
-18.842895
 21
-61.87628
  0
LINE
  8
別途部材
  6
CONTINUOUS
 10
-22.842895
 20
-61.87628
 11
-23.842895
 21
-61.87628
  0
LINE
  8
別途部材
  6
CONTINUOUS
 10
21.157105
 20
-61.87628
 11
22.157105
 21
-60.87628
  0
LINE
  8
別途部材
  6
CONTINUOUS
 10
23.157105
 20
-60.87628
 11
24.157105
 21
-61.87628
  0
LINE
  8
別途部材
  6
CONTINUOUS
 10
22.157105
 20
-60.87628
 11
23.157105
 21
-60.87628
  0
LINE
  8
別途部材
  6
CONTINUOUS
 10
25.157105
 20
-61.87628
 11
26.157105
 21
-60.87628
  0
LINE
  8
別途部材
  6
CONTINUOUS
 10
27.157105
 20
-60.87628
 11
28.157105
 21
-61.87628
  0
LINE
  8
別途部材
  6
CONTINUOUS
 10
26.157105
 20
-60.87628
 11
27.157105
 21
-60.87628
  0
LINE
  8
別途部材
  6
CONTINUOUS
 10
29.157105
 20
-61.87628
 11
30.157105
 21
-60.87628
  0
LINE
  8
別途部材
  6
CONTINUOUS
 10
31.157105
 20
-60.87628
 11
32.157105
 21
-61.87628
  0
LINE
  8
別途部材
  6
CONTINUOUS
 10
30.157105
 20
-60.87628
 11
31.157105
 21
-60.87628
  0
LINE
  8
別途部材
  6
CONTINUOUS
 10
33.157105
 20
-61.87628
 11
34.157105
 21
-60.87628
  0
LINE
  8
別途部材
  6
CONTINUOUS
 10
35.157105
 20
-60.87628
 11
36.157105
 21
-61.87628
  0
LINE
  8
別途部材
  6
CONTINUOUS
 10
34.157105
 20
-60.87628
 11
35.157105
 21
-60.87628
  0
LINE
  8
別途部材
  6
CONTINUOUS
 10
37.157105
 20
-61.87628
 11
38.157105
 21
-60.87628
  0
LINE
  8
別途部材
  6
CONTINUOUS
 10
39.157105
 20
-60.87628
 11
40.157105
 21
-61.87628
  0
LINE
  8
別途部材
  6
CONTINUOUS
 10
38.157105
 20
-60.87628
 11
39.157105
 21
-60.87628
  0
LINE
  8
別途部材
  6
CONTINUOUS
 10
41.157105
 20
-61.87628
 11
42.157105
 21
-60.87628
  0
LINE
  8
別途部材
  6
CONTINUOUS
 10
43.157105
 20
-60.87628
 11
44.157105
 21
-61.87628
  0
LINE
  8
別途部材
  6
CONTINUOUS
 10
42.157105
 20
-60.87628
 11
43.157105
 21
-60.87628
  0
LINE
  8
別途部材
  6
CONTINUOUS
 10
40.157105
 20
-61.87628
 11
41.157105
 21
-61.87628
  0
LINE
  8
別途部材
  6
CONTINUOUS
 10
36.157105
 20
-61.87628
 11
37.157105
 21
-61.87628
  0
LINE
  8
別途部材
  6
CONTINUOUS
 10
32.157105
 20
-61.87628
 11
33.157105
 21
-61.87628
  0
LINE
  8
別途部材
  6
CONTINUOUS
 10
28.157105
 20
-61.87628
 11
29.157105
 21
-61.87628
  0
LINE
  8
別途部材
  6
CONTINUOUS
 10
24.157105
 20
-61.87628
 11
25.157105
 21
-61.87628
  0
LINE
  8
別途部材
  6
CONTINUOUS
 10
20.157105
 20
-61.87628
 11
21.157105
 21
-61.87628
  0
LINE
  8
別途部材
  6
CONTINUOUS
 10
44.157105
 20
-61.87628
 11
44.157105
 21
-70.209613
  0
LINE
  8
別途部材
  6
CONTINUOUS
 10
43.157105
 20
-60.87628
 11
43.157105
 21
-70.209613
  0
LINE
  8
別途部材
  6
CONTINUOUS
 10
41.157105
 20
-61.87628
 11
41.157105
 21
-70.209613
  0
LINE
  8
別途部材
  6
CONTINUOUS
 10
42.157105
 20
-60.87628
 11
42.157105
 21
-70.209613
  0
LINE
  8
別途部材
  6
CONTINUOUS
 10
39.157105
 20
-60.87628
 11
39.157105
 21
-70.209613
  0
LINE
  8
別途部材
  6
CONTINUOUS
 10
40.157105
 20
-61.87628
 11
40.157105
 21
-70.209613
  0
LINE
  8
別途部材
  6
CONTINUOUS
 10
37.157105
 20
-61.87628
 11
37.157105
 21
-70.209613
  0
LINE
  8
別途部材
  6
CONTINUOUS
 10
38.157105
 20
-60.87628
 11
38.157105
 21
-70.209613
  0
LINE
  8
別途部材
  6
CONTINUOUS
 10
36.157105
 20
-61.87628
 11
36.157105
 21
-70.209613
  0
LINE
  8
別途部材
  6
CONTINUOUS
 10
34.157105
 20
-60.87628
 11
34.157105
 21
-70.209613
  0
LINE
  8
別途部材
  6
CONTINUOUS
 10
35.157105
 20
-60.87628
 11
35.157105
 21
-70.209613
  0
LINE
  8
別途部材
  6
CONTINUOUS
 10
33.157105
 20
-61.87628
 11
33.157105
 21
-70.209613
  0
LINE
  8
別途部材
  6
CONTINUOUS
 10
32.157105
 20
-61.87628
 11
32.157105
 21
-70.209613
  0
LINE
  8
別途部材
  6
CONTINUOUS
 10
31.157105
 20
-60.87628
 11
31.157105
 21
-70.209613
  0
LINE
  8
別途部材
  6
CONTINUOUS
 10
30.157105
 20
-60.87628
 11
30.157105
 21
-70.209613
  0
LINE
  8
別途部材
  6
CONTINUOUS
 10
26.157105
 20
-60.87628
 11
26.157105
 21
-70.209613
  0
LINE
  8
別途部材
  6
CONTINUOUS
 10
19.157105
 20
-60.87628
 11
19.157105
 21
-70.209613
  0
LINE
  8
別途部材
  6
CONTINUOUS
 10
15.157105
 20
-60.87628
 11
15.157105
 21
-70.209613
  0
LINE
  8
別途部材
  6
CONTINUOUS
 10
13.157105
 20
-61.87628
 11
13.157105
 21
-70.209613
  0
LINE
  8
別途部材
  6
CONTINUOUS
 10
18.157105
 20
-60.87628
 11
18.157105
 21
-70.209613
  0
LINE
  8
別途部材
  6
CONTINUOUS
 10
22.157105
 20
-60.87628
 11
22.157105
 21
-70.209613
  0
LINE
  8
別途部材
  6
CONTINUOUS
 10
24.157105
 20
-61.87628
 11
24.157105
 21
-70.209613
  0
LINE
  8
別途部材
  6
CONTINUOUS
 10
27.157105
 20
-60.87628
 11
27.157105
 21
-70.209613
  0
LINE
  8
別途部材
  6
CONTINUOUS
 10
28.157105
 20
-61.87628
 11
28.157105
 21
-70.209613
  0
LINE
  8
別途部材
  6
CONTINUOUS
 10
29.157105
 20
-61.87628
 11
29.157105
 21
-70.209613
  0
LINE
  8
別途部材
  6
CONTINUOUS
 10
25.157105
 20
-61.87628
 11
25.157105
 21
-70.209613
  0
LINE
  8
別途部材
  6
CONTINUOUS
 10
23.157105
 20
-60.87628
 11
23.157105
 21
-70.209613
  0
LINE
  8
別途部材
  6
CONTINUOUS
 10
21.157105
 20
-61.87628
 11
21.157105
 21
-70.209613
  0
LINE
  8
別途部材
  6
CONTINUOUS
 10
20.157105
 20
-61.87628
 11
20.157105
 21
-70.209613
  0
LINE
  8
別途部材
  6
CONTINUOUS
 10
17.157105
 20
-61.87628
 11
17.157105
 21
-70.209613
  0
LINE
  8
別途部材
  6
CONTINUOUS
 10
16.157105
 20
-61.87628
 11
16.157105
 21
-70.209613
  0
LINE
  8
別途部材
  6
CONTINUOUS
 10
14.157105
 20
-60.87628
 11
14.157105
 21
-70.209613
  0
LINE
  8
別途部材
  6
CONTINUOUS
 10
11.157105
 20
-60.87628
 11
11.157105
 21
-70.209613
  0
LINE
  8
別途部材
  6
CONTINUOUS
 10
12.157105
 20
-61.87628
 11
12.157105
 21
-70.209613
  0
LINE
  8
別途部材
  6
CONTINUOUS
 10
10.157105
 20
-60.87628
 11
10.157105
 21
-70.209613
  0
LINE
  8
別途部材
  6
CONTINUOUS
 10
9.157105
 20
-61.87628
 11
9.157105
 21
-70.209613
  0
LINE
  8
別途部材
  6
CONTINUOUS
 10
8.157105
 20
-61.87628
 11
8.157105
 21
-70.209613
  0
LINE
  8
別途部材
  6
CONTINUOUS
 10
7.157105
 20
-60.87628
 11
7.157105
 21
-70.209613
  0
LINE
  8
別途部材
  6
CONTINUOUS
 10
5.157105
 20
-61.87628
 11
5.157105
 21
-70.209613
  0
LINE
  8
別途部材
  6
CONTINUOUS
 10
6.157105
 20
-60.87628
 11
6.157105
 21
-70.209613
  0
LINE
  8
別途部材
  6
CONTINUOUS
 10
3.157105
 20
-60.87628
 11
3.157105
 21
-70.209613
  0
LINE
  8
別途部材
  6
CONTINUOUS
 10
4.157105
 20
-61.87628
 11
4.157105
 21
-70.209613
  0
LINE
  8
別途部材
  6
CONTINUOUS
 10
0.157105
 20
-61.87628
 11
0.157105
 21
-70.209613
  0
LINE
  8
別途部材
  6
CONTINUOUS
 10
-0.842895
 20
-60.87628
 11
-0.842895
 21
-70.209613
  0
LINE
  8
別途部材
  6
CONTINUOUS
 10
-1.842895
 20
-60.87628
 11
-1.842895
 21
-70.209613
  0
LINE
  8
別途部材
  6
CONTINUOUS
 10
1.157105
 20
-61.87628
 11
1.157105
 21
-70.209613
  0
LINE
  8
別途部材
  6
CONTINUOUS
 10
2.157105
 20
-60.87628
 11
2.157105
 21
-70.209613
  0
LINE
  8
別途部材
  6
CONTINUOUS
 10
-5.842895
 20
-60.87628
 11
-5.842895
 21
-70.209613
  0
LINE
  8
別途部材
  6
CONTINUOUS
 10
-3.842895
 20
-61.87628
 11
-3.842895
 21
-70.209613
  0
LINE
  8
別途部材
  6
CONTINUOUS
 10
-2.842895
 20
-61.87628
 11
-2.842895
 21
-70.209613
  0
LINE
  8
別途部材
  6
CONTINUOUS
 10
-4.842895
 20
-60.87628
 11
-4.842895
 21
-70.209613
  0
LINE
  8
別途部材
  6
CONTINUOUS
 10
-6.842895
 20
-61.87628
 11
-6.842895
 21
-70.209613
  0
LINE
  8
別途部材
  6
CONTINUOUS
 10
-8.842895
 20
-60.87628
 11
-8.842895
 21
-70.209613
  0
LINE
  8
別途部材
  6
CONTINUOUS
 10
-9.842895
 20
-60.87628
 11
-9.842895
 21
-70.209613
  0
LINE
  8
別途部材
  6
CONTINUOUS
 10
-11.842895
 20
-61.87628
 11
-11.842895
 21
-70.209613
  0
LINE
  8
別途部材
  6
CONTINUOUS
 10
-10.842895
 20
-61.87628
 11
-10.842895
 21
-70.209613
  0
LINE
  8
別途部材
  6
CONTINUOUS
 10
-7.842895
 20
-61.87628
 11
-7.842895
 21
-70.209613
  0
LINE
  8
別途部材
  6
CONTINUOUS
 10
-12.842895
 20
-60.87628
 11
-12.842895
 21
-70.209613
  0
LINE
  8
別途部材
  6
CONTINUOUS
 10
-14.842895
 20
-61.87628
 11
-14.842895
 21
-70.209613
  0
LINE
  8
別途部材
  6
CONTINUOUS
 10
-13.842895
 20
-60.87628
 11
-13.842895
 21
-70.209613
  0
LINE
  8
別途部材
  6
CONTINUOUS
 10
-15.842895
 20
-61.87628
 11
-15.842895
 21
-70.209613
  0
LINE
  8
別途部材
  6
CONTINUOUS
 10
-16.842895
 20
-60.87628
 11
-16.842895
 21
-70.209613
  0
LINE
  8
別途部材
  6
CONTINUOUS
 10
-18.842895
 20
-61.87628
 11
-18.842895
 21
-70.209613
  0
LINE
  8
別途部材
  6
CONTINUOUS
 10
-17.842895
 20
-60.87628
 11
-17.842895
 21
-70.209613
  0
LINE
  8
別途部材
  6
CONTINUOUS
 10
-19.842895
 20
-61.87628
 11
-19.842895
 21
-70.209613
  0
LINE
  8
別途部材
  6
CONTINUOUS
 10
-20.842895
 20
-60.87628
 11
-20.842895
 21
-70.209613
  0
LINE
  8
別途部材
  6
CONTINUOUS
 10
-22.842895
 20
-61.87628
 11
-22.842895
 21
-70.209613
  0
LINE
  8
別途部材
  6
CONTINUOUS
 10
-21.842895
 20
-60.87628
 11
-21.842895
 21
-70.209613
  0
LINE
  8
別途部材
  6
CONTINUOUS
 10
-23.842895
 20
-61.87628
 11
-23.842895
 21
-70.209613
  0
LINE
  8
別途部材
  6
CONTINUOUS
 10
-24.842895
 20
-60.87628
 11
-24.842895
 21
-70.209613
  0
ARC
  8
別途部材
  6
CONTINUOUS
 10
42.990437
 20
-79.542947
 40
17.666667
 50
31.890796
 51
86.213556
  0
ENDBLK
  0
BLOCK
  2
*GRP_0009
 70
    65
 10
0.0
 20
0.0
  0
LINE
  8
補助線
  6
BYBLOCK
 62
    64
 10
-88.612488
 20
-75.19057
 11
-88.739973
 21
-75.29793
  0
LINE
  8
補助線
  6
BYBLOCK
 62
    64
 10
-88.72991
 20
-75.180505
 11
-88.62255
 21
-75.307992
  0
LINE
  8
補助線
  6
BYBLOCK
 62
    64
 10
-80.12207
 20
-68.040547
 11
-80.249555
 21
-68.147902
  0
LINE
  8
補助線
  6
BYBLOCK
 62
    64
 10
-80.239492
 20
-68.030483
 11
-80.132132
 21
-68.157965
  0
LINE
  8
補助線
  6
BYBLOCK
 62
    64
 10
-71.759135
 20
-60.997877
 11
-71.631653
 21
-60.89052
  0
LINE
  8
補助線
  6
BYBLOCK
 62
    64
 10
-71.749075
 20
-60.880455
 11
-71.641715
 21
-61.007942
  0
LINE
  8
型材断面
  6
CONTINUOUS
 10
-89.467985
 20
-74.821547
 11
-89.528363
 21
-75.526073
  0
LINE
  8
型材断面
  6
CONTINUOUS
 10
-89.528363
 20
-75.526073
 11
-89.09893
 21
-76.036007
  0
LINE
  8
型材断面
  6
CONTINUOUS
 10
-89.09893
 20
-76.036007
 11
-88.394405
 21
-76.096385
  0
LINE
  8
型材断面
  6
CONTINUOUS
 10
-71.977218
 20
-60.092068
 11
-71.272692
 21
-60.152445
  0
LINE
  8
型材断面
  6
CONTINUOUS
 10
-71.272692
 20
-60.152445
 11
-70.84326
 21
-60.66238
  0
LINE
  8
型材断面
  6
CONTINUOUS
 10
-70.84326
 20
-60.66238
 11
-70.903637
 21
-61.366905
  0
LINE
  8
型材断面
  6
CONTINUOUS
 10
-89.467985
 20
-74.821547
 11
-71.977218
 21
-60.092068
  0
LINE
  8
型材断面
  6
CONTINUOUS
 10
-88.394405
 20
-76.096385
 11
-70.903637
 21
-61.366905
  0
CIRCLE
  8
ボルト／ビス
  6
CONTINUOUS
 10
-88.67623
 20
-75.24425
 40
0.250185
  0
CIRCLE
  8
ボルト／ビス
  6
CONTINUOUS
 10
-88.67623
 20
-75.24425
 40
0.301025
  0
LINE
  8
ボルト／ビス
  6
CONTINUOUS
 62
    64
 10
-88.922538
 20
-75.288133
 11
-88.837385
 21
-75.052885
  0
LINE
  8
ボルト／ビス
  6
CONTINUOUS
 62
    64
 10
-88.591078
 20
-75.009
 11
-88.837385
 21
-75.052885
  0
LINE
  8
ボルト／ビス
  6
CONTINUOUS
 62
    64
 10
-88.761383
 20
-75.4795
 11
-88.515075
 21
-75.435615
  0
LINE
  8
ボルト／ビス
  6
CONTINUOUS
 62
    64
 10
-88.429922
 20
-75.200367
 11
-88.515075
 21
-75.435615
  0
LINE
  8
ボルト／ビス
  6
CONTINUOUS
 62
    64
 10
-88.922538
 20
-75.288133
 11
-88.761383
 21
-75.4795
  0
LINE
  8
ボルト／ビス
  6
CONTINUOUS
 62
    64
 10
-88.591078
 20
-75.009
 11
-88.429922
 21
-75.200367
  0
CIRCLE
  8
ボルト／ビス
  6
CONTINUOUS
 62
    64
 10
-88.67623
 20
-75.24425
 40
0.216668
  0
CIRCLE
  8
ボルト／ビス
  6
CONTINUOUS
 10
-80.185812
 20
-68.094225
 40
0.250185
  0
CIRCLE
  8
ボルト／ビス
  6
CONTINUOUS
 10
-80.185812
 20
-68.094225
 40
0.301025
  0
LINE
  8
ボルト／ビス
  6
CONTINUOUS
 62
    64
 10
-80.43212
 20
-68.138108
 11
-80.346968
 21
-67.902858
  0
LINE
  8
ボルト／ビス
  6
CONTINUOUS
 62
    64
 10
-80.10066
 20
-67.858975
 11
-80.346968
 21
-67.902858
  0
LINE
  8
ボルト／ビス
  6
CONTINUOUS
 62
    64
 10
-80.270965
 20
-68.329475
 11
-80.024655
 21
-68.285592
  0
LINE
  8
ボルト／ビス
  6
CONTINUOUS
 62
    64
 10
-79.939505
 20
-68.050345
 11
-80.024655
 21
-68.285592
  0
LINE
  8
ボルト／ビス
  6
CONTINUOUS
 62
    64
 10
-80.43212
 20
-68.138108
 11
-80.270965
 21
-68.329475
  0
LINE
  8
ボルト／ビス
  6
CONTINUOUS
 62
    64
 10
-80.10066
 20
-67.858975
 11
-79.939505
 21
-68.050345
  0
CIRCLE
  8
ボルト／ビス
  6
CONTINUOUS
 62
    64
 10
-80.185812
 20
-68.094225
 40
0.216668
  0
CIRCLE
  8
ボルト／ビス
  6
CONTINUOUS
 10
-71.695392
 20
-60.9442
 40
0.250185
  0
CIRCLE
  8
ボルト／ビス
  6
CONTINUOUS
 10
-71.695392
 20
-60.9442
 40
0.301025
  0
LINE
  8
ボルト／ビス
  6
CONTINUOUS
 62
    64
 10
-71.61024
 20
-60.70895
 11
-71.85655
 21
-60.752835
  0
LINE
  8
ボルト／ビス
  6
CONTINUOUS
 62
    64
 10
-71.941702
 20
-60.988083
 11
-71.85655
 21
-60.752835
  0
LINE
  8
ボルト／ビス
  6
CONTINUOUS
 62
    64
 10
-71.449088
 20
-60.900317
 11
-71.534238
 21
-61.135565
  0
LINE
  8
ボルト／ビス
  6
CONTINUOUS
 62
    64
 10
-71.780548
 20
-61.17945
 11
-71.534238
 21
-61.135565
  0
LINE
  8
ボルト／ビス
  6
CONTINUOUS
 62
    64
 10
-71.61024
 20
-60.70895
 11
-71.449088
 21
-60.900317
  0
LINE
  8
ボルト／ビス
  6
CONTINUOUS
 62
    64
 10
-71.941702
 20
-60.988083
 11
-71.780548
 21
-61.17945
  0
CIRCLE
  8
ボルト／ビス
  6
CONTINUOUS
 62
    64
 10
-71.695392
 20
-60.9442
 40
0.216668
  0
ENDBLK
  0
BLOCK
  2
*GRP_0010
 70
    65
 10
0.0
 20
0.0
  0
LINE
  8
補助線
  6
BYBLOCK
 62
    64
 10
-71.759137
 20
-75.19057
 11
-71.631653
 21
-75.29793
  0
LINE
  8
補助線
  6
BYBLOCK
 62
    64
 10
-71.641715
 20
-75.180505
 11
-71.749075
 21
-75.307992
  0
LINE
  8
補助線
  6
BYBLOCK
 62
    64
 10
-80.249555
 20
-68.040547
 11
-80.12207
 21
-68.147902
  0
LINE
  8
補助線
  6
BYBLOCK
 62
    64
 10
-80.132132
 20
-68.030483
 11
-80.239492
 21
-68.157965
  0
LINE
  8
補助線
  6
BYBLOCK
 62
    64
 10
-88.61249
 20
-60.997877
 11
-88.739973
 21
-60.89052
  0
LINE
  8
補助線
  6
BYBLOCK
 62
    64
 10
-88.62255
 20
-60.880455
 11
-88.72991
 21
-61.007942
  0
LINE
  8
型材断面
  6
CONTINUOUS
 10
-70.90364
 20
-74.821547
 11
-70.843263
 21
-75.526073
  0
LINE
  8
型材断面
  6
CONTINUOUS
 10
-70.843263
 20
-75.526073
 11
-71.272695
 21
-76.036007
  0
LINE
  8
型材断面
  6
CONTINUOUS
 10
-71.272695
 20
-76.036007
 11
-71.97722
 21
-76.096385
  0
LINE
  8
型材断面
  6
CONTINUOUS
 10
-88.394408
 20
-60.092068
 11
-89.098932
 21
-60.152445
  0
LINE
  8
型材断面
  6
CONTINUOUS
 10
-89.098932
 20
-60.152445
 11
-89.528365
 21
-60.66238
  0
LINE
  8
型材断面
  6
CONTINUOUS
 10
-89.528365
 20
-60.66238
 11
-89.467987
 21
-61.366905
  0
LINE
  8
型材断面
  6
CONTINUOUS
 10
-70.90364
 20
-74.821547
 11
-88.394408
 21
-60.092068
  0
LINE
  8
型材断面
  6
CONTINUOUS
 10
-71.97722
 20
-76.096385
 11
-89.467987
 21
-61.366905
  0
CIRCLE
  8
ボルト／ビス
  6
CONTINUOUS
 10
-71.695395
 20
-75.24425
 40
0.250185
  0
CIRCLE
  8
ボルト／ビス
  6
CONTINUOUS
 10
-71.695395
 20
-75.24425
 40
0.301025
  0
LINE
  8
ボルト／ビス
  6
CONTINUOUS
 62
    64
 10
-71.449088
 20
-75.288133
 11
-71.53424
 21
-75.052885
  0
LINE
  8
ボルト／ビス
  6
CONTINUOUS
 62
    64
 10
-71.780548
 20
-75.009
 11
-71.53424
 21
-75.052885
  0
LINE
  8
ボルト／ビス
  6
CONTINUOUS
 62
    64
 10
-71.610242
 20
-75.4795
 11
-71.85655
 21
-75.435615
  0
LINE
  8
ボルト／ビス
  6
CONTINUOUS
 62
    64
 10
-71.941702
 20
-75.200367
 11
-71.85655
 21
-75.435615
  0
LINE
  8
ボルト／ビス
  6
CONTINUOUS
 62
    64
 10
-71.449088
 20
-75.288133
 11
-71.610242
 21
-75.4795
  0
LINE
  8
ボルト／ビス
  6
CONTINUOUS
 62
    64
 10
-71.780548
 20
-75.009
 11
-71.941702
 21
-75.200367
  0
CIRCLE
  8
ボルト／ビス
  6
CONTINUOUS
 62
    64
 10
-71.695395
 20
-75.24425
 40
0.216668
  0
CIRCLE
  8
ボルト／ビス
  6
CONTINUOUS
 10
-80.185812
 20
-68.094225
 40
0.250185
  0
CIRCLE
  8
ボルト／ビス
  6
CONTINUOUS
 10
-80.185812
 20
-68.094225
 40
0.301025
  0
LINE
  8
ボルト／ビス
  6
CONTINUOUS
 62
    64
 10
-79.939505
 20
-68.138108
 11
-80.024658
 21
-67.902858
  0
LINE
  8
ボルト／ビス
  6
CONTINUOUS
 62
    64
 10
-80.270965
 20
-67.858975
 11
-80.024658
 21
-67.902858
  0
LINE
  8
ボルト／ビス
  6
CONTINUOUS
 62
    64
 10
-80.10066
 20
-68.329475
 11
-80.34697
 21
-68.285592
  0
LINE
  8
ボルト／ビス
  6
CONTINUOUS
 62
    64
 10
-80.43212
 20
-68.050345
 11
-80.34697
 21
-68.285592
  0
LINE
  8
ボルト／ビス
  6
CONTINUOUS
 62
    64
 10
-79.939505
 20
-68.138108
 11
-80.10066
 21
-68.329475
  0
LINE
  8
ボルト／ビス
  6
CONTINUOUS
 62
    64
 10
-80.270965
 20
-67.858975
 11
-80.43212
 21
-68.050345
  0
CIRCLE
  8
ボルト／ビス
  6
CONTINUOUS
 62
    64
 10
-80.185812
 20
-68.094225
 40
0.216668
  0
CIRCLE
  8
ボルト／ビス
  6
CONTINUOUS
 10
-88.676232
 20
-60.9442
 40
0.250185
  0
CIRCLE
  8
ボルト／ビス
  6
CONTINUOUS
 10
-88.676232
 20
-60.9442
 40
0.301025
  0
LINE
  8
ボルト／ビス
  6
CONTINUOUS
 62
    64
 10
-88.761385
 20
-60.70895
 11
-88.515075
 21
-60.752835
  0
LINE
  8
ボルト／ビス
  6
CONTINUOUS
 62
    64
 10
-88.429922
 20
-60.988083
 11
-88.515075
 21
-60.752835
  0
LINE
  8
ボルト／ビス
  6
CONTINUOUS
 62
    64
 10
-88.922538
 20
-60.900317
 11
-88.837388
 21
-61.135565
  0
LINE
  8
ボルト／ビス
  6
CONTINUOUS
 62
    64
 10
-88.591078
 20
-61.17945
 11
-88.837388
 21
-61.135565
  0
LINE
  8
ボルト／ビス
  6
CONTINUOUS
 62
    64
 10
-88.761385
 20
-60.70895
 11
-88.922538
 21
-60.900317
  0
LINE
  8
ボルト／ビス
  6
CONTINUOUS
 62
    64
 10
-88.429922
 20
-60.988083
 11
-88.591078
 21
-61.17945
  0
CIRCLE
  8
ボルト／ビス
  6
CONTINUOUS
 62
    64
 10
-88.676232
 20
-60.9442
 40
0.216668
  0
ENDBLK
  0
BLOCK
  2
*GRP_0011
 70
    65
 10
0.0
 20
0.0
  0
LINE
  8
補助線
  6
BYBLOCK
 62
    64
 10
37.926698
 20
-75.19057
 11
38.054183
 21
-75.29793
  0
LINE
  8
補助線
  6
BYBLOCK
 62
    64
 10
38.04412
 20
-75.180505
 11
37.93676
 21
-75.307992
  0
LINE
  8
補助線
  6
BYBLOCK
 62
    64
 10
29.43628
 20
-68.040547
 11
29.563765
 21
-68.147902
  0
LINE
  8
補助線
  6
BYBLOCK
 62
    64
 10
29.553702
 20
-68.030483
 11
29.446342
 21
-68.157965
  0
LINE
  8
補助線
  6
BYBLOCK
 62
    64
 10
21.073345
 20
-60.997877
 11
20.945862
 21
-60.89052
  0
LINE
  8
補助線
  6
BYBLOCK
 62
    64
 10
21.063285
 20
-60.880455
 11
20.955925
 21
-61.007942
  0
LINE
  8
型材断面
  6
CONTINUOUS
 10
38.782195
 20
-74.821547
 11
38.842572
 21
-75.526073
  0
LINE
  8
型材断面
  6
CONTINUOUS
 10
38.842572
 20
-75.526073
 11
38.41314
 21
-76.036007
  0
LINE
  8
型材断面
  6
CONTINUOUS
 10
38.41314
 20
-76.036007
 11
37.708615
 21
-76.096385
  0
LINE
  8
型材断面
  6
CONTINUOUS
 10
21.291427
 20
-60.092068
 11
20.586902
 21
-60.152445
  0
LINE
  8
型材断面
  6
CONTINUOUS
 10
20.586902
 20
-60.152445
 11
20.15747
 21
-60.66238
  0
LINE
  8
型材断面
  6
CONTINUOUS
 10
20.15747
 20
-60.66238
 11
20.217848
 21
-61.366905
  0
LINE
  8
型材断面
  6
CONTINUOUS
 10
38.782195
 20
-74.821547
 11
21.291427
 21
-60.092068
  0
LINE
  8
型材断面
  6
CONTINUOUS
 10
37.708615
 20
-76.096385
 11
20.217848
 21
-61.366905
  0
CIRCLE
  8
ボルト／ビス
  6
CONTINUOUS
 10
37.99044
 20
-75.24425
 40
0.250185
  0
CIRCLE
  8
ボルト／ビス
  6
CONTINUOUS
 10
37.99044
 20
-75.24425
 40
0.301025
  0
LINE
  8
ボルト／ビス
  6
CONTINUOUS
 62
    64
 10
38.236747
 20
-75.288133
 11
38.151595
 21
-75.052885
  0
LINE
  8
ボルト／ビス
  6
CONTINUOUS
 62
    64
 10
37.905287
 20
-75.009
 11
38.151595
 21
-75.052885
  0
LINE
  8
ボルト／ビス
  6
CONTINUOUS
 62
    64
 10
38.075592
 20
-75.4795
 11
37.829285
 21
-75.435615
  0
LINE
  8
ボルト／ビス
  6
CONTINUOUS
 62
    64
 10
37.744132
 20
-75.200367
 11
37.829285
 21
-75.435615
  0
LINE
  8
ボルト／ビス
  6
CONTINUOUS
 62
    64
 10
38.236747
 20
-75.288133
 11
38.075592
 21
-75.4795
  0
LINE
  8
ボルト／ビス
  6
CONTINUOUS
 62
    64
 10
37.905287
 20
-75.009
 11
37.744132
 21
-75.200367
  0
CIRCLE
  8
ボルト／ビス
  6
CONTINUOUS
 62
    64
 10
37.99044
 20
-75.24425
 40
0.216668
  0
CIRCLE
  8
ボルト／ビス
  6
CONTINUOUS
 10
29.500022
 20
-68.094225
 40
0.250185
  0
CIRCLE
  8
ボルト／ビス
  6
CONTINUOUS
 10
29.500022
 20
-68.094225
 40
0.301025
  0
LINE
  8
ボルト／ビス
  6
CONTINUOUS
 62
    64
 10
29.74633
 20
-68.138108
 11
29.661177
 21
-67.902858
  0
LINE
  8
ボルト／ビス
  6
CONTINUOUS
 62
    64
 10
29.41487
 20
-67.858975
 11
29.661177
 21
-67.902858
  0
LINE
  8
ボルト／ビス
  6
CONTINUOUS
 62
    64
 10
29.585175
 20
-68.329475
 11
29.338865
 21
-68.285592
  0
LINE
  8
ボルト／ビス
  6
CONTINUOUS
 62
    64
 10
29.253715
 20
-68.050345
 11
29.338865
 21
-68.285592
  0
LINE
  8
ボルト／ビス
  6
CONTINUOUS
 62
    64
 10
29.74633
 20
-68.138108
 11
29.585175
 21
-68.329475
  0
LINE
  8
ボルト／ビス
  6
CONTINUOUS
 62
    64
 10
29.41487
 20
-67.858975
 11
29.253715
 21
-68.050345
  0
CIRCLE
  8
ボルト／ビス
  6
CONTINUOUS
 62
    64
 10
29.500022
 20
-68.094225
 40
0.216668
  0
CIRCLE
  8
ボルト／ビス
  6
CONTINUOUS
 10
21.009603
 20
-60.9442
 40
0.250185
  0
CIRCLE
  8
ボルト／ビス
  6
CONTINUOUS
 10
21.009603
 20
-60.9442
 40
0.301025
  0
LINE
  8
ボルト／ビス
  6
CONTINUOUS
 62
    64
 10
20.92445
 20
-60.70895
 11
21.17076
 21
-60.752835
  0
LINE
  8
ボルト／ビス
  6
CONTINUOUS
 62
    64
 10
21.255912
 20
-60.988083
 11
21.17076
 21
-60.752835
  0
LINE
  8
ボルト／ビス
  6
CONTINUOUS
 62
    64
 10
20.763298
 20
-60.900317
 11
20.848447
 21
-61.135565
  0
LINE
  8
ボルト／ビス
  6
CONTINUOUS
 62
    64
 10
21.094758
 20
-61.17945
 11
20.848447
 21
-61.135565
  0
LINE
  8
ボルト／ビス
  6
CONTINUOUS
 62
    64
 10
20.92445
 20
-60.70895
 11
20.763298
 21
-60.900317
  0
LINE
  8
ボルト／ビス
  6
CONTINUOUS
 62
    64
 10
21.255912
 20
-60.988083
 11
21.094758
 21
-61.17945
  0
CIRCLE
  8
ボルト／ビス
  6
CONTINUOUS
 62
    64
 10
21.009603
 20
-60.9442
 40
0.216668
  0
ENDBLK
  0
BLOCK
  2
*GRP_0012
 70
    65
 10
0.0
 20
0.0
  0
LINE
  8
補助線
  6
BYBLOCK
 62
    64
 10
21.073348
 20
-75.19057
 11
20.945862
 21
-75.29793
  0
LINE
  8
補助線
  6
BYBLOCK
 62
    64
 10
20.955925
 20
-75.180505
 11
21.063285
 21
-75.307992
  0
LINE
  8
補助線
  6
BYBLOCK
 62
    64
 10
29.563765
 20
-68.040547
 11
29.43628
 21
-68.147902
  0
LINE
  8
補助線
  6
BYBLOCK
 62
    64
 10
29.446342
 20
-68.030483
 11
29.553702
 21
-68.157965
  0
LINE
  8
補助線
  6
BYBLOCK
 62
    64
 10
37.9267
 20
-60.997877
 11
38.054183
 21
-60.89052
  0
LINE
  8
補助線
  6
BYBLOCK
 62
    64
 10
37.93676
 20
-60.880455
 11
38.04412
 21
-61.007942
  0
LINE
  8
型材断面
  6
CONTINUOUS
 10
20.21785
 20
-74.821547
 11
20.157473
 21
-75.526073
  0
LINE
  8
型材断面
  6
CONTINUOUS
 10
20.157473
 20
-75.526073
 11
20.586905
 21
-76.036007
  0
LINE
  8
型材断面
  6
CONTINUOUS
 10
20.586905
 20
-76.036007
 11
21.29143
 21
-76.096385
  0
LINE
  8
型材断面
  6
CONTINUOUS
 10
37.708618
 20
-60.092068
 11
38.413142
 21
-60.152445
  0
LINE
  8
型材断面
  6
CONTINUOUS
 10
38.413142
 20
-60.152445
 11
38.842575
 21
-60.66238
  0
LINE
  8
型材断面
  6
CONTINUOUS
 10
38.842575
 20
-60.66238
 11
38.782198
 21
-61.366905
  0
LINE
  8
型材断面
  6
CONTINUOUS
 10
20.21785
 20
-74.821547
 11
37.708618
 21
-60.092068
  0
LINE
  8
型材断面
  6
CONTINUOUS
 10
21.29143
 20
-76.096385
 11
38.782198
 21
-61.366905
  0
CIRCLE
  8
ボルト／ビス
  6
CONTINUOUS
 10
21.009605
 20
-75.24425
 40
0.250185
  0
CIRCLE
  8
ボルト／ビス
  6
CONTINUOUS
 10
21.009605
 20
-75.24425
 40
0.301025
  0
LINE
  8
ボルト／ビス
  6
CONTINUOUS
 62
    64
 10
20.763298
 20
-75.288133
 11
20.84845
 21
-75.052885
  0
LINE
  8
ボルト／ビス
  6
CONTINUOUS
 62
    64
 10
21.094758
 20
-75.009
 11
20.84845
 21
-75.052885
  0
LINE
  8
ボルト／ビス
  6
CONTINUOUS
 62
    64
 10
20.924453
 20
-75.4795
 11
21.17076
 21
-75.435615
  0
LINE
  8
ボルト／ビス
  6
CONTINUOUS
 62
    64
 10
21.255912
 20
-75.200367
 11
21.17076
 21
-75.435615
  0
LINE
  8
ボルト／ビス
  6
CONTINUOUS
 62
    64
 10
20.763298
 20
-75.288133
 11
20.924453
 21
-75.4795
  0
LINE
  8
ボルト／ビス
  6
CONTINUOUS
 62
    64
 10
21.094758
 20
-75.009
 11
21.255912
 21
-75.200367
  0
CIRCLE
  8
ボルト／ビス
  6
CONTINUOUS
 62
    64
 10
21.009605
 20
-75.24425
 40
0.216668
  0
CIRCLE
  8
ボルト／ビス
  6
CONTINUOUS
 10
29.500022
 20
-68.094225
 40
0.250185
  0
CIRCLE
  8
ボルト／ビス
  6
CONTINUOUS
 10
29.500022
 20
-68.094225
 40
0.301025
  0
LINE
  8
ボルト／ビス
  6
CONTINUOUS
 62
    64
 10
29.253715
 20
-68.138108
 11
29.338868
 21
-67.902858
  0
LINE
  8
ボルト／ビス
  6
CONTINUOUS
 62
    64
 10
29.585175
 20
-67.858975
 11
29.338868
 21
-67.902858
  0
LINE
  8
ボルト／ビス
  6
CONTINUOUS
 62
    64
 10
29.41487
 20
-68.329475
 11
29.66118
 21
-68.285592
  0
LINE
  8
ボルト／ビス
  6
CONTINUOUS
 62
    64
 10
29.74633
 20
-68.050345
 11
29.66118
 21
-68.285592
  0
LINE
  8
ボルト／ビス
  6
CONTINUOUS
 62
    64
 10
29.253715
 20
-68.138108
 11
29.41487
 21
-68.329475
  0
LINE
  8
ボルト／ビス
  6
CONTINUOUS
 62
    64
 10
29.585175
 20
-67.858975
 11
29.74633
 21
-68.050345
  0
CIRCLE
  8
ボルト／ビス
  6
CONTINUOUS
 62
    64
 10
29.500022
 20
-68.094225
 40
0.216668
  0
CIRCLE
  8
ボルト／ビス
  6
CONTINUOUS
 10
37.990443
 20
-60.9442
 40
0.250185
  0
CIRCLE
  8
ボルト／ビス
  6
CONTINUOUS
 10
37.990443
 20
-60.9442
 40
0.301025
  0
LINE
  8
ボルト／ビス
  6
CONTINUOUS
 62
    64
 10
38.075595
 20
-60.70895
 11
37.829285
 21
-60.752835
  0
LINE
  8
ボルト／ビス
  6
CONTINUOUS
 62
    64
 10
37.744132
 20
-60.988083
 11
37.829285
 21
-60.752835
  0
LINE
  8
ボルト／ビス
  6
CONTINUOUS
 62
    64
 10
38.236747
 20
-60.900317
 11
38.151598
 21
-61.135565
  0
LINE
  8
ボルト／ビス
  6
CONTINUOUS
 62
    64
 10
37.905287
 20
-61.17945
 11
38.151598
 21
-61.135565
  0
LINE
  8
ボルト／ビス
  6
CONTINUOUS
 62
    64
 10
38.075595
 20
-60.70895
 11
38.236747
 21
-60.900317
  0
LINE
  8
ボルト／ビス
  6
CONTINUOUS
 62
    64
 10
37.744132
 20
-60.988083
 11
37.905287
 21
-61.17945
  0
CIRCLE
  8
ボルト／ビス
  6
CONTINUOUS
 62
    64
 10
37.990443
 20
-60.9442
 40
0.216668
  0
ENDBLK
  0
BLOCK
  2
*DIM_0013
 70
    65
 10
0.0
 20
0.0
  0
LINE
  8
寸法
  6
BYBLOCK
 62
     0
 10
-111.676228
 20
47.814033
 11
-124.969065
 21
47.814033
  0
LINE
  8
寸法
  6
BYBLOCK
 62
     0
 10
-111.676228
 20
27.814033
 11
-124.969065
 21
27.814033
  0
LINE
  8
寸法
  6
BYBLOCK
 62
     0
 10
-124.969065
 20
47.814033
 11
-124.969065
 21
27.814033
  0
POINT
  8
寸法
 62
     0
 10
-124.969065
 20
47.814033
  0
POINT
  8
寸法
 62
     0
 10
-124.969065
 20
27.814033
  0
TEXT
  7
TextStyle03
  8
寸法
  6
CONTINUOUS
 62
     0
 10
-125.325
 20
35.3625
  1
600
 40
3.0
 50
90.0
 72
     5
 11
-125.325
 21
40.2375
  0
ENDBLK
  0
BLOCK
  2
*DIM_0014
 70
    65
 10
0.0
 20
0.0
  0
LINE
  8
寸法
  6
BYBLOCK
 62
     0
 10
-100.342893
 20
55.814033
 11
-100.342893
 21
84.922105
  0
LINE
  8
寸法
  6
BYBLOCK
 62
     0
 10
-75.342893
 20
55.814033
 11
-75.342893
 21
84.922105
  0
LINE
  8
寸法
  6
BYBLOCK
 62
     0
 10
-100.342893
 20
84.922105
 11
-75.342893
 21
84.922105
  0
POINT
  8
寸法
 62
     0
 10
-100.342893
 20
84.922105
  0
POINT
  8
寸法
 62
     0
 10
-75.342893
 20
84.922105
  0
TEXT
  7
TextStyle03
  8
寸法
  6
CONTINUOUS
 62
     0
 10
-90.3125
 20
85.3
  1
750
 40
3.0
 72
     5
 11
-85.4375
 21
85.3
  0
ENDBLK
  0
BLOCK
  2
*DIM_0015
 70
    65
 10
0.0
 20
0.0
  0
LINE
  8
寸法
  6
BYBLOCK
 62
     0
 10
-50.342893
 20
55.814033
 11
-50.342893
 21
84.922105
  0
LINE
  8
寸法
  6
BYBLOCK
 62
     0
 10
-75.342893
 20
84.922105
 11
-50.342893
 21
84.922105
  0
POINT
  8
寸法
 62
     0
 10
-50.342893
 20
84.922105
  0
TEXT
  7
TextStyle03
  8
寸法
  6
CONTINUOUS
 62
     0
 10
-65.3125
 20
85.3
  1
750
 40
3.0
 72
     5
 11
-60.4375
 21
85.3
  0
ENDBLK
  0
BLOCK
  2
*DIM_0016
 70
    65
 10
0.0
 20
0.0
  0
LINE
  8
寸法
  6
BYBLOCK
 62
     0
 10
-25.342893
 20
55.814033
 11
-25.342893
 21
84.922105
  0
LINE
  8
寸法
  6
BYBLOCK
 62
     0
 10
-50.342893
 20
84.922105
 11
-25.342893
 21
84.922105
  0
POINT
  8
寸法
 62
     0
 10
-25.342893
 20
84.922105
  0
TEXT
  7
TextStyle03
  8
寸法
  6
CONTINUOUS
 62
     0
 10
-40.3125
 20
85.3
  1
750
 40
3.0
 72
     5
 11
-35.4375
 21
85.3
  0
ENDBLK
  0
BLOCK
  2
*DIM_0017
 70
    65
 10
0.0
 20
0.0
  0
LINE
  8
寸法
  6
BYBLOCK
 62
     0
 10
-0.342893
 20
55.814033
 11
-0.342893
 21
84.922105
  0
LINE
  8
寸法
  6
BYBLOCK
 62
     0
 10
-25.342893
 20
84.922105
 11
-0.342893
 21
84.922105
  0
POINT
  8
寸法
 62
     0
 10
-0.342893
 20
84.922105
  0
TEXT
  7
TextStyle03
  8
寸法
  6
CONTINUOUS
 62
     0
 10
-15.3125
 20
85.3
  1
750
 40
3.0
 72
     5
 11
-10.4375
 21
85.3
  0
ENDBLK
  0
BLOCK
  2
*DIM_0018
 70
    65
 10
0.0
 20
0.0
  0
LINE
  8
寸法
  6
BYBLOCK
 62
     0
 10
24.657107
 20
55.814033
 11
24.657107
 21
84.922105
  0
LINE
  8
寸法
  6
BYBLOCK
 62
     0
 10
-0.342893
 20
84.922105
 11
24.657107
 21
84.922105
  0
POINT
  8
寸法
 62
     0
 10
24.657107
 20
84.922105
  0
TEXT
  7
TextStyle03
  8
寸法
  6
CONTINUOUS
 62
     0
 10
9.6875
 20
85.3
  1
750
 40
3.0
 72
     5
 11
14.5625
 21
85.3
  0
ENDBLK
  0
BLOCK
  2
*DIM_0019
 70
    65
 10
0.0
 20
0.0
  0
LINE
  8
寸法
  6
BYBLOCK
 62
     0
 10
49.657107
 20
55.814033
 11
49.657107
 21
84.922105
  0
LINE
  8
寸法
  6
BYBLOCK
 62
     0
 10
24.657107
 20
84.922105
 11
49.657107
 21
84.922105
  0
POINT
  8
寸法
 62
     0
 10
49.657107
 20
84.922105
  0
TEXT
  7
TextStyle03
  8
寸法
  6
CONTINUOUS
 62
     0
 10
34.6875
 20
85.3
  1
750
 40
3.0
 72
     5
 11
39.5625
 21
85.3
  0
ENDBLK
  0
BLOCK
  2
*DIM_0020
 70
    65
 10
0.0
 20
0.0
  0
LINE
  8
寸法
  6
BYBLOCK
 62
     0
 10
139.19037
 20
38.814033
 11
139.19037
 21
68.369967
  0
LINE
  8
寸法
  6
BYBLOCK
 62
     0
 10
147.523703
 20
68.369967
 11
139.19037
 21
68.369967
  0
POINT
  8
寸法
 62
     0
 10
147.523703
 20
68.369967
  0
POINT
  8
寸法
 62
     0
 10
139.19037
 20
68.369967
  0
TEXT
  7
TextStyle03
  8
寸法
  6
CONTINUOUS
 62
     0
 10
140.8875
 20
68.725
  1
250
 40
3.0
 72
     5
 11
145.7625
 21
68.725
  0
ENDBLK
  0
BLOCK
  2
*DIM_0021
 70
    65
 10
0.0
 20
0.0
  0
LINE
  8
寸法
  6
BYBLOCK
 62
     0
 10
92.010088
 20
22.814033
 11
92.010088
 21
52.814033
  0
POINT
  8
寸法
 62
     0
 10
92.010088
 20
22.814033
  0
POINT
  8
寸法
 62
     0
 10
92.010088
 20
52.814033
  0
TEXT
  7
TextStyle03
  8
寸法
  6
CONTINUOUS
 62
     0
 10
91.625
 20
26.9
  1
呼称寸法　900
 40
3.0
 50
90.0
 72
     5
 11
91.625
 21
48.65
  0
ENDBLK
  0
BLOCK
  2
*DIM_0022
 70
    65
 10
0.0
 20
0.0
  0
LINE
  8
寸法
  6
CONTINUOUS
 10
92.010088
 20
22.814033
 11
92.010088
 21
20.0507
  0
POINT
  8
寸法
 10
92.010088
 20
22.814033
  0
POINT
  8
寸法
 10
92.010088
 20
20.0507
  0
TEXT
  7
TextStyle03
  8
寸法
  6
CONTINUOUS
 10
91.35
 20
15.76875
  1
82.9
 40
3.0
 50
90.0
 72
     5
 11
91.35
 21
22.33125
  0
ENDBLK
  0
BLOCK
  2
*DIM_0023
 70
    65
 10
0.0
 20
0.0
  0
LINE
  8
寸法
  6
CONTINUOUS
 10
92.010088
 20
52.814033
 11
92.010088
 21
55.577365
  0
POINT
  8
寸法
 10
92.010088
 20
52.814033
  0
POINT
  8
寸法
 10
92.010088
 20
55.577365
  0
TEXT
  7
TextStyle03
  8
寸法
  6
CONTINUOUS
 10
91.075
 20
53.24375
  1
82.9
 40
3.0
 50
90.0
 72
     5
 11
91.075
 21
59.80625
  0
ENDBLK
  0
BLOCK
  2
*DIM_0024
 70
    65
 10
0.0
 20
0.0
  0
LINE
  8
寸法
  6
CONTINUOUS
 10
57.990438
 20
-13.121378
 11
60.75377
 21
-13.121378
  0
POINT
  8
寸法
 10
57.990438
 20
-13.121378
  0
POINT
  8
寸法
 10
60.75377
 20
-13.121378
  0
TEXT
  7
TextStyle03
  8
寸法
  6
CONTINUOUS
 10
58.66875
 20
-12.5
  1
82.9
 40
3.0
 72
     5
 11
65.23125
 21
-12.5
  0
ENDBLK
  0
BLOCK
  2
*DIM_0025
 70
    65
 10
0.0
 20
0.0
  0
LINE
  8
寸法
  6
CONTINUOUS
 10
-108.676228
 20
-13.121378
 11
-111.43956
 21
-13.121378
  0
POINT
  8
寸法
 10
-108.676228
 20
-13.121378
  0
POINT
  8
寸法
 10
-111.43956
 20
-13.121378
  0
TEXT
  7
TextStyle03
  8
寸法
  6
CONTINUOUS
 10
-116.18125
 20
-12.325
  1
82.9
 40
3.0
 72
     5
 11
-109.61875
 21
-12.325
  0
ENDBLK
  0
BLOCK
  2
*DIM_0028
 70
    65
 10
0.0
 20
0.0
  0
LINE
  8
寸法
  6
CONTINUOUS
 10
119.07255
 20
-41.47878
 11
119.07255
 21
-37.11475
  0
LINE
  8
寸法
  6
CONTINUOUS
 10
151.539218
 20
-41.47878
 11
151.539218
 21
-37.11475
  0
LINE
  8
寸法
  6
CONTINUOUS
 10
119.07255
 20
-37.11475
 11
151.539218
 21
-37.11475
  0
POINT
  8
寸法
 10
119.07255
 20
-37.11475
  0
POINT
  8
寸法
 10
151.539218
 20
-37.11475
  0
TEXT
  7
TextStyle03
  8
寸法
  6
CONTINUOUS
 10
132.8625
 20
-36.75
  1
974
 40
3.0
 72
     5
 11
137.7375
 21
-36.75
  0
ENDBLK
  0
BLOCK
  2
*DIM_0029
 70
    65
 10
0.0
 20
0.0
  0
LINE
  8
寸法
  6
CONTINUOUS
 10
156.539218
 20
-46.47878
 11
163.263233
 21
-46.47878
  0
LINE
  8
寸法
  6
CONTINUOUS
 10
156.539218
 20
-76.47878
 11
163.263233
 21
-76.47878
  0
LINE
  8
寸法
  6
CONTINUOUS
 10
163.263233
 20
-46.47878
 11
163.263233
 21
-76.47878
  0
POINT
  8
寸法
 10
163.263233
 20
-46.47878
  0
POINT
  8
寸法
 10
163.263233
 20
-76.47878
  0
TEXT
  7
TextStyle03
  8
寸法
  6
CONTINUOUS
 10
162.875
 20
-63.9375
  1
900
 40
3.0
 50
90.0
 72
     5
 11
162.875
 21
-59.0625
  0
ENDBLK
  0
BLOCK
  2
*DIM_0030
 70
    65
 10
0.0
 20
0.0
  0
LINE
  8
寸法
  6
CONTINUOUS
 10
64.657102
 20
-70.209615
 11
73.960085
 21
-70.209615
  0
LINE
  8
寸法
  6
CONTINUOUS
 10
65.75377
 20
-77.709617
 11
73.960085
 21
-77.709617
  0
LINE
  8
寸法
  6
CONTINUOUS
 10
73.960085
 20
-70.209615
 11
73.960085
 21
-77.709617
  0
POINT
  8
寸法
 10
73.960085
 20
-70.209615
  0
POINT
  8
寸法
 10
73.960085
 20
-77.709617
  0
TEXT
  7
TextStyle03
  8
寸法
  6
CONTINUOUS
 10
73.525
 20
-76.4125
  1
225
 40
3.0
 50
90.0
 72
     5
 11
73.525
 21
-71.5375
  0
ENDBLK
  0
BLOCK
  2
*DIM_0031
 70
    65
 10
0.0
 20
0.0
  0
LINE
  8
寸法
  6
CONTINUOUS
 10
147.523703
 20
59.4807
 11
147.523703
 21
68.369967
  0
LINE
  8
寸法
  6
CONTINUOUS
 10
155.023705
 20
60.577365
 11
155.023705
 21
68.369967
  0
LINE
  8
寸法
  6
CONTINUOUS
 10
147.523703
 20
68.369967
 11
155.023705
 21
68.369967
  0
POINT
  8
寸法
 10
147.523703
 20
68.369967
  0
POINT
  8
寸法
 10
155.023705
 20
68.369967
  0
TEXT
  7
TextStyle03
  8
寸法
  6
CONTINUOUS
 10
148.7875
 20
68.725
  1
225
 40
3.0
 72
     5
 11
153.6625
 21
68.725
  0
ENDBLK
  0
BLOCK
  2
*GRP_0032
 70
    65
 10
0.0
 20
0.0
  0
LINE
  8
型材断面
  6
DOT
 10
-25.342895
 20
-59.593065
 11
-110.036375
 21
-59.593065
  0
LINE
  8
型材断面
  6
DOT
 10
-25.342895
 20
-60.743065
 11
-111.43956
 21
-60.743065
  0
LINE
  8
型材断面
  6
DOT
 10
-25.342895
 20
-61.909732
 11
-111.43956
 21
-61.909732
  0
LINE
  8
型材断面
  6
DOT
 10
-25.342895
 20
-59.593065
 11
59.350585
 21
-59.593065
  0
LINE
  8
型材断面
  6
DOT
 10
-25.342895
 20
-60.743065
 11
60.75377
 21
-60.743065
  0
LINE
  8
型材断面
  6
DOT
 10
-25.342895
 20
-61.909732
 11
60.75377
 21
-61.909732
  0
LINE
  8
別途部材
  6
DOT
 62
    96
 10
-110.342895
 20
-58.542945
 11
-110.742895
 21
-59.542945
  0
LINE
  8
別途部材
  6
DOT
 62
    96
 10
-110.342895
 20
-58.542945
 11
-25.342895
 21
-58.542945
  0
LINE
  8
別途部材
  6
DOT
 10
-110.742895
 20
-59.542945
 11
-25.342895
 21
-59.542945
  0
LINE
  8
別途部材
  6
DOT
 62
    96
 10
59.657105
 20
-58.542945
 11
60.057105
 21
-59.542945
  0
LINE
  8
別途部材
  6
DOT
 62
    96
 10
59.657105
 20
-58.542945
 11
-25.342895
 21
-58.542945
  0
LINE
  8
別途部材
  6
DOT
 10
60.057105
 20
-59.542945
 11
-25.342895
 21
-59.542945
  0
ARC
  8
別途部材
  6
DOT
 10
42.990437
 20
-67.87628
 40
17.666667
 50
31.890796
 51
90.0
  0
LINE
  8
別途部材
  6
DOT
 10
42.990438
 20
-50.209613
 11
-25.342895
 21
-50.209613
  0
LINE
  8
別途部材
  6
DOT
 10
-93.676228
 20
-50.209613
 11
-25.342895
 21
-50.209613
  0
ARC
  8
別途部材
  6
DOT
 10
-93.676227
 20
-67.87628
 40
17.666667
 50
90.0
 51
148.109204
  0
LINE
  8
鉄骨等
  6
DOT
 62
    47
 10
-111.43956
 20
-61.909732
 11
-111.43956
 21
-60.743065
  0
LINE
  8
鉄骨等
  6
DOT
 62
    47
 10
-111.43956
 20
-60.743065
 11
-110.036375
 21
-59.593065
  0
LINE
  8
鉄骨等
  6
DOT
 62
    47
 10
-110.036375
 20
-59.593065
 11
-110.036375
 21
-59.542945
  0
LINE
  8
鉄骨等
  6
DOT
 62
    47
 10
60.75377
 20
-61.909732
 11
60.75377
 21
-60.743065
  0
LINE
  8
鉄骨等
  6
DOT
 62
    47
 10
60.75377
 20
-60.743065
 11
59.350585
 21
-59.593065
  0
LINE
  8
鉄骨等
  6
DOT
 62
    47
 10
59.350585
 20
-59.593065
 11
59.350585
 21
-59.542945
  0
ENDBLK
  0
BLOCK
  2
*GRP_0033
 70
    65
 10
0.0
 20
0.0
  0
LINE
  8
型材断面
  6
DOT
 10
136.907152
 20
37.814033
 11
136.907152
 21
21.453885
  0
LINE
  8
型材断面
  6
DOT
 10
138.057152
 20
37.814033
 11
138.057152
 21
20.0507
  0
LINE
  8
型材断面
  6
DOT
 10
139.22382
 20
37.814033
 11
139.22382
 21
20.0507
  0
LINE
  8
型材断面
  6
DOT
 10
136.907152
 20
37.814033
 11
136.907152
 21
54.17418
  0
LINE
  8
型材断面
  6
DOT
 10
138.057152
 20
37.814033
 11
138.057152
 21
55.577365
  0
LINE
  8
型材断面
  6
DOT
 10
139.22382
 20
37.814033
 11
139.22382
 21
55.577365
  0
LINE
  8
別途部材
  6
DOT
 62
    96
 10
135.857035
 20
21.147365
 11
136.857035
 21
20.747365
  0
LINE
  8
別途部材
  6
DOT
 62
    96
 10
135.857035
 20
21.147365
 11
135.857035
 21
37.814033
  0
LINE
  8
別途部材
  6
DOT
 10
136.857035
 20
20.747365
 11
136.857035
 21
37.814033
  0
LINE
  8
別途部材
  6
DOT
 62
    96
 10
135.857035
 20
54.4807
 11
136.857035
 21
54.8807
  0
LINE
  8
別途部材
  6
DOT
 62
    96
 10
135.857035
 20
54.4807
 11
135.857035
 21
37.814033
  0
LINE
  8
別途部材
  6
DOT
 10
136.857035
 20
54.8807
 11
136.857035
 21
37.814033
  0
ARC
  8
別途部材
  6
DOT
 10
145.190369
 20
37.814033
 40
17.666667
 50
121.890796
 51
238.109204
  0
LINE
  8
鉄骨等
  6
DOT
 62
    47
 10
139.22382
 20
20.0507
 11
138.057152
 21
20.0507
  0
LINE
  8
鉄骨等
  6
DOT
 62
    47
 10
138.057152
 20
20.0507
 11
136.907152
 21
21.453885
  0
LINE
  8
鉄骨等
  6
DOT
 62
    47
 10
136.907152
 20
21.453885
 11
136.857033
 21
21.453885
  0
LINE
  8
鉄骨等
  6
DOT
 62
    47
 10
139.22382
 20
55.577365
 11
138.057152
 21
55.577365
  0
LINE
  8
鉄骨等
  6
DOT
 62
    47
 10
138.057152
 20
55.577365
 11
136.907152
 21
54.17418
  0
LINE
  8
鉄骨等
  6
DOT
 62
    47
 10
136.907152
 20
54.17418
 11
136.857033
 21
54.17418
  0
ENDBLK
  0
BLOCK
  2
*GRP_0034
 70
    65
 10
0.0
 20
0.0
  0
LINE
  8
ボルト／ビス
  6
CONTINUOUS
 10
147.523703
 20
53.4807
 11
147.057037
 21
53.4807
  0
LINE
  8
ボルト／ビス
  6
CONTINUOUS
 10
147.523703
 20
53.114035
 11
147.457037
 21
53.114035
  0
LINE
  8
ボルト／ビス
  6
CONTINUOUS
 10
147.457037
 20
53.114035
 11
147.457037
 21
53.847367
  0
LINE
  8
ボルト／ビス
  6
CONTINUOUS
 10
147.457037
 20
53.847367
 11
147.523703
 21
53.847367
  0
LINE
  8
ボルト／ビス
  6
CONTINUOUS
 10
147.523703
 20
53.114035
 11
147.523703
 21
53.847367
  0
LINE
  8
ボルト／ビス
  6
CONTINUOUS
 10
147.423703
 20
53.1807
 11
147.457037
 21
53.1807
  0
LINE
  8
ボルト／ビス
  6
CONTINUOUS
 10
147.423703
 20
53.1807
 11
147.423703
 21
53.7807
  0
LINE
  8
ボルト／ビス
  6
CONTINUOUS
 10
147.423703
 20
53.7807
 11
147.457037
 21
53.7807
  0
LINE
  8
ボルト／ビス
  6
CONTINUOUS
 62
    64
 10
147.223703
 20
53.320325
 11
147.235377
 21
53.28825
  0
ARC
  8
ボルト／ビス
  6
CONTINUOUS
 62
    64
 10
147.328681
 20
53.336362
 40
0.104978
 50
152.721967
 51
180.0
  0
ARC
  8
ボルト／ビス
  6
CONTINUOUS
 62
    64
 10
147.626105
 20
53.480699
 40
0.402402
 50
166.165002
 51
193.834985
  0
LINE
  8
ボルト／ビス
  6
CONTINUOUS
 62
    64
 10
147.223703
 20
53.641075
 11
147.235377
 21
53.67315
  0
ARC
  8
ボルト／ビス
  6
CONTINUOUS
 62
    64
 10
147.328681
 20
53.625037
 40
0.104978
 50
180.0
 51
207.278033
  0
LINE
  8
ボルト／ビス
  6
CONTINUOUS
 62
    64
 10
147.223703
 20
53.320325
 11
147.223703
 21
53.641075
  0
LINE
  8
ボルト／ビス
  6
CONTINUOUS
 62
    64
 10
147.235377
 20
53.67315
 11
147.357037
 21
53.67315
  0
LINE
  8
ボルト／ビス
  6
CONTINUOUS
 62
    64
 10
147.235377
 20
53.576925
 11
147.357037
 21
53.576925
  0
LINE
  8
ボルト／ビス
  6
CONTINUOUS
 62
    64
 10
147.235377
 20
53.28825
 11
147.357037
 21
53.28825
  0
LINE
  8
ボルト／ビス
  6
CONTINUOUS
 62
    64
 10
147.235377
 20
53.384475
 11
147.357037
 21
53.384475
  0
LINE
  8
ボルト／ビス
  6
CONTINUOUS
 10
147.357037
 20
53.28825
 11
147.357037
 21
53.67315
  0
LINE
  8
ボルト／ビス
  6
CONTINUOUS
 10
147.357037
 20
53.2807
 11
147.423703
 21
53.2807
  0
LINE
  8
ボルト／ビス
  6
CONTINUOUS
 10
147.357037
 20
53.2807
 11
147.357037
 21
53.6807
  0
LINE
  8
ボルト／ビス
  6
CONTINUOUS
 10
147.357037
 20
53.6807
 11
147.423703
 21
53.6807
  0
ENDBLK
  0
BLOCK
  2
*GRP_0035
 70
    65
 10
0.0
 20
0.0
  0
LINE
  8
ボルト／ビス
  6
CONTINUOUS
 10
147.523703
 20
22.147365
 11
147.057037
 21
22.147365
  0
LINE
  8
ボルト／ビス
  6
CONTINUOUS
 10
147.523703
 20
22.51403
 11
147.457037
 21
22.51403
  0
LINE
  8
ボルト／ビス
  6
CONTINUOUS
 10
147.457037
 20
22.51403
 11
147.457037
 21
21.780697
  0
LINE
  8
ボルト／ビス
  6
CONTINUOUS
 10
147.457037
 20
21.780697
 11
147.523703
 21
21.780697
  0
LINE
  8
ボルト／ビス
  6
CONTINUOUS
 10
147.523703
 20
22.51403
 11
147.523703
 21
21.780697
  0
LINE
  8
ボルト／ビス
  6
CONTINUOUS
 10
147.423703
 20
22.447365
 11
147.457037
 21
22.447365
  0
LINE
  8
ボルト／ビス
  6
CONTINUOUS
 10
147.423703
 20
22.447365
 11
147.423703
 21
21.847365
  0
LINE
  8
ボルト／ビス
  6
CONTINUOUS
 10
147.423703
 20
21.847365
 11
147.457037
 21
21.847365
  0
LINE
  8
ボルト／ビス
  6
CONTINUOUS
 62
    64
 10
147.223703
 20
22.30774
 11
147.235377
 21
22.339815
  0
ARC
  8
ボルト／ビス
  6
CONTINUOUS
 62
    64
 10
147.328681
 20
22.291703
 40
0.104978
 50
180.0
 51
207.278033
  0
ARC
  8
ボルト／ビス
  6
CONTINUOUS
 62
    64
 10
147.626105
 20
22.147366
 40
0.402402
 50
166.165015
 51
193.834998
  0
LINE
  8
ボルト／ビス
  6
CONTINUOUS
 62
    64
 10
147.223703
 20
21.98699
 11
147.235377
 21
21.954915
  0
ARC
  8
ボルト／ビス
  6
CONTINUOUS
 62
    64
 10
147.328681
 20
22.003028
 40
0.104978
 50
152.721967
 51
180.0
  0
LINE
  8
ボルト／ビス
  6
CONTINUOUS
 62
    64
 10
147.223703
 20
22.30774
 11
147.223703
 21
21.98699
  0
LINE
  8
ボルト／ビス
  6
CONTINUOUS
 62
    64
 10
147.235377
 20
21.954915
 11
147.357037
 21
21.954915
  0
LINE
  8
ボルト／ビス
  6
CONTINUOUS
 62
    64
 10
147.235377
 20
22.05114
 11
147.357037
 21
22.05114
  0
LINE
  8
ボルト／ビス
  6
CONTINUOUS
 62
    64
 10
147.235377
 20
22.339815
 11
147.357037
 21
22.339815
  0
LINE
  8
ボルト／ビス
  6
CONTINUOUS
 62
    64
 10
147.235377
 20
22.24359
 11
147.357037
 21
22.24359
  0
LINE
  8
ボルト／ビス
  6
CONTINUOUS
 10
147.357037
 20
22.339815
 11
147.357037
 21
21.954915
  0
LINE
  8
ボルト／ビス
  6
CONTINUOUS
 10
147.357037
 20
22.347365
 11
147.423703
 21
22.347365
  0
LINE
  8
ボルト／ビス
  6
CONTINUOUS
 10
147.357037
 20
22.347365
 11
147.357037
 21
21.947365
  0
LINE
  8
ボルト／ビス
  6
CONTINUOUS
 10
147.357037
 20
21.947365
 11
147.423703
 21
21.947365
  0
ENDBLK
  0
BLOCK
  2
*GRP_0036
 70
    65
 10
0.0
 20
0.0
  0
LINE
  8
ボルト／ビス
  6
DOT
 10
135.857035
 20
53.4807
 11
135.39037
 21
53.4807
  0
LINE
  8
ボルト／ビス
  6
DOT
 10
135.857035
 20
53.114035
 11
135.79037
 21
53.114035
  0
LINE
  8
ボルト／ビス
  6
DOT
 10
135.79037
 20
53.114035
 11
135.79037
 21
53.847367
  0
LINE
  8
ボルト／ビス
  6
DOT
 10
135.79037
 20
53.847367
 11
135.857035
 21
53.847367
  0
LINE
  8
ボルト／ビス
  6
DOT
 10
135.857035
 20
53.114035
 11
135.857035
 21
53.847367
  0
LINE
  8
ボルト／ビス
  6
DOT
 10
135.757035
 20
53.1807
 11
135.79037
 21
53.1807
  0
LINE
  8
ボルト／ビス
  6
DOT
 10
135.757035
 20
53.1807
 11
135.757035
 21
53.7807
  0
LINE
  8
ボルト／ビス
  6
DOT
 10
135.757035
 20
53.7807
 11
135.79037
 21
53.7807
  0
LINE
  8
ボルト／ビス
  6
DOT
 62
    64
 10
135.557035
 20
53.320325
 11
135.56871
 21
53.28825
  0
ARC
  8
ボルト／ビス
  6
DOT
 62
    64
 10
135.662013
 20
53.336362
 40
0.104978
 50
152.721967
 51
180.0
  0
ARC
  8
ボルト／ビス
  6
DOT
 62
    64
 10
135.959437
 20
53.480699
 40
0.402402
 50
166.165002
 51
193.834985
  0
LINE
  8
ボルト／ビス
  6
DOT
 62
    64
 10
135.557035
 20
53.641075
 11
135.56871
 21
53.67315
  0
ARC
  8
ボルト／ビス
  6
DOT
 62
    64
 10
135.662013
 20
53.625037
 40
0.104978
 50
180.0
 51
207.278033
  0
LINE
  8
ボルト／ビス
  6
DOT
 62
    64
 10
135.557035
 20
53.320325
 11
135.557035
 21
53.641075
  0
LINE
  8
ボルト／ビス
  6
DOT
 62
    64
 10
135.56871
 20
53.67315
 11
135.69037
 21
53.67315
  0
LINE
  8
ボルト／ビス
  6
DOT
 62
    64
 10
135.56871
 20
53.576925
 11
135.69037
 21
53.576925
  0
LINE
  8
ボルト／ビス
  6
DOT
 62
    64
 10
135.56871
 20
53.28825
 11
135.69037
 21
53.28825
  0
LINE
  8
ボルト／ビス
  6
DOT
 62
    64
 10
135.56871
 20
53.384475
 11
135.69037
 21
53.384475
  0
LINE
  8
ボルト／ビス
  6
DOT
 10
135.69037
 20
53.28825
 11
135.69037
 21
53.67315
  0
LINE
  8
ボルト／ビス
  6
DOT
 10
135.69037
 20
53.2807
 11
135.757035
 21
53.2807
  0
LINE
  8
ボルト／ビス
  6
DOT
 10
135.69037
 20
53.2807
 11
135.69037
 21
53.6807
  0
LINE
  8
ボルト／ビス
  6
DOT
 10
135.69037
 20
53.6807
 11
135.757035
 21
53.6807
  0
ENDBLK
  0
BLOCK
  2
*GRP_0037
 70
    65
 10
0.0
 20
0.0
  0
LINE
  8
ボルト／ビス
  6
DOT
 10
135.857035
 20
22.147365
 11
135.39037
 21
22.147365
  0
LINE
  8
ボルト／ビス
  6
DOT
 10
135.857035
 20
22.51403
 11
135.79037
 21
22.51403
  0
LINE
  8
ボルト／ビス
  6
DOT
 10
135.79037
 20
22.51403
 11
135.79037
 21
21.780697
  0
LINE
  8
ボルト／ビス
  6
DOT
 10
135.79037
 20
21.780697
 11
135.857035
 21
21.780697
  0
LINE
  8
ボルト／ビス
  6
DOT
 10
135.857035
 20
22.51403
 11
135.857035
 21
21.780697
  0
LINE
  8
ボルト／ビス
  6
DOT
 10
135.757035
 20
22.447365
 11
135.79037
 21
22.447365
  0
LINE
  8
ボルト／ビス
  6
DOT
 10
135.757035
 20
22.447365
 11
135.757035
 21
21.847365
  0
LINE
  8
ボルト／ビス
  6
DOT
 10
135.757035
 20
21.847365
 11
135.79037
 21
21.847365
  0
LINE
  8
ボルト／ビス
  6
DOT
 62
    64
 10
135.557035
 20
22.30774
 11
135.56871
 21
22.339815
  0
ARC
  8
ボルト／ビス
  6
DOT
 62
    64
 10
135.662013
 20
22.291703
 40
0.104978
 50
180.0
 51
207.278033
  0
ARC
  8
ボルト／ビス
  6
DOT
 62
    64
 10
135.959437
 20
22.147366
 40
0.402402
 50
166.165015
 51
193.834998
  0
LINE
  8
ボルト／ビス
  6
DOT
 62
    64
 10
135.557035
 20
21.98699
 11
135.56871
 21
21.954915
  0
ARC
  8
ボルト／ビス
  6
DOT
 62
    64
 10
135.662013
 20
22.003028
 40
0.104978
 50
152.721967
 51
180.0
  0
LINE
  8
ボルト／ビス
  6
DOT
 62
    64
 10
135.557035
 20
22.30774
 11
135.557035
 21
21.98699
  0
LINE
  8
ボルト／ビス
  6
DOT
 62
    64
 10
135.56871
 20
21.954915
 11
135.69037
 21
21.954915
  0
LINE
  8
ボルト／ビス
  6
DOT
 62
    64
 10
135.56871
 20
22.05114
 11
135.69037
 21
22.05114
  0
LINE
  8
ボルト／ビス
  6
DOT
 62
    64
 10
135.56871
 20
22.339815
 11
135.69037
 21
22.339815
  0
LINE
  8
ボルト／ビス
  6
DOT
 62
    64
 10
135.56871
 20
22.24359
 11
135.69037
 21
22.24359
  0
LINE
  8
ボルト／ビス
  6
DOT
 10
135.69037
 20
22.339815
 11
135.69037
 21
21.954915
  0
LINE
  8
ボルト／ビス
  6
DOT
 10
135.69037
 20
22.347365
 11
135.757035
 21
22.347365
  0
LINE
  8
ボルト／ビス
  6
DOT
 10
135.69037
 20
22.347365
 11
135.69037
 21
21.947365
  0
LINE
  8
ボルト／ビス
  6
DOT
 10
135.69037
 20
21.947365
 11
135.757035
 21
21.947365
  0
ENDBLK
  0
BLOCK
  2
*GRP_0038
 70
    65
 10
0.0
 20
0.0
  0
LINE
  8
ボルト／ビス
  6
CONTINUOUS
 10
58.657105
 20
-70.209613
 11
58.657105
 21
-69.742947
  0
LINE
  8
ボルト／ビス
  6
CONTINUOUS
 10
58.29044
 20
-70.209613
 11
58.29044
 21
-70.142947
  0
LINE
  8
ボルト／ビス
  6
CONTINUOUS
 10
58.29044
 20
-70.142947
 11
59.023773
 21
-70.142947
  0
LINE
  8
ボルト／ビス
  6
CONTINUOUS
 10
59.023773
 20
-70.142947
 11
59.023773
 21
-70.209613
  0
LINE
  8
ボルト／ビス
  6
CONTINUOUS
 10
58.29044
 20
-70.209613
 11
59.023773
 21
-70.209613
  0
LINE
  8
ボルト／ビス
  6
CONTINUOUS
 10
58.357105
 20
-70.109612
 11
58.357105
 21
-70.142947
  0
LINE
  8
ボルト／ビス
  6
CONTINUOUS
 10
58.357105
 20
-70.109612
 11
58.957105
 21
-70.109612
  0
LINE
  8
ボルト／ビス
  6
CONTINUOUS
 10
58.957105
 20
-70.109612
 11
58.957105
 21
-70.142947
  0
LINE
  8
ボルト／ビス
  6
CONTINUOUS
 62
    64
 10
58.49673
 20
-69.909613
 11
58.464655
 21
-69.921288
  0
ARC
  8
ボルト／ビス
  6
CONTINUOUS
 62
    64
 10
58.512771
 20
-70.014594
 40
0.104978
 50
62.721967
 51
90.0
  0
ARC
  8
ボルト／ビス
  6
CONTINUOUS
 62
    64
 10
58.657109
 20
-70.312018
 40
0.402402
 50
76.165002
 51
103.834985
  0
LINE
  8
ボルト／ビス
  6
CONTINUOUS
 62
    64
 10
58.81748
 20
-69.909613
 11
58.849555
 21
-69.921288
  0
ARC
  8
ボルト／ビス
  6
CONTINUOUS
 62
    64
 10
58.801446
 20
-70.014594
 40
0.104978
 50
90.0
 51
117.278033
  0
LINE
  8
ボルト／ビス
  6
CONTINUOUS
 62
    64
 10
58.49673
 20
-69.909613
 11
58.81748
 21
-69.909613
  0
LINE
  8
ボルト／ビス
  6
CONTINUOUS
 62
    64
 10
58.849555
 20
-69.921288
 11
58.849555
 21
-70.042947
  0
LINE
  8
ボルト／ビス
  6
CONTINUOUS
 62
    64
 10
58.75333
 20
-69.921288
 11
58.75333
 21
-70.042947
  0
LINE
  8
ボルト／ビス
  6
CONTINUOUS
 62
    64
 10
58.464655
 20
-69.921288
 11
58.464655
 21
-70.042947
  0
LINE
  8
ボルト／ビス
  6
CONTINUOUS
 62
    64
 10
58.56088
 20
-69.921288
 11
58.56088
 21
-70.042947
  0
LINE
  8
ボルト／ビス
  6
CONTINUOUS
 10
58.464655
 20
-70.042947
 11
58.849555
 21
-70.042947
  0
LINE
  8
ボルト／ビス
  6
CONTINUOUS
 10
58.457105
 20
-70.042947
 11
58.457105
 21
-70.109612
  0
LINE
  8
ボルト／ビス
  6
CONTINUOUS
 10
58.457105
 20
-70.042947
 11
58.857105
 21
-70.042947
  0
LINE
  8
ボルト／ビス
  6
CONTINUOUS
 10
58.857105
 20
-70.042947
 11
58.857105
 21
-70.109612
  0
ENDBLK
  0
BLOCK
  2
*GRP_0039
 70
    65
 10
0.0
 20
0.0
  0
LINE
  8
ボルト／ビス
  6
DOT
 10
58.657105
 20
-58.542945
 11
58.657105
 21
-58.07628
  0
LINE
  8
ボルト／ビス
  6
DOT
 10
58.29044
 20
-58.542945
 11
58.29044
 21
-58.47628
  0
LINE
  8
ボルト／ビス
  6
DOT
 10
58.29044
 20
-58.47628
 11
59.023773
 21
-58.47628
  0
LINE
  8
ボルト／ビス
  6
DOT
 10
59.023773
 20
-58.47628
 11
59.023773
 21
-58.542945
  0
LINE
  8
ボルト／ビス
  6
DOT
 10
58.29044
 20
-58.542945
 11
59.023773
 21
-58.542945
  0
LINE
  8
ボルト／ビス
  6
DOT
 10
58.357105
 20
-58.442945
 11
58.357105
 21
-58.47628
  0
LINE
  8
ボルト／ビス
  6
DOT
 10
58.357105
 20
-58.442945
 11
58.957105
 21
-58.442945
  0
LINE
  8
ボルト／ビス
  6
DOT
 10
58.957105
 20
-58.442945
 11
58.957105
 21
-58.47628
  0
LINE
  8
ボルト／ビス
  6
DOT
 62
    64
 10
58.49673
 20
-58.242945
 11
58.464655
 21
-58.25462
  0
ARC
  8
ボルト／ビス
  6
DOT
 62
    64
 10
58.512771
 20
-58.347927
 40
0.104978
 50
62.721967
 51
90.0
  0
ARC
  8
ボルト／ビス
  6
DOT
 62
    64
 10
58.657109
 20
-58.645351
 40
0.402402
 50
76.165002
 51
103.834985
  0
LINE
  8
ボルト／ビス
  6
DOT
 62
    64
 10
58.81748
 20
-58.242945
 11
58.849555
 21
-58.25462
  0
ARC
  8
ボルト／ビス
  6
DOT
 62
    64
 10
58.801446
 20
-58.347927
 40
0.104978
 50
90.0
 51
117.278033
  0
LINE
  8
ボルト／ビス
  6
DOT
 62
    64
 10
58.49673
 20
-58.242945
 11
58.81748
 21
-58.242945
  0
LINE
  8
ボルト／ビス
  6
DOT
 62
    64
 10
58.849555
 20
-58.25462
 11
58.849555
 21
-58.37628
  0
LINE
  8
ボルト／ビス
  6
DOT
 62
    64
 10
58.75333
 20
-58.25462
 11
58.75333
 21
-58.37628
  0
LINE
  8
ボルト／ビス
  6
DOT
 62
    64
 10
58.464655
 20
-58.25462
 11
58.464655
 21
-58.37628
  0
LINE
  8
ボルト／ビス
  6
DOT
 62
    64
 10
58.56088
 20
-58.25462
 11
58.56088
 21
-58.37628
  0
LINE
  8
ボルト／ビス
  6
DOT
 10
58.464655
 20
-58.37628
 11
58.849555
 21
-58.37628
  0
LINE
  8
ボルト／ビス
  6
DOT
 10
58.457105
 20
-58.37628
 11
58.457105
 21
-58.442945
  0
LINE
  8
ボルト／ビス
  6
DOT
 10
58.457105
 20
-58.37628
 11
58.857105
 21
-58.37628
  0
LINE
  8
ボルト／ビス
  6
DOT
 10
58.857105
 20
-58.37628
 11
58.857105
 21
-58.442945
  0
ENDBLK
  0
BLOCK
  2
*GRP_0040
 70
    65
 10
0.0
 20
0.0
  0
LINE
  8
ボルト／ビス
  6
CONTINUOUS
 10
-109.342895
 20
-70.209613
 11
-109.342895
 21
-69.742947
  0
LINE
  8
ボルト／ビス
  6
CONTINUOUS
 10
-108.97623
 20
-70.209613
 11
-108.97623
 21
-70.142947
  0
LINE
  8
ボルト／ビス
  6
CONTINUOUS
 10
-108.97623
 20
-70.142947
 11
-109.709562
 21
-70.142947
  0
LINE
  8
ボルト／ビス
  6
CONTINUOUS
 10
-109.709562
 20
-70.142947
 11
-109.709562
 21
-70.209613
  0
LINE
  8
ボルト／ビス
  6
CONTINUOUS
 10
-108.97623
 20
-70.209613
 11
-109.709562
 21
-70.209613
  0
LINE
  8
ボルト／ビス
  6
CONTINUOUS
 10
-109.042895
 20
-70.109612
 11
-109.042895
 21
-70.142947
  0
LINE
  8
ボルト／ビス
  6
CONTINUOUS
 10
-109.042895
 20
-70.109612
 11
-109.642895
 21
-70.109612
  0
LINE
  8
ボルト／ビス
  6
CONTINUOUS
 10
-109.642895
 20
-70.109612
 11
-109.642895
 21
-70.142947
  0
LINE
  8
ボルト／ビス
  6
CONTINUOUS
 62
    64
 10
-109.18252
 20
-69.909613
 11
-109.150445
 21
-69.921288
  0
ARC
  8
ボルト／ビス
  6
CONTINUOUS
 62
    64
 10
-109.198561
 20
-70.014594
 40
0.104978
 50
90.0
 51
117.278033
  0
ARC
  8
ボルト／ビス
  6
CONTINUOUS
 62
    64
 10
-109.342899
 20
-70.312018
 40
0.402402
 50
76.165015
 51
103.834998
  0
LINE
  8
ボルト／ビス
  6
CONTINUOUS
 62
    64
 10
-109.50327
 20
-69.909613
 11
-109.535345
 21
-69.921288
  0
ARC
  8
ボルト／ビス
  6
CONTINUOUS
 62
    64
 10
-109.487236
 20
-70.014594
 40
0.104978
 50
62.721967
 51
90.0
  0
LINE
  8
ボルト／ビス
  6
CONTINUOUS
 62
    64
 10
-109.18252
 20
-69.909613
 11
-109.50327
 21
-69.909613
  0
LINE
  8
ボルト／ビス
  6
CONTINUOUS
 62
    64
 10
-109.535345
 20
-69.921288
 11
-109.535345
 21
-70.042947
  0
LINE
  8
ボルト／ビス
  6
CONTINUOUS
 62
    64
 10
-109.43912
 20
-69.921288
 11
-109.43912
 21
-70.042947
  0
LINE
  8
ボルト／ビス
  6
CONTINUOUS
 62
    64
 10
-109.150445
 20
-69.921288
 11
-109.150445
 21
-70.042947
  0
LINE
  8
ボルト／ビス
  6
CONTINUOUS
 62
    64
 10
-109.24667
 20
-69.921288
 11
-109.24667
 21
-70.042947
  0
LINE
  8
ボルト／ビス
  6
CONTINUOUS
 10
-109.150445
 20
-70.042947
 11
-109.535345
 21
-70.042947
  0
LINE
  8
ボルト／ビス
  6
CONTINUOUS
 10
-109.142895
 20
-70.042947
 11
-109.142895
 21
-70.109612
  0
LINE
  8
ボルト／ビス
  6
CONTINUOUS
 10
-109.142895
 20
-70.042947
 11
-109.542895
 21
-70.042947
  0
LINE
  8
ボルト／ビス
  6
CONTINUOUS
 10
-109.542895
 20
-70.042947
 11
-109.542895
 21
-70.109612
  0
ENDBLK
  0
BLOCK
  2
*GRP_0041
 70
    65
 10
0.0
 20
0.0
  0
LINE
  8
ボルト／ビス
  6
DOT
 10
-109.342895
 20
-58.542945
 11
-109.342895
 21
-58.07628
  0
LINE
  8
ボルト／ビス
  6
DOT
 10
-108.97623
 20
-58.542945
 11
-108.97623
 21
-58.47628
  0
LINE
  8
ボルト／ビス
  6
DOT
 10
-108.97623
 20
-58.47628
 11
-109.709562
 21
-58.47628
  0
LINE
  8
ボルト／ビス
  6
DOT
 10
-109.709562
 20
-58.47628
 11
-109.709562
 21
-58.542945
  0
LINE
  8
ボルト／ビス
  6
DOT
 10
-108.97623
 20
-58.542945
 11
-109.709562
 21
-58.542945
  0
LINE
  8
ボルト／ビス
  6
DOT
 10
-109.042895
 20
-58.442945
 11
-109.042895
 21
-58.47628
  0
LINE
  8
ボルト／ビス
  6
DOT
 10
-109.042895
 20
-58.442945
 11
-109.642895
 21
-58.442945
  0
LINE
  8
ボルト／ビス
  6
DOT
 10
-109.642895
 20
-58.442945
 11
-109.642895
 21
-58.47628
  0
LINE
  8
ボルト／ビス
  6
DOT
 62
    64
 10
-109.18252
 20
-58.242945
 11
-109.150445
 21
-58.25462
  0
ARC
  8
ボルト／ビス
  6
DOT
 62
    64
 10
-109.198561
 20
-58.347927
 40
0.104978
 50
90.0
 51
117.278033
  0
ARC
  8
ボルト／ビス
  6
DOT
 62
    64
 10
-109.342899
 20
-58.645351
 40
0.402402
 50
76.165015
 51
103.834998
  0
LINE
  8
ボルト／ビス
  6
DOT
 62
    64
 10
-109.50327
 20
-58.242945
 11
-109.535345
 21
-58.25462
  0
ARC
  8
ボルト／ビス
  6
DOT
 62
    64
 10
-109.487236
 20
-58.347927
 40
0.104978
 50
62.721967
 51
90.0
  0
LINE
  8
ボルト／ビス
  6
DOT
 62
    64
 10
-109.18252
 20
-58.242945
 11
-109.50327
 21
-58.242945
  0
LINE
  8
ボルト／ビス
  6
DOT
 62
    64
 10
-109.535345
 20
-58.25462
 11
-109.535345
 21
-58.37628
  0
LINE
  8
ボルト／ビス
  6
DOT
 62
    64
 10
-109.43912
 20
-58.25462
 11
-109.43912
 21
-58.37628
  0
LINE
  8
ボルト／ビス
  6
DOT
 62
    64
 10
-109.150445
 20
-58.25462
 11
-109.150445
 21
-58.37628
  0
LINE
  8
ボルト／ビス
  6
DOT
 62
    64
 10
-109.24667
 20
-58.25462
 11
-109.24667
 21
-58.37628
  0
LINE
  8
ボルト／ビス
  6
DOT
 10
-109.150445
 20
-58.37628
 11
-109.535345
 21
-58.37628
  0
LINE
  8
ボルト／ビス
  6
DOT
 10
-109.142895
 20
-58.37628
 11
-109.142895
 21
-58.442945
  0
LINE
  8
ボルト／ビス
  6
DOT
 10
-109.142895
 20
-58.37628
 11
-109.542895
 21
-58.37628
  0
LINE
  8
ボルト／ビス
  6
DOT
 10
-109.542895
 20
-58.37628
 11
-109.542895
 21
-58.442945
  0
ENDBLK
  0
BLOCK
  2
*DIM_0042
 70
    65
 10
0.0
 20
0.0
  0
LINE
  8
寸法
  6
BYBLOCK
 62
     0
 10
45.990438
 20
-50.209613
 11
73.960088
 21
-50.209613
  0
LINE
  8
寸法
  6
BYBLOCK
 62
     0
 10
73.960088
 20
-61.87628
 11
73.960088
 21
-50.209613
  0
POINT
  8
寸法
 62
     0
 10
73.960088
 20
-61.87628
  0
POINT
  8
寸法
 62
     0
 10
73.960088
 20
-50.209613
  0
TEXT
  7
TextStyle03
  8
寸法
  6
CONTINUOUS
 62
     0
 10
73.05
 20
-46.4125
  1
上昇高さ350
 40
3.0
 50
90.0
 72
     5
 11
73.05
 21
-28.0375
  0
ENDBLK
  0
BLOCK
  2
*DIM_0043
 70
    65
 10
0.0
 20
0.0
  0
LINE
  8
寸法
  6
BYBLOCK
 62
     0
 10
139.19037
 20
68.369967
 11
127.523703
 21
68.369967
  0
POINT
  8
寸法
 62
     0
 10
139.19037
 20
68.369967
  0
POINT
  8
寸法
 62
     0
 10
127.523703
 20
68.369967
  0
TEXT
  7
TextStyle03
  8
寸法
  6
CONTINUOUS
 62
     0
 10
106.4375
 20
65.925
  1
上昇高さ350
 40
3.0
 72
     5
 11
124.8125
 21
65.925
  0
ENDBLK
  0
ENDSEC
  0
SECTION
  2
ENTITIES
  0
POLYLINE
  8
通り芯
  6
CONTINUOUS
 66
     1
 70
     1
  0
VERTEX
  8
通り芯
 10
-210.0
 20
-148.5
  0
VERTEX
  8
通り芯
 10
210.0
 20
-148.5
  0
VERTEX
  8
通り芯
 10
210.0
 20
148.5
  0
VERTEX
  8
通り芯
 10
-210.0
 20
148.5
  0
SEQEND
  0
INSERT
  2
*GRP_0001
  8
型材断面
  6
CONTINUOUS
 10
0.0
 20
0.0
  0
LINE
  8
型材断面
  6
DASHDOT
 10
57.990438
 20
-77.836442
 11
57.990438
 21
52.814033
  0
LINE
  8
型材断面
  6
DASHDOT
 10
-25.342895
 20
-77.836442
 11
-25.342895
 21
52.814033
  0
LINE
  8
型材断面
  6
DASHDOT
 10
-108.676228
 20
-77.836442
 11
-108.676228
 21
52.814033
  0
LINE
  8
型材断面
  6
DASHDOT
 10
155.6672
 20
52.814033
 11
-108.676228
 21
52.814033
  0
LINE
  8
型材断面
  6
DASHDOT
 10
155.6672
 20
37.814033
 11
-108.676228
 21
37.814033
  0
LINE
  8
型材断面
  6
DASHDOT
 10
155.6672
 20
22.814033
 11
-108.676228
 21
22.814033
  0
POLYLINE
  8
型材断面
  6
CONTINUOUS
 66
     1
 70
     1
  0
VERTEX
  8
型材断面
 10
-16.01484
 20
13.03811
  0
VERTEX
  8
型材断面
 10
-34.78677
 20
13.03811
  0
VERTEX
  8
型材断面
 10
-34.78677
 20
8.301267
  0
VERTEX
  8
型材断面
 10
-16.01484
 20
8.301267
  0
SEQEND
  0
POLYLINE
  8
型材断面
  6
CONTINUOUS
 66
     1
 70
     1
  0
VERTEX
  8
型材断面
 10
-16.01484
 20
62.589955
  0
VERTEX
  8
型材断面
 10
-34.78677
 20
62.589955
  0
VERTEX
  8
型材断面
 10
-34.78677
 20
67.326798
  0
VERTEX
  8
型材断面
 10
-16.01484
 20
67.326798
  0
SEQEND
  0
LINE
  8
型材断面
  6
CONTINUOUS
 10
-149.528435
 20
90.791505
 11
-148.93238
 21
88.200998
  0
LINE
  8
型材断面
  6
CONTINUOUS
 10
-149.528435
 20
90.791505
 11
-150.124493
 21
88.200998
  0
LINE
  8
型材断面
  6
CONTINUOUS
 10
-150.124493
 20
88.200998
 11
-148.93238
 21
88.200998
  0
LINE
  8
型材断面
  6
CONTINUOUS
 10
-155.551022
 20
84.922105
 11
-109.309245
 21
84.922105
  0
LINE
  8
型材断面
  6
CONTINUOUS
 10
-149.528435
 20
97.32138
 11
-151.024065
 21
94.730873
  0
LINE
  8
型材断面
  6
CONTINUOUS
 10
-149.528435
 20
97.32138
 11
-148.032805
 21
94.730873
  0
LINE
  8
型材断面
  6
CONTINUOUS
 10
-148.032805
 20
94.730873
 11
-151.024065
 21
94.730873
  0
LINE
  8
型材断面
  6
CONTINUOUS
 10
-155.551022
 20
93.792277
 11
-109.309245
 21
93.792277
  0
LINE
  8
型材断面
  6
CONTINUOUS
 10
-155.551022
 20
79.134073
 11
-109.309245
 21
79.134073
  0
INSERT
  2
*GRP_0009
  8
型材断面
  6
CONTINUOUS
 10
0.0
 20
0.0
  0
INSERT
  2
*GRP_0010
  8
型材断面
  6
CONTINUOUS
 10
0.0
 20
0.0
  0
INSERT
  2
*GRP_0011
  8
型材断面
  6
CONTINUOUS
 10
0.0
 20
0.0
  0
INSERT
  2
*GRP_0012
  8
型材断面
  6
CONTINUOUS
 10
0.0
 20
0.0
  0
LINE
  8
型材断面
  6
CONTINUOUS
 10
-155.551022
 20
73.34604
 11
-109.309245
 21
73.34604
  0
LINE
  8
型材断面
  6
CONTINUOUS
 10
148.57382
 20
37.814033
 11
148.57382
 21
21.453885
  0
LINE
  8
型材断面
  6
CONTINUOUS
 10
149.72382
 20
37.814033
 11
149.72382
 21
20.0507
  0
LINE
  8
型材断面
  6
CONTINUOUS
 10
150.890488
 20
37.814033
 11
150.890488
 21
20.0507
  0
LINE
  8
型材断面
  6
CONTINUOUS
 10
148.57382
 20
37.814033
 11
148.57382
 21
54.17418
  0
LINE
  8
型材断面
  6
CONTINUOUS
 10
149.72382
 20
37.814033
 11
149.72382
 21
55.577365
  0
LINE
  8
型材断面
  6
CONTINUOUS
 10
150.890488
 20
37.814033
 11
150.890488
 21
55.577365
  0
LINE
  8
型材断面
  6
CONTINUOUS
 10
-25.342895
 20
-71.259732
 11
-110.036375
 21
-71.259732
  0
LINE
  8
型材断面
  6
CONTINUOUS
 10
-25.342895
 20
-72.409732
 11
-111.43956
 21
-72.409732
  0
LINE
  8
型材断面
  6
CONTINUOUS
 10
-25.342895
 20
-73.5764
 11
-111.43956
 21
-73.5764
  0
LINE
  8
型材断面
  6
CONTINUOUS
 10
-25.342895
 20
-71.259732
 11
59.350585
 21
-71.259732
  0
LINE
  8
型材断面
  6
CONTINUOUS
 10
-25.342895
 20
-72.409732
 11
60.75377
 21
-72.409732
  0
LINE
  8
型材断面
  6
CONTINUOUS
 10
-25.342895
 20
-73.5764
 11
60.75377
 21
-73.5764
  0
LINE
  8
型材断面
  6
CONTINUOUS
 10
-111.43956
 20
-13.121378
 11
-111.43956
 21
-71.20727
  0
LINE
  8
型材断面
  6
CONTINUOUS
 10
60.75377
 20
-13.121378
 11
60.75377
 21
-71.164425
  0
LINE
  8
型材断面
  6
CONTINUOUS
 10
-110.742895
 20
54.8807
 11
-111.439563
 21
55.577365
  0
LINE
  8
型材断面
  6
CONTINUOUS
 10
-111.43956
 20
55.577365
 11
-111.43956
 21
20.0507
  0
LINE
  8
型材断面
  6
CONTINUOUS
 10
-110.742895
 20
20.747365
 11
-111.439563
 21
20.0507
  0
LINE
  8
型材断面
  6
CONTINUOUS
 10
-111.43956
 20
20.0507
 11
60.75377
 21
20.0507
  0
LINE
  8
型材断面
  6
CONTINUOUS
 10
60.057105
 20
20.747365
 11
60.75377
 21
20.050703
  0
LINE
  8
型材断面
  6
CONTINUOUS
 10
60.75377
 20
20.0507
 11
60.75377
 21
55.577365
  0
LINE
  8
型材断面
  6
CONTINUOUS
 10
-111.43956
 20
55.577365
 11
60.75377
 21
55.577365
  0
LINE
  8
型材断面
  6
CONTINUOUS
 10
60.057105
 20
54.8807
 11
60.75377
 21
55.577362
  0
LINE
  8
型材断面
  6
CONTINUOUS
 10
-111.43956
 20
37.814033
 11
-114.030068
 21
39.309663
  0
LINE
  8
型材断面
  6
CONTINUOUS
 10
-111.43956
 20
37.814033
 11
-114.030068
 21
36.318403
  0
LINE
  8
型材断面
  6
CONTINUOUS
 10
-114.030068
 20
36.318403
 11
-114.030068
 21
39.309663
  0
LINE
  8
型材断面
  6
CONTINUOUS
 10
-111.43956
 20
49.114035
 11
-114.03007
 21
48.517982
  0
LINE
  8
型材断面
  6
CONTINUOUS
 10
-111.43956
 20
49.114035
 11
-114.030068
 21
49.710095
  0
LINE
  8
型材断面
  6
CONTINUOUS
 10
-114.030068
 20
49.710095
 11
-114.03007
 21
48.517982
  0
LINE
  8
型材断面
  6
CONTINUOUS
 10
-111.43956
 20
26.51403
 11
-114.03007
 21
27.110082
  0
LINE
  8
型材断面
  6
CONTINUOUS
 10
-111.43956
 20
26.51403
 11
-114.030068
 21
25.91797
  0
LINE
  8
型材断面
  6
CONTINUOUS
 10
-114.030068
 20
25.91797
 11
-114.03007
 21
27.110082
  0
LINE
  8
型材断面
  6
CONTINUOUS
 10
-92.00956
 20
55.577365
 11
-93.50519
 21
58.167872
  0
LINE
  8
型材断面
  6
CONTINUOUS
 10
-92.00956
 20
55.577365
 11
-90.51393
 21
58.167872
  0
LINE
  8
型材断面
  6
CONTINUOUS
 10
-90.51393
 20
58.167872
 11
-93.50519
 21
58.167872
  0
LINE
  8
型材断面
  6
CONTINUOUS
 10
41.32377
 20
55.577365
 11
42.8194
 21
58.167872
  0
LINE
  8
型材断面
  6
CONTINUOUS
 10
41.32377
 20
55.577365
 11
39.82814
 21
58.167872
  0
LINE
  8
型材断面
  6
CONTINUOUS
 10
39.82814
 20
58.167872
 11
42.8194
 21
58.167872
  0
LINE
  8
型材断面
  6
CONTINUOUS
 10
-25.342895
 20
55.577362
 11
-23.847265
 21
58.16787
  0
LINE
  8
型材断面
  6
CONTINUOUS
 10
-25.342895
 20
55.577362
 11
-26.838525
 21
58.16787
  0
LINE
  8
型材断面
  6
CONTINUOUS
 10
-26.838525
 20
58.16787
 11
-23.847265
 21
58.16787
  0
LINE
  8
型材断面
  6
CONTINUOUS
 10
60.75377
 20
37.814033
 11
63.344277
 21
39.309663
  0
LINE
  8
型材断面
  6
CONTINUOUS
 10
60.75377
 20
37.814033
 11
63.344277
 21
36.318403
  0
LINE
  8
型材断面
  6
CONTINUOUS
 10
63.344277
 20
36.318403
 11
63.344277
 21
39.309663
  0
LINE
  8
型材断面
  6
CONTINUOUS
 10
60.75377
 20
49.114035
 11
63.34428
 21
48.517982
  0
LINE
  8
型材断面
  6
CONTINUOUS
 10
60.75377
 20
49.114035
 11
63.344277
 21
49.710095
  0
LINE
  8
型材断面
  6
CONTINUOUS
 10
63.344277
 20
49.710095
 11
63.34428
 21
48.517982
  0
LINE
  8
型材断面
  6
CONTINUOUS
 10
60.75377
 20
26.51403
 11
63.34428
 21
27.110082
  0
LINE
  8
型材断面
  6
CONTINUOUS
 10
60.75377
 20
26.51403
 11
63.344277
 21
25.91797
  0
LINE
  8
型材断面
  6
CONTINUOUS
 10
63.344277
 20
25.91797
 11
63.34428
 21
27.110082
  0
LINE
  8
型材断面
  6
CONTINUOUS
 10
-92.00956
 20
20.050703
 11
-93.50519
 21
17.460195
  0
LINE
  8
型材断面
  6
CONTINUOUS
 10
-92.00956
 20
20.050703
 11
-90.51393
 21
17.460195
  0
LINE
  8
型材断面
  6
CONTINUOUS
 10
-90.51393
 20
17.460195
 11
-93.50519
 21
17.460195
  0
LINE
  8
型材断面
  6
CONTINUOUS
 10
41.32377
 20
20.050703
 11
42.8194
 21
17.460195
  0
LINE
  8
型材断面
  6
CONTINUOUS
 10
41.32377
 20
20.050703
 11
39.82814
 21
17.460195
  0
LINE
  8
型材断面
  6
CONTINUOUS
 10
39.82814
 20
17.460195
 11
42.8194
 21
17.460195
  0
LINE
  8
型材断面
  6
CONTINUOUS
 10
-25.342895
 20
20.0507
 11
-23.847265
 21
17.460193
  0
LINE
  8
型材断面
  6
CONTINUOUS
 10
-25.342895
 20
20.0507
 11
-26.838525
 21
17.460193
  0
LINE
  8
型材断面
  6
CONTINUOUS
 10
-26.838525
 20
17.460193
 11
-23.847265
 21
17.460193
  0
LINE
  8
型材断面
  6
DOT
 10
-74.412895
 20
22.814033
 11
-74.412895
 21
52.814033
  0
LINE
  8
型材断面
  6
DOT
 10
-76.912895
 20
22.814033
 11
-76.912895
 21
52.814033
  0
LINE
  8
型材断面
  6
DASHDOT
 10
-75.662895
 20
22.814033
 11
-75.662895
 21
52.814033
  0
LINE
  8
型材断面
  6
DASHDOT
 10
-42.116227
 20
22.814033
 11
-42.116227
 21
52.814033
  0
LINE
  8
型材断面
  6
DOT
 10
-40.866227
 20
22.814033
 11
-40.866227
 21
52.814033
  0
LINE
  8
型材断面
  6
DOT
 10
-43.366227
 20
22.814033
 11
-43.366227
 21
52.814033
  0
LINE
  8
型材断面
  6
DOT
 10
23.727105
 20
22.814033
 11
23.727105
 21
52.814033
  0
LINE
  8
型材断面
  6
DOT
 10
26.227105
 20
22.814033
 11
26.227105
 21
52.814033
  0
LINE
  8
型材断面
  6
DASHDOT
 10
24.977105
 20
22.814033
 11
24.977105
 21
52.814033
  0
LINE
  8
型材断面
  6
DASHDOT
 10
-8.569563
 20
22.814033
 11
-8.569563
 21
52.814033
  0
LINE
  8
型材断面
  6
DOT
 10
-9.819563
 20
22.814033
 11
-9.819563
 21
52.814033
  0
LINE
  8
型材断面
  6
DOT
 10
-7.319563
 20
22.814033
 11
-7.319563
 21
52.814033
  0
LINE
  8
型材断面
  6
CONTINUOUS
 10
60.25377
 20
-77.709617
 11
60.25377
 21
-78.046282
  0
LINE
  8
型材断面
  6
CONTINUOUS
 10
60.75377
 20
-77.709617
 11
60.25377
 21
-77.709617
  0
LINE
  8
型材断面
  6
CONTINUOUS
 10
60.75377
 20
-73.809735
 11
60.557145
 21
-73.613112
  0
LINE
  8
型材断面
  6
CONTINUOUS
 10
60.75377
 20
-73.809735
 11
60.75377
 21
-77.709617
  0
LINE
  8
型材断面
  6
CONTINUOUS
 10
155.023705
 20
55.077365
 11
155.36037
 21
55.077365
  0
LINE
  8
型材断面
  6
CONTINUOUS
 10
155.023705
 20
55.577365
 11
155.023705
 21
55.077365
  0
LINE
  8
型材断面
  6
CONTINUOUS
 10
151.123822
 20
55.577365
 11
150.9272
 21
55.38074
  0
LINE
  8
型材断面
  6
CONTINUOUS
 10
151.123822
 20
55.577365
 11
155.023705
 21
55.577365
  0
LINE
  8
型材断面
  6
CONTINUOUS
 62
    47
 10
150.9272
 20
55.38074
 11
150.9272
 21
37.814033
  0
LINE
  8
型材断面
  6
CONTINUOUS
 10
151.123822
 20
55.577365
 11
151.123822
 21
37.814033
  0
LINE
  8
型材断面
  6
CONTINUOUS
 10
155.023705
 20
55.577365
 11
155.023705
 21
37.814033
  0
LINE
  8
型材断面
  6
CONTINUOUS
 10
155.36037
 20
55.077365
 11
155.36037
 21
37.814033
  0
LINE
  8
型材断面
  6
CONTINUOUS
 10
155.023705
 20
20.5507
 11
155.36037
 21
20.5507
  0
LINE
  8
型材断面
  6
CONTINUOUS
 10
151.123822
 20
20.0507
 11
150.9272
 21
20.247325
  0
LINE
  8
型材断面
  6
CONTINUOUS
 10
151.123822
 20
20.0507
 11
155.023705
 21
20.0507
  0
LINE
  8
型材断面
  6
CONTINUOUS
 62
    47
 10
150.9272
 20
20.247325
 11
150.9272
 21
37.814033
  0
LINE
  8
型材断面
  6
CONTINUOUS
 10
151.123822
 20
20.0507
 11
151.123822
 21
37.814033
  0
LINE
  8
型材断面
  6
CONTINUOUS
 10
155.023705
 20
20.0507
 11
155.023705
 21
37.814033
  0
LINE
  8
型材断面
  6
CONTINUOUS
 10
155.36037
 20
20.5507
 11
155.36037
 21
37.814033
  0
LINE
  8
型材断面
  6
CONTINUOUS
 10
60.25377
 20
-78.046282
 11
-25.342895
 21
-78.046282
  0
LINE
  8
型材断面
  6
CONTINUOUS
 10
60.75377
 20
-77.709617
 11
-25.342895
 21
-77.709617
  0
LINE
  8
型材断面
  6
CONTINUOUS
 62
    47
 10
60.557145
 20
-73.613112
 11
-25.342895
 21
-73.613112
  0
LINE
  8
型材断面
  6
CONTINUOUS
 10
60.75377
 20
-73.809735
 11
-25.342895
 21
-73.809735
  0
LINE
  8
型材断面
  6
CONTINUOUS
 10
-110.93956
 20
-77.709617
 11
-110.93956
 21
-78.046282
  0
LINE
  8
型材断面
  6
CONTINUOUS
 10
-111.43956
 20
-77.709617
 11
-110.93956
 21
-77.709617
  0
LINE
  8
型材断面
  6
CONTINUOUS
 10
-111.43956
 20
-73.809735
 11
-111.242935
 21
-73.613112
  0
LINE
  8
型材断面
  6
CONTINUOUS
 10
-111.43956
 20
-73.809735
 11
-111.43956
 21
-77.709617
  0
LINE
  8
型材断面
  6
CONTINUOUS
 10
-110.93956
 20
-78.046282
 11
-25.342895
 21
-78.046282
  0
LINE
  8
型材断面
  6
CONTINUOUS
 10
-111.43956
 20
-77.709617
 11
-25.342895
 21
-77.709617
  0
LINE
  8
型材断面
  6
CONTINUOUS
 62
    47
 10
-111.242935
 20
-73.613112
 11
-25.342895
 21
-73.613112
  0
LINE
  8
型材断面
  6
CONTINUOUS
 10
-111.43956
 20
-73.809735
 11
-25.342895
 21
-73.809735
  0
TEXT
  7
TextStyle03
  8
文字
  6
CONTINUOUS
 10
-33.7
 20
9.325
  1
可動装置側
 40
3.0
 72
     5
 11
-17.2
 21
9.325
  0
TEXT
  7
TextStyle03
  8
文字
  6
CONTINUOUS
 10
-33.7
 20
63.275
  1
可動装置側
 40
3.0
 72
     5
 11
-17.2
 21
63.275
  0
TEXT
  7
TextStyle03
  8
文字
  6
CONTINUOUS
 10
-146.725
 20
89.4
  1
はケーシング位置を示す
 40
3.0
 72
     5
 11
-109.975
 21
89.4
  0
TEXT
  7
TextStyle03
  8
文字
  6
CONTINUOUS
 10
-146.725
 20
86.025
  1
４ヶ所中1ヶ所に設定
 40
3.0
 72
     5
 11
-115.0375
 21
86.025
  0
TEXT
  7
TextStyle03
  8
文字
  6
CONTINUOUS
 10
-146.725
 20
94.925
  1
は排水穴位置を示す
 40
3.0
 72
     5
 11
-116.725
 21
94.925
  0
TEXT
  7
TextStyle03
  8
文字
  6
CONTINUOUS
 10
-129.65
 20
16.275
  1
アンカーピッチ
 40
3.0
 50
90.0
 72
     5
 11
-129.65
 21
39.525
  0
TEXT
  7
TextStyle03
  8
文字
  6
CONTINUOUS
 10
-97.95
 20
90.275
  1
アンカーピッチ
 40
3.0
 72
     5
 11
-74.7
 21
90.275
  0
TEXT
  7
TextStyle03
  8
文字
  6
CONTINUOUS
 10
-150.45
 20
80.05
  1
アンカー数量　１８ヶ所
 40
3.0
 72
     5
 11
-113.7
 21
80.05
  0
TEXT
  7
TextStyle03
  8
文字
  6
CONTINUOUS
 10
-150.5
 20
74.3
  1
アームユニット数　４ヶ所
 40
3.0
 72
     5
 11
-110.375
 21
74.3
  0
LINE
  8
文字
  6
CONTINUOUS
 10
92.010088
 20
20.0507
 11
148.54919
 21
20.0507
  0
LINE
  8
文字
  6
CONTINUOUS
 10
92.010088
 20
55.577365
 11
148.467035
 21
55.577365
  0
LINE
  8
文字
  6
CONTINUOUS
 10
127.523703
 20
38.814033
 11
127.523703
 21
68.369967
  0
TEXT
  7
TextStyle03
  8
文字
  6
CONTINUOUS
 10
132.025
 20
-69.425
  1
網入り6.8t
 40
3.0
 72
     5
 11
148.7125
 21
-69.425
  0
TEXT
  7
TextStyle03
  8
文字
  6
CONTINUOUS
 10
138.7
 20
-74.1
  1
×５枚
 40
3.0
 72
     5
 11
148.45
 21
-74.1
  0
TEXT
  7
TextStyle03
  8
文字
  6
CONTINUOUS
 10
78.1
 20
125.25
  1
シリーズ：ＴＤ１Ｌ
 40
5.0
 72
     5
 11
128.1
 21
125.25
  0
TEXT
  7
TextStyle03
  8
文字
  6
CONTINUOUS
 10
78.1
 20
119.625
  1
　　　　　（上下可動）900×5000タイプ
 40
5.0
 72
     5
 11
181.5375
 21
119.625
  0
TEXT
  7
TextStyle03
  8
文字
  6
CONTINUOUS
 10
78.1
 20
114.0
  1
図面名　：外観姿図
 40
5.0
 72
     5
 11
128.1
 21
114.0
  0
TEXT
  7
TextStyle03
  8
文字
  6
CONTINUOUS
 10
78.1
 20
108.375
  1
　　　　　　
 40
5.0
 72
     5
 11
111.225
 21
108.375
  0
TEXT
  7
TextStyle03
  8
文字
  6
CONTINUOUS
 10
77.925
 20
103.5
  1
ＮＳコード：ＮＳＤＬ
 40
5.0
 72
     5
 11
133.55
 21
103.5
  0
INSERT
  2
*DIM_0002
  8
寸法
  6
CONTINUOUS
 10
0.0
 20
0.0
  0
INSERT
  2
*DIM_0003
  8
寸法
  6
CONTINUOUS
 10
0.0
 20
0.0
  0
INSERT
  2
*DIM_0004
  8
寸法
  6
CONTINUOUS
 10
0.0
 20
0.0
  0
INSERT
  2
*DIM_0005
  8
寸法
  6
CONTINUOUS
 10
0.0
 20
0.0
  0
INSERT
  2
*DIM_0006
  8
寸法
  6
CONTINUOUS
 10
0.0
 20
0.0
  0
INSERT
  2
*DIM_0007
  8
寸法
  6
CONTINUOUS
 10
0.0
 20
0.0
  0
INSERT
  2
*DIM_0013
  8
寸法
  6
CONTINUOUS
 10
0.0
 20
0.0
  0
INSERT
  2
*DIM_0014
  8
寸法
  6
CONTINUOUS
 10
0.0
 20
0.0
  0
INSERT
  2
*DIM_0015
  8
寸法
  6
CONTINUOUS
 10
0.0
 20
0.0
  0
INSERT
  2
*DIM_0016
  8
寸法
  6
CONTINUOUS
 10
0.0
 20
0.0
  0
INSERT
  2
*DIM_0017
  8
寸法
  6
CONTINUOUS
 10
0.0
 20
0.0
  0
INSERT
  2
*DIM_0018
  8
寸法
  6
CONTINUOUS
 10
0.0
 20
0.0
  0
INSERT
  2
*DIM_0019
  8
寸法
  6
CONTINUOUS
 10
0.0
 20
0.0
  0
INSERT
  2
*DIM_0020
  8
寸法
  6
CONTINUOUS
 10
0.0
 20
0.0
  0
INSERT
  2
*DIM_0021
  8
寸法
  6
CONTINUOUS
 10
0.0
 20
0.0
  0
INSERT
  2
*DIM_0022
  8
寸法
  6
CONTINUOUS
 10
0.0
 20
0.0
  0
INSERT
  2
*DIM_0023
  8
寸法
  6
CONTINUOUS
 10
0.0
 20
0.0
  0
INSERT
  2
*DIM_0024
  8
寸法
  6
CONTINUOUS
 10
0.0
 20
0.0
  0
INSERT
  2
*DIM_0025
  8
寸法
  6
CONTINUOUS
 10
0.0
 20
0.0
  0
INSERT
  2
*DIM_0028
  8
寸法
  6
CONTINUOUS
 10
0.0
 20
0.0
  0
INSERT
  2
*DIM_0029
  8
寸法
  6
CONTINUOUS
 10
0.0
 20
0.0
  0
INSERT
  2
*DIM_0030
  8
寸法
  6
CONTINUOUS
 10
0.0
 20
0.0
  0
INSERT
  2
*DIM_0031
  8
寸法
  6
CONTINUOUS
 10
0.0
 20
0.0
  0
INSERT
  2
*DIM_0042
  8
寸法
  6
CONTINUOUS
 10
0.0
 20
0.0
  0
INSERT
  2
*DIM_0043
  8
寸法
  6
CONTINUOUS
 10
0.0
 20
0.0
  0
LINE
  8
別途部材
  6
CONTINUOUS
 10
60.057105
 20
20.747365
 11
59.657105
 21
21.147365
  0
LINE
  8
別途部材
  6
CONTINUOUS
 10
57.990438
 20
22.814033
 11
49.931183
 21
30.87329
  0
LINE
  8
別途部材
  6
CONTINUOUS
 10
59.657105
 20
21.147365
 11
59.657105
 21
37.814033
  0
LINE
  8
別途部材
  6
CONTINUOUS
 10
60.057105
 20
20.747365
 11
60.057105
 21
37.814033
  0
LINE
  8
別途部材
  6
CONTINUOUS
 10
60.057105
 20
54.8807
 11
59.657105
 21
54.4807
  0
LINE
  8
別途部材
  6
CONTINUOUS
 10
57.990438
 20
52.814033
 11
49.931183
 21
44.754775
  0
LINE
  8
別途部材
  6
CONTINUOUS
 10
59.657105
 20
54.4807
 11
59.657105
 21
37.814033
  0
LINE
  8
別途部材
  6
CONTINUOUS
 10
60.057105
 20
54.8807
 11
60.057105
 21
37.814033
  0
LINE
  8
別途部材
  6
CONTINUOUS
 10
59.657105
 20
54.4807
 11
-25.342895
 21
54.4807
  0
LINE
  8
別途部材
  6
CONTINUOUS
 10
60.057105
 20
54.8807
 11
-25.342895
 21
54.8807
  0
LINE
  8
別途部材
  6
CONTINUOUS
 10
59.657105
 20
21.147365
 11
-25.342895
 21
21.147365
  0
LINE
  8
別途部材
  6
CONTINUOUS
 10
60.057105
 20
20.747365
 11
-25.342895
 21
20.747365
  0
LINE
  8
別途部材
  6
CONTINUOUS
 10
-110.742895
 20
20.747365
 11
-110.342895
 21
21.147365
  0
LINE
  8
別途部材
  6
CONTINUOUS
 10
-108.676228
 20
22.814033
 11
-100.616972
 21
30.87329
  0
LINE
  8
別途部材
  6
CONTINUOUS
 10
-110.342895
 20
21.147365
 11
-110.342895
 21
37.814033
  0
LINE
  8
別途部材
  6
CONTINUOUS
 10
-110.742895
 20
20.747365
 11
-110.742895
 21
37.814033
  0
LINE
  8
別途部材
  6
CONTINUOUS
 10
-110.742895
 20
54.8807
 11
-110.342895
 21
54.4807
  0
LINE
  8
別途部材
  6
CONTINUOUS
 10
-108.676228
 20
52.814033
 11
-100.616972
 21
44.754775
  0
LINE
  8
別途部材
  6
CONTINUOUS
 10
-110.342895
 20
54.4807
 11
-110.342895
 21
37.814033
  0
LINE
  8
別途部材
  6
CONTINUOUS
 10
-110.742895
 20
54.8807
 11
-110.742895
 21
37.814033
  0
LINE
  8
別途部材
  6
CONTINUOUS
 10
-110.342895
 20
54.4807
 11
-25.342895
 21
54.4807
  0
LINE
  8
別途部材
  6
CONTINUOUS
 10
-110.742895
 20
54.8807
 11
-25.342895
 21
54.8807
  0
LINE
  8
別途部材
  6
CONTINUOUS
 10
-110.342895
 20
21.147365
 11
-25.342895
 21
21.147365
  0
LINE
  8
別途部材
  6
CONTINUOUS
 10
-110.742895
 20
20.747365
 11
-25.342895
 21
20.747365
  0
INSERT
  2
*GRP_0008
  8
別途部材
  6
CONTINUOUS
 10
0.0
 20
0.0
  0
LINE
  8
別途部材
  6
CONTINUOUS
 62
    96
 10
147.523703
 20
21.147365
 11
148.523703
 21
20.747365
  0
LINE
  8
別途部材
  6
CONTINUOUS
 62
    96
 10
147.523703
 20
21.147365
 11
147.523703
 21
37.814033
  0
LINE
  8
別途部材
  6
CONTINUOUS
 10
148.523703
 20
20.747365
 11
148.523703
 21
37.814033
  0
LINE
  8
別途部材
  6
CONTINUOUS
 62
    96
 10
147.523703
 20
54.4807
 11
148.523703
 21
54.8807
  0
LINE
  8
別途部材
  6
CONTINUOUS
 62
    96
 10
147.523703
 20
54.4807
 11
147.523703
 21
37.814033
  0
LINE
  8
別途部材
  6
CONTINUOUS
 10
148.523703
 20
54.8807
 11
148.523703
 21
37.814033
  0
ARC
  8
別途部材
  6
CONTINUOUS
 10
156.857035
 20
37.814033
 40
17.666667
 50
121.890796
 51
238.109204
  0
INSERT
  2
*GRP_0034
  8
別途部材
  6
DOT
 10
0.0
 20
0.0
  0
INSERT
  2
*GRP_0035
  8
別途部材
  6
DOT
 10
0.0
 20
0.0
  0
INSERT
  2
*GRP_0036
  8
別途部材
  6
DOT
 10
0.0
 20
0.0
  0
INSERT
  2
*GRP_0037
  8
別途部材
  6
DOT
 10
0.0
 20
0.0
  0
INSERT
  2
*GRP_0038
  8
別途部材
  6
DOT
 10
0.0
 20
0.0
  0
INSERT
  2
*GRP_0039
  8
別途部材
  6
DOT
 10
0.0
 20
0.0
  0
INSERT
  2
*GRP_0040
  8
別途部材
  6
DOT
 10
0.0
 20
0.0
  0
INSERT
  2
*GRP_0041
  8
別途部材
  6
DOT
 10
0.0
 20
0.0
  0
POLYLINE
  8
曲げ物
  6
CONTINUOUS
 66
     1
 70
     1
  0
VERTEX
  8
曲げ物
 10
151.539218
 20
-46.47878
  0
VERTEX
  8
曲げ物
 10
119.07255
 20
-46.47878
  0
VERTEX
  8
曲げ物
 10
119.07255
 20
-76.47878
  0
VERTEX
  8
曲げ物
 10
151.539218
 20
-76.47878
  0
SEQEND
  0
INSERT
  2
*GRP_0032
  8
曲げ物
  6
CONTINUOUS
 10
0.0
 20
0.0
  0
INSERT
  2
*GRP_0033
  8
曲げ物
  6
CONTINUOUS
 10
0.0
 20
0.0
  0
LINE
  8
鉄骨等
  6
CONTINUOUS
 62
    47
 10
150.890488
 20
20.0507
 11
149.72382
 21
20.0507
  0
LINE
  8
鉄骨等
  6
CONTINUOUS
 62
    47
 10
149.72382
 20
20.0507
 11
148.57382
 21
21.453885
  0
LINE
  8
鉄骨等
  6
CONTINUOUS
 62
    47
 10
148.57382
 20
21.453885
 11
148.5237
 21
21.453885
  0
LINE
  8
鉄骨等
  6
CONTINUOUS
 62
    47
 10
150.890488
 20
55.577365
 11
149.72382
 21
55.577365
  0
LINE
  8
鉄骨等
  6
CONTINUOUS
 62
    47
 10
149.72382
 20
55.577365
 11
148.57382
 21
54.17418
  0
LINE
  8
鉄骨等
  6
CONTINUOUS
 62
    47
 10
148.57382
 20
54.17418
 11
148.5237
 21
54.17418
  0
LINE
  8
鉄骨等
  6
CONTINUOUS
 62
    47
 10
-111.43956
 20
-73.5764
 11
-111.43956
 21
-72.409732
  0
LINE
  8
鉄骨等
  6
CONTINUOUS
 62
    47
 10
-111.43956
 20
-72.409732
 11
-110.036375
 21
-71.259732
  0
LINE
  8
鉄骨等
  6
CONTINUOUS
 62
    47
 10
-110.036375
 20
-71.259732
 11
-110.036375
 21
-71.209613
  0
LINE
  8
鉄骨等
  6
CONTINUOUS
 62
    47
 10
60.75377
 20
-73.5764
 11
60.75377
 21
-72.409732
  0
LINE
  8
鉄骨等
  6
CONTINUOUS
 62
    47
 10
60.75377
 20
-72.409732
 11
59.350585
 21
-71.259732
  0
LINE
  8
鉄骨等
  6
CONTINUOUS
 62
    47
 10
59.350585
 20
-71.259732
 11
59.350585
 21
-71.209613
  0
ENDSEC
  0
EOF
