  0
SECTION
  2
HEADER
  9
$EXTMIN
 10
-210.0
 20
-148.5
  9
$EXTMAX
 10
210.0
 20
148.5
  9
$PDMODE
 70
    32
  9
$PDSIZE
 40
1.5
  9
$LTSCALE
 40
10.0
  0
ENDSEC
  0
SECTION
  2
TABLES
  0
TABLE
  2
LTYPE
 70
    15
  0
LTYPE
  2
CONTINUOUS
 70
    64
  3
実線
 72
    65
 73
     0
 40
0.0
  0
LTYPE
  2
DASHED
 70
    64
  3
破線A
 72
    65
 73
     2
 40
0.6
 49
0.4
 49
-0.2
  0
LTYPE
  2
DASHEDX2
 70
    64
  3
破線B
 72
    65
 73
     2
 40
1.3
 49
0.9
 49
-0.4
  0
LTYPE
  2
DASHDOT
 70
    64
  3
１点鎖線A
 72
    65
 73
     4
 40
0.5375
 49
0.375
 49
-0.05
 49
0.0625
 49
-0.05
  0
LTYPE
  2
DASHDOTX2
 70
    64
  3
１点鎖線B
 72
    65
 73
     4
 40
1.075
 49
0.75
 49
-0.1
 49
0.125
 49
-0.1
  0
LTYPE
  2
DIVIDE2
 70
    64
  3
２点鎖線A
 72
    65
 73
     6
 40
0.5125
 49
0.3
 49
-0.0375
 49
0.05
 49
-0.0375
 49
0.05
 49
-0.0375
  0
LTYPE
  2
DIVIDE
 70
    64
  3
２点鎖線B
 72
    65
 73
     6
 40
1.05
 49
0.55
 49
-0.1
 49
0.1
 49
-0.1
 49
0.1
 49
-0.1
  0
LTYPE
  2
DOT
 70
    64
  3
点線A
 72
    65
 73
     2
 40
0.1125
 49
0.0625
 49
-0.05
  0
LTYPE
  2
DOTX2
 70
    64
  3
点線B
 72
    65
 73
     2
 40
0.275
 49
0.15
 49
-0.125
  0
LTYPE
  2
CONTINUOUS
 70
    64
  3
実線
 72
    65
 73
     0
 40
0.0
  0
LTYPE
  2
CONTINUOUS
 70
    64
  3
実線
 72
    65
 73
     0
 40
0.0
  0
LTYPE
  2
CONTINUOUS
 70
    64
  3
実線
 72
    65
 73
     0
 40
0.0
  0
LTYPE
  2
CONTINUOUS
 70
    64
  3
実線
 72
    65
 73
     0
 40
0.0
  0
LTYPE
  2
CONTINUOUS
 70
    64
  3
実線
 72
    65
 73
     0
 40
0.0
  0
LTYPE
  2
CONTINUOUS
 70
    64
  3
実線
 72
    65
 73
     0
 40
0.0
  0
ENDTAB
  0
TABLE
  2
LAYER
 70
    34
  0
LAYER
  2
通り芯
 70
     0
 62
    15
  6
CONTINUOUS
  0
LAYER
  2
補助線
 70
     0
 62
    16
  6
DOT
  0
LAYER
  2
躯体
 70
     0
 62
    31
  6
CONTINUOUS
  0
LAYER
  2
型材
 70
     0
 62
    32
  6
CONTINUOUS
  0
LAYER
  2
型材断面
 70
     0
 62
    47
  6
CONTINUOUS
  0
LAYER
  2
ガラス
 70
     0
 62
    48
  6
CONTINUOUS
  0
LAYER
  2
ゴム等
 70
     0
 62
    63
  6
CONTINUOUS
  0
LAYER
  2
ボルト／ビス
 70
     0
 62
    64
  6
CONTINUOUS
  0
LAYER
  2
文字
 70
     0
 62
    79
  6
CONTINUOUS
  0
LAYER
  2
寸法
 70
     0
 62
    80
  6
CONTINUOUS
  0
LAYER
  2
ﾊｯﾁﾝｸﾞ
 70
     0
 62
    95
  6
CONTINUOUS
  0
LAYER
  2
別途部材
 70
     0
 62
    96
  6
CONTINUOUS
  0
LAYER
  2
曲げ物
 70
     0
 62
   111
  6
CONTINUOUS
  0
LAYER
  2
鉄骨等
 70
     0
 62
   112
  6
CONTINUOUS
  0
LAYER
  2
St
 70
     0
 62
   127
  6
CONTINUOUS
  0
LAYER
  2
その他部品等
 70
     0
 62
   128
  6
CONTINUOUS
  0
LAYER
  2
ｶﾞｽｹｯﾄ
 70
     0
 62
   143
  6
CONTINUOUS
  0
LAYER
  2
ｽｹｯﾁ
 70
     0
 62
    14
  6
CONTINUOUS
  0
LAYER
  2
0
 70
     0
 62
    17
  6
CONTINUOUS
  0
LAYER
  2
1
 70
     0
 62
    30
  6
CONTINUOUS
  0
LAYER
  2
4
 70
     0
 62
    33
  6
CONTINUOUS
  0
LAYER
  2
ﾚｲﾔ3
 70
     0
 62
    46
  6
CONTINUOUS
  0
LAYER
  2
外形線
 70
     0
 62
    49
  6
CONTINUOUS
  0
LAYER
  2
部品
 70
     0
 62
    14
  6
CONTINUOUS
  0
LAYER
  2
サッシ芯
 70
     0
 62
    17
  6
DASHDOTX2
  0
LAYER
  2
寸法線
 70
     0
 62
    62
  6
CONTINUOUS
  0
LAYER
  2
姿図外形線
 70
     0
 62
    65
  6
CONTINUOUS
  0
LAYER
  2
姿補助線
 70
     0
 62
    30
  6
CONTINUOUS
  0
LAYER
  2
透視線
 70
     0
 62
    78
  6
DOT
  0
LAYER
  2
用紙
 70
     0
 62
    81
  6
CONTINUOUS
  0
LAYER
  2
実線図枠
 70
     0
 62
    94
  6
CONTINUOUS
  0
LAYER
  2
補助図枠
 70
     0
 62
    97
  6
CONTINUOUS
  0
LAYER
  2
建具記号
 70
     0
 62
   110
  6
CONTINUOUS
  0
LAYER
  2
補助文字
 70
     0
 62
   113
  6
CONTINUOUS
  0
ENDTAB
  0
TABLE
  2
STYLE
 70
    10
  0
STYLE
  2
STANDARD
 70
     0
 40
1.0
 41
1.0
 42
1.0
 50
0.0
 71
     0
  3
TXT
  4
BIGFONT
  0
STYLE
  2
TATE
 70
     4
 40
1.0
 41
1.0
 42
1.0
 50
0.0
 71
     0
  3
TXT
  4
BIGFONT
  0
STYLE
  2
TextStyle03
 70
     0
 40
1.0
 41
1.0
 42
1.0
 50
0.0
 71
     0
  3
MONOTXT
  4
BIGFONT
  0
STYLE
  2
TextStyle04
 70
     0
 40
1.0
 41
1.0
 42
1.0
 50
0.0
 71
     0
  3
MONOTXT
  4
BIGFONT
  0
STYLE
  2
TextStyle05
 70
     0
 40
1.0
 41
1.0
 42
1.0
 50
0.0
 71
     0
  3
MONOTXT
  4
BIGFONT
  0
STYLE
  2
TextStyle06
 70
     0
 40
1.0
 41
1.0
 42
1.0
 50
0.0
 71
     0
  3
MONOTXT
  4
BIGFONT
  0
STYLE
  2
TextStyle07
 70
     0
 40
1.0
 41
1.0
 42
1.0
 50
0.0
 71
     0
  3
MONOTXT
  4
BIGFONT
  0
STYLE
  2
TextStyle08
 70
     0
 40
1.0
 41
1.0
 42
1.0
 50
0.0
 71
     0
  3
MONOTXT
  4
BIGFONT
  0
STYLE
  2
TextStyle09
 70
     0
 40
1.0
 41
1.0
 42
1.0
 50
0.0
 71
     0
  3
MONOTXT
  4
BIGFONT
  0
STYLE
  2
TextStyle10
 70
     0
 40
1.0
 41
1.0
 42
1.0
 50
0.0
 71
     0
  3
MONOTXT
  4
BIGFONT
  0
ENDTAB
  0
ENDSEC
  0
SECTION
  2
BLOCKS
  0
BLOCK
  2
*GRP_0001
 70
    65
 10
0.0
 20
0.0
  0
LINE
  8
型材断面
  6
CONTINUOUS
 10
195.0
 20
133.5
 11
195.0
 21
-133.5
  0
LINE
  8
型材断面
  6
CONTINUOUS
 10
195.0
 20
-133.5
 11
-185.0
 21
-133.5
  0
LINE
  8
型材断面
  6
CONTINUOUS
 10
-185.0
 20
-133.5
 11
-185.0
 21
133.5
  0
LINE
  8
型材断面
  6
CONTINUOUS
 10
195.0
 20
133.5
 11
-185.0
 21
133.5
  0
LINE
  8
型材断面
  6
CONTINUOUS
 10
145.0
 20
-133.5
 11
145.0
 21
-118.5
  0
LINE
  8
型材断面
  6
CONTINUOUS
 10
195.0
 20
-118.5
 11
145.0
 21
-118.5
  0
ENDBLK
  0
BLOCK
  2
*DIM_0002
 70
    65
 10
0.0
 20
0.0
  0
LINE
  8
寸法
  6
BYBLOCK
 62
     0
 10
7.403067
 20
-61.87628
 11
37.372718
 21
-61.87628
  0
LINE
  8
寸法
  6
BYBLOCK
 62
     0
 10
37.372718
 20
-70.209613
 11
37.372718
 21
-61.87628
  0
POINT
  8
寸法
 62
     0
 10
37.372718
 20
-70.209613
  0
POINT
  8
寸法
 62
     0
 10
37.372718
 20
-61.87628
  0
TEXT
  7
TextStyle03
  8
寸法
  6
CONTINUOUS
 62
     0
 10
37.05
 20
-68.5125
  1
250
 40
3.0
 50
90.0
 72
     5
 11
37.05
 21
-63.6375
  0
ENDBLK
  0
BLOCK
  2
*DIM_0003
 70
    65
 10
0.0
 20
0.0
  0
LINE
  8
寸法
  6
BYBLOCK
 62
     0
 10
-78.596933
 20
-13.511205
 11
-78.596933
 21
-13.121378
  0
LINE
  8
寸法
  6
BYBLOCK
 62
     0
 10
21.403067
 20
-13.121378
 11
-78.596933
 21
-13.121378
  0
POINT
  8
寸法
 62
     0
 10
21.403067
 20
-13.121378
  0
POINT
  8
寸法
 62
     0
 10
-78.596933
 20
-13.121378
  0
TEXT
  7
TextStyle03
  8
寸法
  6
CONTINUOUS
 62
     0
 10
-40.31875
 20
-12.75
  1
呼称寸法　3000
 40
3.0
 72
     5
 11
-16.88125
 21
-12.75
  0
ENDBLK
  0
BLOCK
  2
*DIM_0004
 70
    65
 10
0.0
 20
0.0
  0
LINE
  8
寸法
  6
BYBLOCK
 62
     0
 10
-61.930265
 20
19.183902
 11
-61.930265
 21
14.10329
  0
LINE
  8
寸法
  6
BYBLOCK
 62
     0
 10
4.7364
 20
19.183902
 11
4.7364
 21
14.10329
  0
LINE
  8
寸法
  6
BYBLOCK
 62
     0
 10
-61.930265
 20
14.10329
 11
4.7364
 21
14.10329
  0
POINT
  8
寸法
 62
     0
 10
-61.930265
 20
14.10329
  0
POINT
  8
寸法
 62
     0
 10
4.7364
 20
14.10329
  0
TEXT
  7
TextStyle03
  8
寸法
  6
CONTINUOUS
 62
     0
 10
-31.88125
 20
14.475
  1
2000
 40
3.0
 72
     5
 11
-25.31875
 21
14.475
  0
ENDBLK
  0
BLOCK
  2
*DIM_0005
 70
    65
 10
0.0
 20
0.0
  0
LINE
  8
寸法
  6
BYBLOCK
 62
     0
 10
22.403067
 20
52.814035
 11
32.12735
 21
52.814035
  0
LINE
  8
寸法
  6
BYBLOCK
 62
     0
 10
25.033197
 20
49.114035
 11
32.12735
 21
49.114035
  0
LINE
  8
寸法
  6
BYBLOCK
 62
     0
 10
32.12735
 20
52.814035
 11
32.12735
 21
49.114035
  0
POINT
  8
寸法
 62
     0
 10
32.12735
 20
52.814035
  0
POINT
  8
寸法
 62
     0
 10
32.12735
 20
49.114035
  0
TEXT
  7
TextStyle03
  8
寸法
  6
CONTINUOUS
 62
     0
 10
31.8
 20
53.8125
  1
111
 40
3.0
 50
90.0
 72
     5
 11
31.8
 21
58.6875
  0
ENDBLK
  0
BLOCK
  2
*DIM_0006
 70
    65
 10
0.0
 20
0.0
  0
LINE
  8
寸法
  6
BYBLOCK
 62
     0
 10
22.403067
 20
22.81403
 11
32.12735
 21
22.814027
  0
LINE
  8
寸法
  6
BYBLOCK
 62
     0
 10
25.033197
 20
26.51403
 11
32.12735
 21
26.514027
  0
LINE
  8
寸法
  6
BYBLOCK
 62
     0
 10
32.12735
 20
22.814027
 11
32.12735
 21
26.514027
  0
POINT
  8
寸法
 62
     0
 10
32.12735
 20
22.814027
  0
POINT
  8
寸法
 62
     0
 10
32.12735
 20
26.514027
  0
TEXT
  7
TextStyle03
  8
寸法
  6
CONTINUOUS
 62
     0
 10
31.8
 20
16.9375
  1
111
 40
3.0
 50
90.0
 72
     5
 11
31.8
 21
21.8125
  0
ENDBLK
  0
BLOCK
  2
*GRP_0007
 70
    65
 10
0.0
 20
0.0
  0
LINE
  8
別途部材
  6
CONTINUOUS
 62
    96
 10
-80.263598
 20
-70.209613
 11
-80.663598
 21
-71.209613
  0
ARC
  8
別途部材
  6
CONTINUOUS
 10
-63.596932
 20
-79.542947
 40
17.666667
 50
90.0
 51
148.109204
  0
LINE
  8
別途部材
  6
CONTINUOUS
 62
    96
 10
-80.263598
 20
-70.209613
 11
-28.596933
 21
-70.209613
  0
LINE
  8
別途部材
  6
CONTINUOUS
 10
-80.663598
 20
-71.209613
 11
-28.596933
 21
-71.209613
  0
LINE
  8
別途部材
  6
CONTINUOUS
 10
-29.096933
 20
-60.87628
 11
-30.096933
 21
-61.87628
  0
LINE
  8
別途部材
  6
CONTINUOUS
 10
-31.096933
 20
-61.87628
 11
-32.096933
 21
-60.87628
  0
LINE
  8
別途部材
  6
CONTINUOUS
 10
-33.096933
 20
-60.87628
 11
-34.096933
 21
-61.87628
  0
LINE
  8
別途部材
  6
CONTINUOUS
 10
-32.096933
 20
-60.87628
 11
-33.096933
 21
-60.87628
  0
LINE
  8
別途部材
  6
CONTINUOUS
 10
-29.096933
 20
-60.87628
 11
-28.596933
 21
-60.87628
  0
LINE
  8
別途部材
  6
CONTINUOUS
 10
-35.096933
 20
-61.87628
 11
-36.096933
 21
-60.87628
  0
LINE
  8
別途部材
  6
CONTINUOUS
 10
-37.096933
 20
-60.87628
 11
-38.096933
 21
-61.87628
  0
LINE
  8
別途部材
  6
CONTINUOUS
 10
-36.096933
 20
-60.87628
 11
-37.096933
 21
-60.87628
  0
LINE
  8
別途部材
  6
CONTINUOUS
 10
-39.096933
 20
-61.87628
 11
-40.096933
 21
-60.87628
  0
LINE
  8
別途部材
  6
CONTINUOUS
 10
-41.096933
 20
-60.87628
 11
-42.096933
 21
-61.87628
  0
LINE
  8
別途部材
  6
CONTINUOUS
 10
-40.096933
 20
-60.87628
 11
-41.096933
 21
-60.87628
  0
LINE
  8
別途部材
  6
CONTINUOUS
 10
-43.096933
 20
-61.87628
 11
-44.096933
 21
-60.87628
  0
LINE
  8
別途部材
  6
CONTINUOUS
 10
-45.096933
 20
-60.87628
 11
-46.096933
 21
-61.87628
  0
LINE
  8
別途部材
  6
CONTINUOUS
 10
-44.096933
 20
-60.87628
 11
-45.096933
 21
-60.87628
  0
LINE
  8
別途部材
  6
CONTINUOUS
 10
-47.096933
 20
-61.87628
 11
-48.096933
 21
-60.87628
  0
LINE
  8
別途部材
  6
CONTINUOUS
 10
-49.096933
 20
-60.87628
 11
-50.096933
 21
-61.87628
  0
LINE
  8
別途部材
  6
CONTINUOUS
 10
-48.096933
 20
-60.87628
 11
-49.096933
 21
-60.87628
  0
LINE
  8
別途部材
  6
CONTINUOUS
 10
-51.096933
 20
-61.87628
 11
-52.096933
 21
-60.87628
  0
LINE
  8
別途部材
  6
CONTINUOUS
 10
-53.096933
 20
-60.87628
 11
-54.096933
 21
-61.87628
  0
LINE
  8
別途部材
  6
CONTINUOUS
 10
-52.096933
 20
-60.87628
 11
-53.096933
 21
-60.87628
  0
LINE
  8
別途部材
  6
CONTINUOUS
 10
-55.096933
 20
-61.87628
 11
-56.096933
 21
-60.87628
  0
LINE
  8
別途部材
  6
CONTINUOUS
 10
-57.096933
 20
-60.87628
 11
-58.096933
 21
-61.87628
  0
LINE
  8
別途部材
  6
CONTINUOUS
 10
-56.096933
 20
-60.87628
 11
-57.096933
 21
-60.87628
  0
LINE
  8
別途部材
  6
CONTINUOUS
 10
-59.096933
 20
-61.87628
 11
-60.096933
 21
-60.87628
  0
LINE
  8
別途部材
  6
CONTINUOUS
 10
-61.096933
 20
-60.87628
 11
-62.096933
 21
-61.87628
  0
LINE
  8
別途部材
  6
CONTINUOUS
 10
-60.096933
 20
-60.87628
 11
-61.096933
 21
-60.87628
  0
LINE
  8
別途部材
  6
CONTINUOUS
 10
-58.096933
 20
-61.87628
 11
-59.096933
 21
-61.87628
  0
LINE
  8
別途部材
  6
CONTINUOUS
 10
-54.096933
 20
-61.87628
 11
-55.096933
 21
-61.87628
  0
LINE
  8
別途部材
  6
CONTINUOUS
 10
-50.096933
 20
-61.87628
 11
-51.096933
 21
-61.87628
  0
LINE
  8
別途部材
  6
CONTINUOUS
 10
-46.096933
 20
-61.87628
 11
-47.096933
 21
-61.87628
  0
LINE
  8
別途部材
  6
CONTINUOUS
 10
-42.096933
 20
-61.87628
 11
-43.096933
 21
-61.87628
  0
LINE
  8
別途部材
  6
CONTINUOUS
 10
-38.096933
 20
-61.87628
 11
-39.096933
 21
-61.87628
  0
LINE
  8
別途部材
  6
CONTINUOUS
 10
-34.096933
 20
-61.87628
 11
-35.096933
 21
-61.87628
  0
LINE
  8
別途部材
  6
CONTINUOUS
 10
-31.096933
 20
-61.87628
 11
-30.096933
 21
-61.87628
  0
LINE
  8
別途部材
  6
CONTINUOUS
 10
-62.096933
 20
-61.87628
 11
-62.096933
 21
-70.209613
  0
LINE
  8
別途部材
  6
CONTINUOUS
 10
-61.096933
 20
-60.87628
 11
-61.096933
 21
-70.209613
  0
LINE
  8
別途部材
  6
CONTINUOUS
 10
-59.096933
 20
-61.87628
 11
-59.096933
 21
-70.209613
  0
LINE
  8
別途部材
  6
CONTINUOUS
 10
-60.096933
 20
-60.87628
 11
-60.096933
 21
-70.209613
  0
LINE
  8
別途部材
  6
CONTINUOUS
 10
-57.096933
 20
-60.87628
 11
-57.096933
 21
-70.209613
  0
LINE
  8
別途部材
  6
CONTINUOUS
 10
-58.096933
 20
-61.87628
 11
-58.096933
 21
-70.209613
  0
LINE
  8
別途部材
  6
CONTINUOUS
 10
-54.096933
 20
-61.87628
 11
-54.096933
 21
-70.209613
  0
LINE
  8
別途部材
  6
CONTINUOUS
 10
-53.096933
 20
-60.87628
 11
-53.096933
 21
-70.209613
  0
LINE
  8
別途部材
  6
CONTINUOUS
 10
-52.096933
 20
-60.87628
 11
-52.096933
 21
-70.209613
  0
LINE
  8
別途部材
  6
CONTINUOUS
 10
-55.096933
 20
-61.87628
 11
-55.096933
 21
-70.209613
  0
LINE
  8
別途部材
  6
CONTINUOUS
 10
-56.096933
 20
-60.87628
 11
-56.096933
 21
-70.209613
  0
LINE
  8
別途部材
  6
CONTINUOUS
 10
-48.096933
 20
-60.87628
 11
-48.096933
 21
-70.209613
  0
LINE
  8
別途部材
  6
CONTINUOUS
 10
-50.096933
 20
-61.87628
 11
-50.096933
 21
-70.209613
  0
LINE
  8
別途部材
  6
CONTINUOUS
 10
-51.096933
 20
-61.87628
 11
-51.096933
 21
-70.209613
  0
LINE
  8
別途部材
  6
CONTINUOUS
 10
-49.096933
 20
-60.87628
 11
-49.096933
 21
-70.209613
  0
LINE
  8
別途部材
  6
CONTINUOUS
 10
-47.096933
 20
-61.87628
 11
-47.096933
 21
-70.209613
  0
LINE
  8
別途部材
  6
CONTINUOUS
 10
-45.096933
 20
-60.87628
 11
-45.096933
 21
-70.209613
  0
LINE
  8
別途部材
  6
CONTINUOUS
 10
-44.096933
 20
-60.87628
 11
-44.096933
 21
-70.209613
  0
LINE
  8
別途部材
  6
CONTINUOUS
 10
-42.096933
 20
-61.87628
 11
-42.096933
 21
-70.209613
  0
LINE
  8
別途部材
  6
CONTINUOUS
 10
-43.096933
 20
-61.87628
 11
-43.096933
 21
-70.209613
  0
LINE
  8
別途部材
  6
CONTINUOUS
 10
-46.096933
 20
-61.87628
 11
-46.096933
 21
-70.209613
  0
LINE
  8
別途部材
  6
CONTINUOUS
 10
-41.096933
 20
-60.87628
 11
-41.096933
 21
-70.209613
  0
LINE
  8
別途部材
  6
CONTINUOUS
 10
-39.096933
 20
-61.87628
 11
-39.096933
 21
-70.209613
  0
LINE
  8
別途部材
  6
CONTINUOUS
 10
-40.096933
 20
-60.87628
 11
-40.096933
 21
-70.209613
  0
LINE
  8
別途部材
  6
CONTINUOUS
 10
-38.096933
 20
-61.87628
 11
-38.096933
 21
-70.209613
  0
LINE
  8
別途部材
  6
CONTINUOUS
 10
-37.096933
 20
-60.87628
 11
-37.096933
 21
-70.209613
  0
LINE
  8
別途部材
  6
CONTINUOUS
 10
-35.096933
 20
-61.87628
 11
-35.096933
 21
-70.209613
  0
LINE
  8
別途部材
  6
CONTINUOUS
 10
-36.096933
 20
-60.87628
 11
-36.096933
 21
-70.209613
  0
LINE
  8
別途部材
  6
CONTINUOUS
 10
-34.096933
 20
-61.87628
 11
-34.096933
 21
-70.209613
  0
LINE
  8
別途部材
  6
CONTINUOUS
 10
-33.096933
 20
-60.87628
 11
-33.096933
 21
-70.209613
  0
LINE
  8
別途部材
  6
CONTINUOUS
 10
-31.096933
 20
-61.87628
 11
-31.096933
 21
-70.209613
  0
LINE
  8
別途部材
  6
CONTINUOUS
 10
-32.096933
 20
-60.87628
 11
-32.096933
 21
-70.209613
  0
LINE
  8
別途部材
  6
CONTINUOUS
 10
-30.096933
 20
-61.87628
 11
-30.096933
 21
-70.209613
  0
LINE
  8
別途部材
  6
CONTINUOUS
 10
-29.096933
 20
-60.87628
 11
-29.096933
 21
-70.209613
  0
LINE
  8
別途部材
  6
CONTINUOUS
 10
-62.096933
 20
-61.87628
 11
-63.596933
 21
-61.87628
  0
LINE
  8
別途部材
  6
CONTINUOUS
 62
    96
 10
23.069735
 20
-70.209613
 11
23.469735
 21
-71.209613
  0
ARC
  8
別途部材
  6
CONTINUOUS
 10
6.403068
 20
-79.542947
 40
17.666667
 50
31.890796
 51
90.0
  0
LINE
  8
別途部材
  6
CONTINUOUS
 62
    96
 10
23.069735
 20
-70.209613
 11
-28.596933
 21
-70.209613
  0
LINE
  8
別途部材
  6
CONTINUOUS
 10
23.469735
 20
-71.209613
 11
-28.596933
 21
-71.209613
  0
LINE
  8
別途部材
  6
CONTINUOUS
 10
-28.096933
 20
-60.87628
 11
-27.096933
 21
-61.87628
  0
LINE
  8
別途部材
  6
CONTINUOUS
 10
-26.096933
 20
-61.87628
 11
-25.096933
 21
-60.87628
  0
LINE
  8
別途部材
  6
CONTINUOUS
 10
-24.096933
 20
-60.87628
 11
-23.096933
 21
-61.87628
  0
LINE
  8
別途部材
  6
CONTINUOUS
 10
-25.096933
 20
-60.87628
 11
-24.096933
 21
-60.87628
  0
LINE
  8
別途部材
  6
CONTINUOUS
 10
-28.096933
 20
-60.87628
 11
-28.596933
 21
-60.87628
  0
LINE
  8
別途部材
  6
CONTINUOUS
 10
-22.096933
 20
-61.87628
 11
-21.096933
 21
-60.87628
  0
LINE
  8
別途部材
  6
CONTINUOUS
 10
-20.096933
 20
-60.87628
 11
-19.096933
 21
-61.87628
  0
LINE
  8
別途部材
  6
CONTINUOUS
 10
-21.096933
 20
-60.87628
 11
-20.096933
 21
-60.87628
  0
LINE
  8
別途部材
  6
CONTINUOUS
 10
-18.096933
 20
-61.87628
 11
-17.096933
 21
-60.87628
  0
LINE
  8
別途部材
  6
CONTINUOUS
 10
-16.096933
 20
-60.87628
 11
-15.096933
 21
-61.87628
  0
LINE
  8
別途部材
  6
CONTINUOUS
 10
-17.096933
 20
-60.87628
 11
-16.096933
 21
-60.87628
  0
LINE
  8
別途部材
  6
CONTINUOUS
 10
-14.096933
 20
-61.87628
 11
-13.096933
 21
-60.87628
  0
LINE
  8
別途部材
  6
CONTINUOUS
 10
-12.096933
 20
-60.87628
 11
-11.096933
 21
-61.87628
  0
LINE
  8
別途部材
  6
CONTINUOUS
 10
-13.096933
 20
-60.87628
 11
-12.096933
 21
-60.87628
  0
LINE
  8
別途部材
  6
CONTINUOUS
 10
-10.096933
 20
-61.87628
 11
-9.096933
 21
-60.87628
  0
LINE
  8
別途部材
  6
CONTINUOUS
 10
-8.096933
 20
-60.87628
 11
-7.096933
 21
-61.87628
  0
LINE
  8
別途部材
  6
CONTINUOUS
 10
-9.096933
 20
-60.87628
 11
-8.096933
 21
-60.87628
  0
LINE
  8
別途部材
  6
CONTINUOUS
 10
-6.096933
 20
-61.87628
 11
-5.096933
 21
-60.87628
  0
LINE
  8
別途部材
  6
CONTINUOUS
 10
-4.096933
 20
-60.87628
 11
-3.096933
 21
-61.87628
  0
LINE
  8
別途部材
  6
CONTINUOUS
 10
-5.096933
 20
-60.87628
 11
-4.096933
 21
-60.87628
  0
LINE
  8
別途部材
  6
CONTINUOUS
 10
-2.096933
 20
-61.87628
 11
-1.096933
 21
-60.87628
  0
LINE
  8
別途部材
  6
CONTINUOUS
 10
-0.096933
 20
-60.87628
 11
0.903067
 21
-61.87628
  0
LINE
  8
別途部材
  6
CONTINUOUS
 10
-1.096933
 20
-60.87628
 11
-0.096933
 21
-60.87628
  0
LINE
  8
別途部材
  6
CONTINUOUS
 10
1.903067
 20
-61.87628
 11
2.903067
 21
-60.87628
  0
LINE
  8
別途部材
  6
CONTINUOUS
 10
3.903067
 20
-60.87628
 11
4.903067
 21
-61.87628
  0
LINE
  8
別途部材
  6
CONTINUOUS
 10
2.903067
 20
-60.87628
 11
3.903067
 21
-60.87628
  0
LINE
  8
別途部材
  6
CONTINUOUS
 10
0.903067
 20
-61.87628
 11
1.903067
 21
-61.87628
  0
LINE
  8
別途部材
  6
CONTINUOUS
 10
-3.096933
 20
-61.87628
 11
-2.096933
 21
-61.87628
  0
LINE
  8
別途部材
  6
CONTINUOUS
 10
-7.096933
 20
-61.87628
 11
-6.096933
 21
-61.87628
  0
LINE
  8
別途部材
  6
CONTINUOUS
 10
-11.096933
 20
-61.87628
 11
-10.096933
 21
-61.87628
  0
LINE
  8
別途部材
  6
CONTINUOUS
 10
-15.096933
 20
-61.87628
 11
-14.096933
 21
-61.87628
  0
LINE
  8
別途部材
  6
CONTINUOUS
 10
-19.096933
 20
-61.87628
 11
-18.096933
 21
-61.87628
  0
LINE
  8
別途部材
  6
CONTINUOUS
 10
-23.096933
 20
-61.87628
 11
-22.096933
 21
-61.87628
  0
LINE
  8
別途部材
  6
CONTINUOUS
 10
-26.096933
 20
-61.87628
 11
-27.096933
 21
-61.87628
  0
LINE
  8
別途部材
  6
CONTINUOUS
 10
4.903067
 20
-61.87628
 11
4.903067
 21
-70.209613
  0
LINE
  8
別途部材
  6
CONTINUOUS
 10
3.903067
 20
-60.87628
 11
3.903067
 21
-70.209613
  0
LINE
  8
別途部材
  6
CONTINUOUS
 10
1.903067
 20
-61.87628
 11
1.903067
 21
-70.209613
  0
LINE
  8
別途部材
  6
CONTINUOUS
 10
2.903067
 20
-60.87628
 11
2.903067
 21
-70.209613
  0
LINE
  8
別途部材
  6
CONTINUOUS
 10
-0.096933
 20
-60.87628
 11
-0.096933
 21
-70.209613
  0
LINE
  8
別途部材
  6
CONTINUOUS
 10
0.903067
 20
-61.87628
 11
0.903067
 21
-70.209613
  0
LINE
  8
別途部材
  6
CONTINUOUS
 10
-3.096933
 20
-61.87628
 11
-3.096933
 21
-70.209613
  0
LINE
  8
別途部材
  6
CONTINUOUS
 10
-4.096933
 20
-60.87628
 11
-4.096933
 21
-70.209613
  0
LINE
  8
別途部材
  6
CONTINUOUS
 10
-5.096933
 20
-60.87628
 11
-5.096933
 21
-70.209613
  0
LINE
  8
別途部材
  6
CONTINUOUS
 10
-2.096933
 20
-61.87628
 11
-2.096933
 21
-70.209613
  0
LINE
  8
別途部材
  6
CONTINUOUS
 10
-1.096933
 20
-60.87628
 11
-1.096933
 21
-70.209613
  0
LINE
  8
別途部材
  6
CONTINUOUS
 10
-9.096933
 20
-60.87628
 11
-9.096933
 21
-70.209613
  0
LINE
  8
別途部材
  6
CONTINUOUS
 10
-7.096933
 20
-61.87628
 11
-7.096933
 21
-70.209613
  0
LINE
  8
別途部材
  6
CONTINUOUS
 10
-6.096933
 20
-61.87628
 11
-6.096933
 21
-70.209613
  0
LINE
  8
別途部材
  6
CONTINUOUS
 10
-8.096933
 20
-60.87628
 11
-8.096933
 21
-70.209613
  0
LINE
  8
別途部材
  6
CONTINUOUS
 10
-10.096933
 20
-61.87628
 11
-10.096933
 21
-70.209613
  0
LINE
  8
別途部材
  6
CONTINUOUS
 10
-12.096933
 20
-60.87628
 11
-12.096933
 21
-70.209613
  0
LINE
  8
別途部材
  6
CONTINUOUS
 10
-13.096933
 20
-60.87628
 11
-13.096933
 21
-70.209613
  0
LINE
  8
別途部材
  6
CONTINUOUS
 10
-15.096933
 20
-61.87628
 11
-15.096933
 21
-70.209613
  0
LINE
  8
別途部材
  6
CONTINUOUS
 10
-14.096933
 20
-61.87628
 11
-14.096933
 21
-70.209613
  0
LINE
  8
別途部材
  6
CONTINUOUS
 10
-11.096933
 20
-61.87628
 11
-11.096933
 21
-70.209613
  0
LINE
  8
別途部材
  6
CONTINUOUS
 10
-16.096933
 20
-60.87628
 11
-16.096933
 21
-70.209613
  0
LINE
  8
別途部材
  6
CONTINUOUS
 10
-18.096933
 20
-61.87628
 11
-18.096933
 21
-70.209613
  0
LINE
  8
別途部材
  6
CONTINUOUS
 10
-17.096933
 20
-60.87628
 11
-17.096933
 21
-70.209613
  0
LINE
  8
別途部材
  6
CONTINUOUS
 10
-19.096933
 20
-61.87628
 11
-19.096933
 21
-70.209613
  0
LINE
  8
別途部材
  6
CONTINUOUS
 10
-20.096933
 20
-60.87628
 11
-20.096933
 21
-70.209613
  0
LINE
  8
別途部材
  6
CONTINUOUS
 10
-22.096933
 20
-61.87628
 11
-22.096933
 21
-70.209613
  0
LINE
  8
別途部材
  6
CONTINUOUS
 10
-21.096933
 20
-60.87628
 11
-21.096933
 21
-70.209613
  0
LINE
  8
別途部材
  6
CONTINUOUS
 10
-23.096933
 20
-61.87628
 11
-23.096933
 21
-70.209613
  0
LINE
  8
別途部材
  6
CONTINUOUS
 10
-24.096933
 20
-60.87628
 11
-24.096933
 21
-70.209613
  0
LINE
  8
別途部材
  6
CONTINUOUS
 10
-26.096933
 20
-61.87628
 11
-26.096933
 21
-70.209613
  0
LINE
  8
別途部材
  6
CONTINUOUS
 10
-25.096933
 20
-60.87628
 11
-25.096933
 21
-70.209613
  0
LINE
  8
別途部材
  6
CONTINUOUS
 10
-27.096933
 20
-61.87628
 11
-27.096933
 21
-70.209613
  0
LINE
  8
別途部材
  6
CONTINUOUS
 10
-28.096933
 20
-60.87628
 11
-28.096933
 21
-70.209613
  0
LINE
  8
別途部材
  6
CONTINUOUS
 10
4.903067
 20
-61.87628
 11
6.403067
 21
-61.87628
  0
ENDBLK
  0
BLOCK
  2
*GRP_0008
 70
    65
 10
0.0
 20
0.0
  0
LINE
  8
補助線
  6
BYBLOCK
 62
    64
 10
-75.199857
 20
-75.116097
 11
-75.327343
 21
-75.223458
  0
LINE
  8
補助線
  6
BYBLOCK
 62
    64
 10
-75.31728
 20
-75.106033
 11
-75.20992
 21
-75.23352
  0
LINE
  8
補助線
  6
BYBLOCK
 62
    64
 10
-66.70944
 20
-67.966075
 11
-66.836925
 21
-68.07343
  0
LINE
  8
補助線
  6
BYBLOCK
 62
    64
 10
-66.826862
 20
-67.95601
 11
-66.719503
 21
-68.083493
  0
LINE
  8
補助線
  6
BYBLOCK
 62
    64
 10
-58.346505
 20
-60.923405
 11
-58.219023
 21
-60.816047
  0
LINE
  8
補助線
  6
BYBLOCK
 62
    64
 10
-58.336445
 20
-60.805983
 11
-58.229085
 21
-60.93347
  0
LINE
  8
型材断面
  6
CONTINUOUS
 10
-76.055355
 20
-74.747075
 11
-76.115733
 21
-75.4516
  0
LINE
  8
型材断面
  6
CONTINUOUS
 10
-76.115733
 20
-75.4516
 11
-75.6863
 21
-75.961535
  0
LINE
  8
型材断面
  6
CONTINUOUS
 10
-75.6863
 20
-75.961535
 11
-74.981775
 21
-76.021912
  0
LINE
  8
型材断面
  6
CONTINUOUS
 10
-58.564588
 20
-60.017595
 11
-57.860063
 21
-60.077973
  0
LINE
  8
型材断面
  6
CONTINUOUS
 10
-57.860063
 20
-60.077973
 11
-57.43063
 21
-60.587907
  0
LINE
  8
型材断面
  6
CONTINUOUS
 10
-57.43063
 20
-60.587907
 11
-57.491007
 21
-61.292432
  0
LINE
  8
型材断面
  6
CONTINUOUS
 10
-76.055355
 20
-74.747075
 11
-58.564588
 21
-60.017595
  0
LINE
  8
型材断面
  6
CONTINUOUS
 10
-74.981775
 20
-76.021912
 11
-57.491007
 21
-61.292432
  0
CIRCLE
  8
ボルト／ビス
  6
CONTINUOUS
 10
-75.2636
 20
-75.169777
 40
0.250185
  0
CIRCLE
  8
ボルト／ビス
  6
CONTINUOUS
 10
-75.2636
 20
-75.169777
 40
0.301025
  0
LINE
  8
ボルト／ビス
  6
CONTINUOUS
 62
    64
 10
-75.509908
 20
-75.21366
 11
-75.424755
 21
-74.978413
  0
LINE
  8
ボルト／ビス
  6
CONTINUOUS
 62
    64
 10
-75.178448
 20
-74.934527
 11
-75.424755
 21
-74.978413
  0
LINE
  8
ボルト／ビス
  6
CONTINUOUS
 62
    64
 10
-75.348752
 20
-75.405027
 11
-75.102445
 21
-75.361143
  0
LINE
  8
ボルト／ビス
  6
CONTINUOUS
 62
    64
 10
-75.017292
 20
-75.125895
 11
-75.102445
 21
-75.361143
  0
LINE
  8
ボルト／ビス
  6
CONTINUOUS
 62
    64
 10
-75.509908
 20
-75.21366
 11
-75.348752
 21
-75.405027
  0
LINE
  8
ボルト／ビス
  6
CONTINUOUS
 62
    64
 10
-75.178448
 20
-74.934527
 11
-75.017292
 21
-75.125895
  0
CIRCLE
  8
ボルト／ビス
  6
CONTINUOUS
 62
    64
 10
-75.2636
 20
-75.169777
 40
0.216668
  0
CIRCLE
  8
ボルト／ビス
  6
CONTINUOUS
 10
-66.773182
 20
-68.019752
 40
0.250185
  0
CIRCLE
  8
ボルト／ビス
  6
CONTINUOUS
 10
-66.773182
 20
-68.019752
 40
0.301025
  0
LINE
  8
ボルト／ビス
  6
CONTINUOUS
 62
    64
 10
-67.01949
 20
-68.063635
 11
-66.934338
 21
-67.828385
  0
LINE
  8
ボルト／ビス
  6
CONTINUOUS
 62
    64
 10
-66.68803
 20
-67.784502
 11
-66.934338
 21
-67.828385
  0
LINE
  8
ボルト／ビス
  6
CONTINUOUS
 62
    64
 10
-66.858335
 20
-68.255002
 11
-66.612025
 21
-68.21112
  0
LINE
  8
ボルト／ビス
  6
CONTINUOUS
 62
    64
 10
-66.526875
 20
-67.975872
 11
-66.612025
 21
-68.21112
  0
LINE
  8
ボルト／ビス
  6
CONTINUOUS
 62
    64
 10
-67.01949
 20
-68.063635
 11
-66.858335
 21
-68.255002
  0
LINE
  8
ボルト／ビス
  6
CONTINUOUS
 62
    64
 10
-66.68803
 20
-67.784502
 11
-66.526875
 21
-67.975872
  0
CIRCLE
  8
ボルト／ビス
  6
CONTINUOUS
 62
    64
 10
-66.773182
 20
-68.019752
 40
0.216668
  0
CIRCLE
  8
ボルト／ビス
  6
CONTINUOUS
 10
-58.282762
 20
-60.869728
 40
0.250185
  0
CIRCLE
  8
ボルト／ビス
  6
CONTINUOUS
 10
-58.282762
 20
-60.869728
 40
0.301025
  0
LINE
  8
ボルト／ビス
  6
CONTINUOUS
 62
    64
 10
-58.19761
 20
-60.634477
 11
-58.44392
 21
-60.678363
  0
LINE
  8
ボルト／ビス
  6
CONTINUOUS
 62
    64
 10
-58.529072
 20
-60.91361
 11
-58.44392
 21
-60.678363
  0
LINE
  8
ボルト／ビス
  6
CONTINUOUS
 62
    64
 10
-58.036457
 20
-60.825845
 11
-58.121608
 21
-61.061092
  0
LINE
  8
ボルト／ビス
  6
CONTINUOUS
 62
    64
 10
-58.367918
 20
-61.104978
 11
-58.121608
 21
-61.061092
  0
LINE
  8
ボルト／ビス
  6
CONTINUOUS
 62
    64
 10
-58.19761
 20
-60.634477
 11
-58.036457
 21
-60.825845
  0
LINE
  8
ボルト／ビス
  6
CONTINUOUS
 62
    64
 10
-58.529072
 20
-60.91361
 11
-58.367918
 21
-61.104978
  0
CIRCLE
  8
ボルト／ビス
  6
CONTINUOUS
 62
    64
 10
-58.282762
 20
-60.869728
 40
0.216668
  0
ENDBLK
  0
BLOCK
  2
*GRP_0009
 70
    65
 10
0.0
 20
0.0
  0
LINE
  8
補助線
  6
BYBLOCK
 62
    64
 10
-58.346508
 20
-75.116097
 11
-58.219023
 21
-75.223458
  0
LINE
  8
補助線
  6
BYBLOCK
 62
    64
 10
-58.229085
 20
-75.106033
 11
-58.336445
 21
-75.23352
  0
LINE
  8
補助線
  6
BYBLOCK
 62
    64
 10
-66.836925
 20
-67.966075
 11
-66.70944
 21
-68.07343
  0
LINE
  8
補助線
  6
BYBLOCK
 62
    64
 10
-66.719503
 20
-67.95601
 11
-66.826862
 21
-68.083493
  0
LINE
  8
補助線
  6
BYBLOCK
 62
    64
 10
-75.19986
 20
-60.923405
 11
-75.327343
 21
-60.816047
  0
LINE
  8
補助線
  6
BYBLOCK
 62
    64
 10
-75.20992
 20
-60.805983
 11
-75.31728
 21
-60.93347
  0
LINE
  8
型材断面
  6
CONTINUOUS
 10
-57.49101
 20
-74.747075
 11
-57.430632
 21
-75.4516
  0
LINE
  8
型材断面
  6
CONTINUOUS
 10
-57.430632
 20
-75.4516
 11
-57.860065
 21
-75.961535
  0
LINE
  8
型材断面
  6
CONTINUOUS
 10
-57.860065
 20
-75.961535
 11
-58.56459
 21
-76.021912
  0
LINE
  8
型材断面
  6
CONTINUOUS
 10
-74.981778
 20
-60.017595
 11
-75.686302
 21
-60.077973
  0
LINE
  8
型材断面
  6
CONTINUOUS
 10
-75.686302
 20
-60.077973
 11
-76.115735
 21
-60.587907
  0
LINE
  8
型材断面
  6
CONTINUOUS
 10
-76.115735
 20
-60.587907
 11
-76.055357
 21
-61.292432
  0
LINE
  8
型材断面
  6
CONTINUOUS
 10
-57.49101
 20
-74.747075
 11
-74.981778
 21
-60.017595
  0
LINE
  8
型材断面
  6
CONTINUOUS
 10
-58.56459
 20
-76.021912
 11
-76.055357
 21
-61.292432
  0
CIRCLE
  8
ボルト／ビス
  6
CONTINUOUS
 10
-58.282765
 20
-75.169777
 40
0.250185
  0
CIRCLE
  8
ボルト／ビス
  6
CONTINUOUS
 10
-58.282765
 20
-75.169777
 40
0.301025
  0
LINE
  8
ボルト／ビス
  6
CONTINUOUS
 62
    64
 10
-58.036457
 20
-75.21366
 11
-58.12161
 21
-74.978413
  0
LINE
  8
ボルト／ビス
  6
CONTINUOUS
 62
    64
 10
-58.367918
 20
-74.934527
 11
-58.12161
 21
-74.978413
  0
LINE
  8
ボルト／ビス
  6
CONTINUOUS
 62
    64
 10
-58.197613
 20
-75.405027
 11
-58.44392
 21
-75.361143
  0
LINE
  8
ボルト／ビス
  6
CONTINUOUS
 62
    64
 10
-58.529072
 20
-75.125895
 11
-58.44392
 21
-75.361143
  0
LINE
  8
ボルト／ビス
  6
CONTINUOUS
 62
    64
 10
-58.036457
 20
-75.21366
 11
-58.197613
 21
-75.405027
  0
LINE
  8
ボルト／ビス
  6
CONTINUOUS
 62
    64
 10
-58.367918
 20
-74.934527
 11
-58.529072
 21
-75.125895
  0
CIRCLE
  8
ボルト／ビス
  6
CONTINUOUS
 62
    64
 10
-58.282765
 20
-75.169777
 40
0.216668
  0
CIRCLE
  8
ボルト／ビス
  6
CONTINUOUS
 10
-66.773182
 20
-68.019752
 40
0.250185
  0
CIRCLE
  8
ボルト／ビス
  6
CONTINUOUS
 10
-66.773182
 20
-68.019752
 40
0.301025
  0
LINE
  8
ボルト／ビス
  6
CONTINUOUS
 62
    64
 10
-66.526875
 20
-68.063635
 11
-66.612028
 21
-67.828385
  0
LINE
  8
ボルト／ビス
  6
CONTINUOUS
 62
    64
 10
-66.858335
 20
-67.784502
 11
-66.612028
 21
-67.828385
  0
LINE
  8
ボルト／ビス
  6
CONTINUOUS
 62
    64
 10
-66.68803
 20
-68.255002
 11
-66.93434
 21
-68.21112
  0
LINE
  8
ボルト／ビス
  6
CONTINUOUS
 62
    64
 10
-67.01949
 20
-67.975872
 11
-66.93434
 21
-68.21112
  0
LINE
  8
ボルト／ビス
  6
CONTINUOUS
 62
    64
 10
-66.526875
 20
-68.063635
 11
-66.68803
 21
-68.255002
  0
LINE
  8
ボルト／ビス
  6
CONTINUOUS
 62
    64
 10
-66.858335
 20
-67.784502
 11
-67.01949
 21
-67.975872
  0
CIRCLE
  8
ボルト／ビス
  6
CONTINUOUS
 62
    64
 10
-66.773182
 20
-68.019752
 40
0.216668
  0
CIRCLE
  8
ボルト／ビス
  6
CONTINUOUS
 10
-75.263602
 20
-60.869728
 40
0.250185
  0
CIRCLE
  8
ボルト／ビス
  6
CONTINUOUS
 10
-75.263602
 20
-60.869728
 40
0.301025
  0
LINE
  8
ボルト／ビス
  6
CONTINUOUS
 62
    64
 10
-75.348755
 20
-60.634477
 11
-75.102445
 21
-60.678363
  0
LINE
  8
ボルト／ビス
  6
CONTINUOUS
 62
    64
 10
-75.017292
 20
-60.91361
 11
-75.102445
 21
-60.678363
  0
LINE
  8
ボルト／ビス
  6
CONTINUOUS
 62
    64
 10
-75.509908
 20
-60.825845
 11
-75.424758
 21
-61.061092
  0
LINE
  8
ボルト／ビス
  6
CONTINUOUS
 62
    64
 10
-75.178448
 20
-61.104978
 11
-75.424758
 21
-61.061092
  0
LINE
  8
ボルト／ビス
  6
CONTINUOUS
 62
    64
 10
-75.348755
 20
-60.634477
 11
-75.509908
 21
-60.825845
  0
LINE
  8
ボルト／ビス
  6
CONTINUOUS
 62
    64
 10
-75.017292
 20
-60.91361
 11
-75.178448
 21
-61.104978
  0
CIRCLE
  8
ボルト／ビス
  6
CONTINUOUS
 62
    64
 10
-75.263602
 20
-60.869728
 40
0.216668
  0
ENDBLK
  0
BLOCK
  2
*GRP_0010
 70
    65
 10
0.0
 20
0.0
  0
LINE
  8
補助線
  6
BYBLOCK
 62
    64
 10
18.005992
 20
-75.116097
 11
18.133477
 21
-75.223458
  0
LINE
  8
補助線
  6
BYBLOCK
 62
    64
 10
18.123415
 20
-75.106033
 11
18.016055
 21
-75.23352
  0
LINE
  8
補助線
  6
BYBLOCK
 62
    64
 10
9.515575
 20
-67.966075
 11
9.64306
 21
-68.07343
  0
LINE
  8
補助線
  6
BYBLOCK
 62
    64
 10
9.632998
 20
-67.95601
 11
9.525638
 21
-68.083493
  0
LINE
  8
補助線
  6
BYBLOCK
 62
    64
 10
1.15264
 20
-60.923405
 11
1.025158
 21
-60.816047
  0
LINE
  8
補助線
  6
BYBLOCK
 62
    64
 10
1.14258
 20
-60.805983
 11
1.03522
 21
-60.93347
  0
LINE
  8
型材断面
  6
CONTINUOUS
 10
18.86149
 20
-74.747075
 11
18.921868
 21
-75.4516
  0
LINE
  8
型材断面
  6
CONTINUOUS
 10
18.921868
 20
-75.4516
 11
18.492435
 21
-75.961535
  0
LINE
  8
型材断面
  6
CONTINUOUS
 10
18.492435
 20
-75.961535
 11
17.78791
 21
-76.021912
  0
LINE
  8
型材断面
  6
CONTINUOUS
 10
1.370723
 20
-60.017595
 11
0.666198
 21
-60.077973
  0
LINE
  8
型材断面
  6
CONTINUOUS
 10
0.666198
 20
-60.077973
 11
0.236765
 21
-60.587907
  0
LINE
  8
型材断面
  6
CONTINUOUS
 10
0.236765
 20
-60.587907
 11
0.297142
 21
-61.292432
  0
LINE
  8
型材断面
  6
CONTINUOUS
 10
18.86149
 20
-74.747075
 11
1.370723
 21
-60.017595
  0
LINE
  8
型材断面
  6
CONTINUOUS
 10
17.78791
 20
-76.021912
 11
0.297142
 21
-61.292432
  0
CIRCLE
  8
ボルト／ビス
  6
CONTINUOUS
 10
18.069735
 20
-75.169777
 40
0.250185
  0
CIRCLE
  8
ボルト／ビス
  6
CONTINUOUS
 10
18.069735
 20
-75.169777
 40
0.301025
  0
LINE
  8
ボルト／ビス
  6
CONTINUOUS
 62
    64
 10
18.316043
 20
-75.21366
 11
18.23089
 21
-74.978413
  0
LINE
  8
ボルト／ビス
  6
CONTINUOUS
 62
    64
 10
17.984583
 20
-74.934527
 11
18.23089
 21
-74.978413
  0
LINE
  8
ボルト／ビス
  6
CONTINUOUS
 62
    64
 10
18.154888
 20
-75.405027
 11
17.90858
 21
-75.361143
  0
LINE
  8
ボルト／ビス
  6
CONTINUOUS
 62
    64
 10
17.823428
 20
-75.125895
 11
17.90858
 21
-75.361143
  0
LINE
  8
ボルト／ビス
  6
CONTINUOUS
 62
    64
 10
18.316043
 20
-75.21366
 11
18.154888
 21
-75.405027
  0
LINE
  8
ボルト／ビス
  6
CONTINUOUS
 62
    64
 10
17.984583
 20
-74.934527
 11
17.823428
 21
-75.125895
  0
CIRCLE
  8
ボルト／ビス
  6
CONTINUOUS
 62
    64
 10
18.069735
 20
-75.169777
 40
0.216668
  0
CIRCLE
  8
ボルト／ビス
  6
CONTINUOUS
 10
9.579318
 20
-68.019752
 40
0.250185
  0
CIRCLE
  8
ボルト／ビス
  6
CONTINUOUS
 10
9.579318
 20
-68.019752
 40
0.301025
  0
LINE
  8
ボルト／ビス
  6
CONTINUOUS
 62
    64
 10
9.825625
 20
-68.063635
 11
9.740473
 21
-67.828385
  0
LINE
  8
ボルト／ビス
  6
CONTINUOUS
 62
    64
 10
9.494165
 20
-67.784502
 11
9.740473
 21
-67.828385
  0
LINE
  8
ボルト／ビス
  6
CONTINUOUS
 62
    64
 10
9.66447
 20
-68.255002
 11
9.41816
 21
-68.21112
  0
LINE
  8
ボルト／ビス
  6
CONTINUOUS
 62
    64
 10
9.33301
 20
-67.975872
 11
9.41816
 21
-68.21112
  0
LINE
  8
ボルト／ビス
  6
CONTINUOUS
 62
    64
 10
9.825625
 20
-68.063635
 11
9.66447
 21
-68.255002
  0
LINE
  8
ボルト／ビス
  6
CONTINUOUS
 62
    64
 10
9.494165
 20
-67.784502
 11
9.33301
 21
-67.975872
  0
CIRCLE
  8
ボルト／ビス
  6
CONTINUOUS
 62
    64
 10
9.579318
 20
-68.019752
 40
0.216668
  0
CIRCLE
  8
ボルト／ビス
  6
CONTINUOUS
 10
1.088897
 20
-60.869728
 40
0.250185
  0
CIRCLE
  8
ボルト／ビス
  6
CONTINUOUS
 10
1.088897
 20
-60.869728
 40
0.301025
  0
LINE
  8
ボルト／ビス
  6
CONTINUOUS
 62
    64
 10
1.003745
 20
-60.634477
 11
1.250055
 21
-60.678363
  0
LINE
  8
ボルト／ビス
  6
CONTINUOUS
 62
    64
 10
1.335208
 20
-60.91361
 11
1.250055
 21
-60.678363
  0
LINE
  8
ボルト／ビス
  6
CONTINUOUS
 62
    64
 10
0.842592
 20
-60.825845
 11
0.927743
 21
-61.061092
  0
LINE
  8
ボルト／ビス
  6
CONTINUOUS
 62
    64
 10
1.174052
 20
-61.104978
 11
0.927743
 21
-61.061092
  0
LINE
  8
ボルト／ビス
  6
CONTINUOUS
 62
    64
 10
1.003745
 20
-60.634477
 11
0.842592
 21
-60.825845
  0
LINE
  8
ボルト／ビス
  6
CONTINUOUS
 62
    64
 10
1.335208
 20
-60.91361
 11
1.174052
 21
-61.104978
  0
CIRCLE
  8
ボルト／ビス
  6
CONTINUOUS
 62
    64
 10
1.088897
 20
-60.869728
 40
0.216668
  0
ENDBLK
  0
BLOCK
  2
*GRP_0011
 70
    65
 10
0.0
 20
0.0
  0
LINE
  8
補助線
  6
BYBLOCK
 62
    64
 10
1.152643
 20
-75.116097
 11
1.025158
 21
-75.223458
  0
LINE
  8
補助線
  6
BYBLOCK
 62
    64
 10
1.03522
 20
-75.106033
 11
1.14258
 21
-75.23352
  0
LINE
  8
補助線
  6
BYBLOCK
 62
    64
 10
9.64306
 20
-67.966075
 11
9.515575
 21
-68.07343
  0
LINE
  8
補助線
  6
BYBLOCK
 62
    64
 10
9.525638
 20
-67.95601
 11
9.632998
 21
-68.083493
  0
LINE
  8
補助線
  6
BYBLOCK
 62
    64
 10
18.005995
 20
-60.923405
 11
18.133477
 21
-60.816047
  0
LINE
  8
補助線
  6
BYBLOCK
 62
    64
 10
18.016055
 20
-60.805983
 11
18.123415
 21
-60.93347
  0
LINE
  8
型材断面
  6
CONTINUOUS
 10
0.297145
 20
-74.747075
 11
0.236767
 21
-75.4516
  0
LINE
  8
型材断面
  6
CONTINUOUS
 10
0.236767
 20
-75.4516
 11
0.6662
 21
-75.961535
  0
LINE
  8
型材断面
  6
CONTINUOUS
 10
0.6662
 20
-75.961535
 11
1.370725
 21
-76.021912
  0
LINE
  8
型材断面
  6
CONTINUOUS
 10
17.787912
 20
-60.017595
 11
18.492438
 21
-60.077973
  0
LINE
  8
型材断面
  6
CONTINUOUS
 10
18.492438
 20
-60.077973
 11
18.92187
 21
-60.587907
  0
LINE
  8
型材断面
  6
CONTINUOUS
 10
18.92187
 20
-60.587907
 11
18.861492
 21
-61.292432
  0
LINE
  8
型材断面
  6
CONTINUOUS
 10
0.297145
 20
-74.747075
 11
17.787912
 21
-60.017595
  0
LINE
  8
型材断面
  6
CONTINUOUS
 10
1.370725
 20
-76.021912
 11
18.861492
 21
-61.292432
  0
CIRCLE
  8
ボルト／ビス
  6
CONTINUOUS
 10
1.0889
 20
-75.169777
 40
0.250185
  0
CIRCLE
  8
ボルト／ビス
  6
CONTINUOUS
 10
1.0889
 20
-75.169777
 40
0.301025
  0
LINE
  8
ボルト／ビス
  6
CONTINUOUS
 62
    64
 10
0.842592
 20
-75.21366
 11
0.927745
 21
-74.978413
  0
LINE
  8
ボルト／ビス
  6
CONTINUOUS
 62
    64
 10
1.174052
 20
-74.934527
 11
0.927745
 21
-74.978413
  0
LINE
  8
ボルト／ビス
  6
CONTINUOUS
 62
    64
 10
1.003747
 20
-75.405027
 11
1.250055
 21
-75.361143
  0
LINE
  8
ボルト／ビス
  6
CONTINUOUS
 62
    64
 10
1.335208
 20
-75.125895
 11
1.250055
 21
-75.361143
  0
LINE
  8
ボルト／ビス
  6
CONTINUOUS
 62
    64
 10
0.842592
 20
-75.21366
 11
1.003747
 21
-75.405027
  0
LINE
  8
ボルト／ビス
  6
CONTINUOUS
 62
    64
 10
1.174052
 20
-74.934527
 11
1.335208
 21
-75.125895
  0
CIRCLE
  8
ボルト／ビス
  6
CONTINUOUS
 62
    64
 10
1.0889
 20
-75.169777
 40
0.216668
  0
CIRCLE
  8
ボルト／ビス
  6
CONTINUOUS
 10
9.579318
 20
-68.019752
 40
0.250185
  0
CIRCLE
  8
ボルト／ビス
  6
CONTINUOUS
 10
9.579318
 20
-68.019752
 40
0.301025
  0
LINE
  8
ボルト／ビス
  6
CONTINUOUS
 62
    64
 10
9.33301
 20
-68.063635
 11
9.418162
 21
-67.828385
  0
LINE
  8
ボルト／ビス
  6
CONTINUOUS
 62
    64
 10
9.66447
 20
-67.784502
 11
9.418162
 21
-67.828385
  0
LINE
  8
ボルト／ビス
  6
CONTINUOUS
 62
    64
 10
9.494165
 20
-68.255002
 11
9.740475
 21
-68.21112
  0
LINE
  8
ボルト／ビス
  6
CONTINUOUS
 62
    64
 10
9.825625
 20
-67.975872
 11
9.740475
 21
-68.21112
  0
LINE
  8
ボルト／ビス
  6
CONTINUOUS
 62
    64
 10
9.33301
 20
-68.063635
 11
9.494165
 21
-68.255002
  0
LINE
  8
ボルト／ビス
  6
CONTINUOUS
 62
    64
 10
9.66447
 20
-67.784502
 11
9.825625
 21
-67.975872
  0
CIRCLE
  8
ボルト／ビス
  6
CONTINUOUS
 62
    64
 10
9.579318
 20
-68.019752
 40
0.216668
  0
CIRCLE
  8
ボルト／ビス
  6
CONTINUOUS
 10
18.069737
 20
-60.869728
 40
0.250185
  0
CIRCLE
  8
ボルト／ビス
  6
CONTINUOUS
 10
18.069737
 20
-60.869728
 40
0.301025
  0
LINE
  8
ボルト／ビス
  6
CONTINUOUS
 62
    64
 10
18.15489
 20
-60.634477
 11
17.90858
 21
-60.678363
  0
LINE
  8
ボルト／ビス
  6
CONTINUOUS
 62
    64
 10
17.823428
 20
-60.91361
 11
17.90858
 21
-60.678363
  0
LINE
  8
ボルト／ビス
  6
CONTINUOUS
 62
    64
 10
18.316043
 20
-60.825845
 11
18.230892
 21
-61.061092
  0
LINE
  8
ボルト／ビス
  6
CONTINUOUS
 62
    64
 10
17.984583
 20
-61.104978
 11
18.230892
 21
-61.061092
  0
LINE
  8
ボルト／ビス
  6
CONTINUOUS
 62
    64
 10
18.15489
 20
-60.634477
 11
18.316043
 21
-60.825845
  0
LINE
  8
ボルト／ビス
  6
CONTINUOUS
 62
    64
 10
17.823428
 20
-60.91361
 11
17.984583
 21
-61.104978
  0
CIRCLE
  8
ボルト／ビス
  6
CONTINUOUS
 62
    64
 10
18.069737
 20
-60.869728
 40
0.216668
  0
ENDBLK
  0
BLOCK
  2
*DIM_0012
 70
    65
 10
0.0
 20
0.0
  0
LINE
  8
寸法
  6
BYBLOCK
 62
     0
 10
-81.596933
 20
47.814033
 11
-94.88977
 21
47.814033
  0
LINE
  8
寸法
  6
BYBLOCK
 62
     0
 10
-81.596933
 20
27.814033
 11
-94.88977
 21
27.814033
  0
LINE
  8
寸法
  6
BYBLOCK
 62
     0
 10
-94.88977
 20
47.814033
 11
-94.88977
 21
27.814033
  0
POINT
  8
寸法
 62
     0
 10
-94.88977
 20
47.814033
  0
POINT
  8
寸法
 62
     0
 10
-94.88977
 20
27.814033
  0
TEXT
  7
TextStyle03
  8
寸法
  6
CONTINUOUS
 62
     0
 10
-95.25
 20
35.3625
  1
600
 40
3.0
 50
90.0
 72
     5
 11
-95.25
 21
40.2375
  0
ENDBLK
  0
BLOCK
  2
*DIM_0013
 70
    65
 10
0.0
 20
0.0
  0
LINE
  8
寸法
  6
BYBLOCK
 62
     0
 10
-68.596933
 20
55.814033
 11
-68.596933
 21
84.922105
  0
LINE
  8
寸法
  6
BYBLOCK
 62
     0
 10
-41.930265
 20
55.814033
 11
-41.930265
 21
84.922105
  0
LINE
  8
寸法
  6
BYBLOCK
 62
     0
 10
-68.596933
 20
84.922105
 11
-41.930265
 21
84.922105
  0
POINT
  8
寸法
 62
     0
 10
-68.596933
 20
84.922105
  0
POINT
  8
寸法
 62
     0
 10
-41.930265
 20
84.922105
  0
TEXT
  7
TextStyle03
  8
寸法
  6
CONTINUOUS
 62
     0
 10
-57.7125
 20
85.3
  1
800
 40
3.0
 72
     5
 11
-52.8375
 21
85.3
  0
ENDBLK
  0
BLOCK
  2
*DIM_0014
 70
    65
 10
0.0
 20
0.0
  0
LINE
  8
寸法
  6
BYBLOCK
 62
     0
 10
-15.2636
 20
55.814033
 11
-15.2636
 21
84.922105
  0
LINE
  8
寸法
  6
BYBLOCK
 62
     0
 10
-41.930265
 20
84.922105
 11
-15.2636
 21
84.922105
  0
POINT
  8
寸法
 62
     0
 10
-15.2636
 20
84.922105
  0
TEXT
  7
TextStyle03
  8
寸法
  6
CONTINUOUS
 62
     0
 10
-31.0375
 20
85.3
  1
800
 40
3.0
 72
     5
 11
-26.1625
 21
85.3
  0
ENDBLK
  0
BLOCK
  2
*DIM_0015
 70
    65
 10
0.0
 20
0.0
  0
LINE
  8
寸法
  6
BYBLOCK
 62
     0
 10
11.403067
 20
55.814033
 11
11.403067
 21
84.922105
  0
LINE
  8
寸法
  6
BYBLOCK
 62
     0
 10
-15.2636
 20
84.922105
 11
11.403067
 21
84.922105
  0
POINT
  8
寸法
 62
     0
 10
11.403067
 20
84.922105
  0
TEXT
  7
TextStyle03
  8
寸法
  6
CONTINUOUS
 62
     0
 10
-4.3625
 20
85.3
  1
800
 40
3.0
 72
     5
 11
0.5125
 21
85.3
  0
ENDBLK
  0
BLOCK
  2
*DIM_0016
 70
    65
 10
0.0
 20
0.0
  0
LINE
  8
寸法
  6
BYBLOCK
 62
     0
 10
102.603
 20
38.814033
 11
102.603
 21
68.369967
  0
LINE
  8
寸法
  6
BYBLOCK
 62
     0
 10
110.936333
 20
68.369967
 11
102.603
 21
68.369967
  0
POINT
  8
寸法
 62
     0
 10
110.936333
 20
68.369967
  0
POINT
  8
寸法
 62
     0
 10
102.603
 20
68.369967
  0
TEXT
  7
TextStyle03
  8
寸法
  6
CONTINUOUS
 62
     0
 10
104.3375
 20
68.725
  1
250
 40
3.0
 72
     5
 11
109.2125
 21
68.725
  0
ENDBLK
  0
BLOCK
  2
*DIM_0017
 70
    65
 10
0.0
 20
0.0
  0
LINE
  8
寸法
  6
BYBLOCK
 62
     0
 10
55.422717
 20
22.814033
 11
55.422717
 21
52.814033
  0
POINT
  8
寸法
 62
     0
 10
55.422717
 20
22.814033
  0
POINT
  8
寸法
 62
     0
 10
55.422717
 20
52.814033
  0
TEXT
  7
TextStyle03
  8
寸法
  6
CONTINUOUS
 62
     0
 10
55.075
 20
26.9
  1
呼称寸法　900
 40
3.0
 50
90.0
 72
     5
 11
55.075
 21
48.65
  0
ENDBLK
  0
BLOCK
  2
*DIM_0018
 70
    65
 10
0.0
 20
0.0
  0
LINE
  8
寸法
  6
CONTINUOUS
 10
55.422717
 20
22.814033
 11
55.422717
 21
20.0507
  0
POINT
  8
寸法
 10
55.422717
 20
22.814033
  0
POINT
  8
寸法
 10
55.422717
 20
20.0507
  0
TEXT
  7
TextStyle03
  8
寸法
  6
CONTINUOUS
 10
54.8
 20
15.76875
  1
82.9
 40
3.0
 50
90.0
 72
     5
 11
54.8
 21
22.33125
  0
ENDBLK
  0
BLOCK
  2
*DIM_0019
 70
    65
 10
0.0
 20
0.0
  0
LINE
  8
寸法
  6
CONTINUOUS
 10
55.422717
 20
52.814033
 11
55.422717
 21
55.577365
  0
POINT
  8
寸法
 10
55.422717
 20
52.814033
  0
POINT
  8
寸法
 10
55.422717
 20
55.577365
  0
TEXT
  7
TextStyle03
  8
寸法
  6
CONTINUOUS
 10
54.525
 20
53.24375
  1
82.9
 40
3.0
 50
90.0
 72
     5
 11
54.525
 21
59.80625
  0
ENDBLK
  0
BLOCK
  2
*DIM_0020
 70
    65
 10
0.0
 20
0.0
  0
LINE
  8
寸法
  6
CONTINUOUS
 10
21.403067
 20
-13.121378
 11
24.166403
 21
-13.121378
  0
POINT
  8
寸法
 10
21.403067
 20
-13.121378
  0
POINT
  8
寸法
 10
24.166403
 20
-13.121378
  0
TEXT
  7
TextStyle03
  8
寸法
  6
CONTINUOUS
 10
22.34375
 20
-12.525
  1
82.9
 40
3.0
 72
     5
 11
28.90625
 21
-12.525
  0
ENDBLK
  0
BLOCK
  2
*DIM_0021
 70
    65
 10
0.0
 20
0.0
  0
LINE
  8
寸法
  6
CONTINUOUS
 10
-78.596933
 20
-13.121378
 11
-81.360268
 21
-13.121378
  0
POINT
  8
寸法
 10
-78.596933
 20
-13.121378
  0
POINT
  8
寸法
 10
-81.360268
 20
-13.121378
  0
TEXT
  7
TextStyle03
  8
寸法
  6
CONTINUOUS
 10
-85.93125
 20
-12.15
  1
82.9
 40
3.0
 72
     5
 11
-79.36875
 21
-12.15
  0
ENDBLK
  0
BLOCK
  2
*DIM_0024
 70
    65
 10
0.0
 20
0.0
  0
LINE
  8
寸法
  6
CONTINUOUS
 10
82.223715
 20
-46.15287
 11
82.223715
 21
-41.559533
  0
LINE
  8
寸法
  6
CONTINUOUS
 10
114.823715
 20
-46.15287
 11
114.823715
 21
-41.559533
  0
LINE
  8
寸法
  6
CONTINUOUS
 10
82.223715
 20
-41.559533
 11
114.823715
 21
-41.559533
  0
POINT
  8
寸法
 10
82.223715
 20
-41.559533
  0
POINT
  8
寸法
 10
114.823715
 20
-41.559533
  0
TEXT
  7
TextStyle03
  8
寸法
  6
CONTINUOUS
 10
96.0875
 20
-41.175
  1
978
 40
3.0
 72
     5
 11
100.9625
 21
-41.175
  0
ENDBLK
  0
BLOCK
  2
*DIM_0025
 70
    65
 10
0.0
 20
0.0
  0
LINE
  8
寸法
  6
CONTINUOUS
 10
119.823715
 20
-51.15287
 11
124.800963
 21
-51.15287
  0
LINE
  8
寸法
  6
CONTINUOUS
 10
119.823715
 20
-81.15287
 11
124.800963
 21
-81.15287
  0
LINE
  8
寸法
  6
CONTINUOUS
 10
124.800963
 20
-51.15287
 11
124.800963
 21
-81.15287
  0
POINT
  8
寸法
 10
124.800963
 20
-51.15287
  0
POINT
  8
寸法
 10
124.800963
 20
-81.15287
  0
TEXT
  7
TextStyle03
  8
寸法
  6
CONTINUOUS
 10
124.45
 20
-68.5875
  1
900
 40
3.0
 50
90.0
 72
     5
 11
124.45
 21
-63.7125
  0
ENDBLK
  0
BLOCK
  2
*DIM_0026
 70
    65
 10
0.0
 20
0.0
  0
LINE
  8
寸法
  6
CONTINUOUS
 10
28.069735
 20
-70.20962
 11
37.372718
 21
-70.20962
  0
LINE
  8
寸法
  6
CONTINUOUS
 10
29.166403
 20
-77.709623
 11
37.372718
 21
-77.709623
  0
LINE
  8
寸法
  6
CONTINUOUS
 10
37.372718
 20
-70.20962
 11
37.372718
 21
-77.709623
  0
POINT
  8
寸法
 10
37.372718
 20
-70.20962
  0
POINT
  8
寸法
 10
37.372718
 20
-77.709623
  0
TEXT
  7
TextStyle03
  8
寸法
  6
CONTINUOUS
 10
36.975
 20
-76.4125
  1
225
 40
3.0
 50
90.0
 72
     5
 11
36.975
 21
-71.5375
  0
ENDBLK
  0
BLOCK
  2
*DIM_0027
 70
    65
 10
0.0
 20
0.0
  0
LINE
  8
寸法
  6
CONTINUOUS
 10
110.936333
 20
59.4807
 11
110.936333
 21
68.369967
  0
LINE
  8
寸法
  6
CONTINUOUS
 10
118.436335
 20
60.577365
 11
118.436335
 21
68.369967
  0
LINE
  8
寸法
  6
CONTINUOUS
 10
110.936333
 20
68.369967
 11
118.436335
 21
68.369967
  0
POINT
  8
寸法
 10
110.936333
 20
68.369967
  0
POINT
  8
寸法
 10
118.436335
 20
68.369967
  0
TEXT
  7
TextStyle03
  8
寸法
  6
CONTINUOUS
 10
112.2375
 20
68.725
  1
225
 40
3.0
 72
     5
 11
117.1125
 21
68.725
  0
ENDBLK
  0
BLOCK
  2
*GRP_0028
 70
    65
 10
0.0
 20
0.0
  0
LINE
  8
型材断面
  6
DOT
 10
-28.596933
 20
-59.59307
 11
-79.957082
 21
-59.59307
  0
LINE
  8
型材断面
  6
DOT
 10
-28.596933
 20
-60.74307
 11
-81.360268
 21
-60.74307
  0
LINE
  8
型材断面
  6
DOT
 10
-28.596933
 20
-61.909738
 11
-81.360268
 21
-61.909738
  0
LINE
  8
型材断面
  6
DOT
 10
-28.596933
 20
-59.59307
 11
22.763218
 21
-59.59307
  0
LINE
  8
型材断面
  6
DOT
 10
-28.596933
 20
-60.74307
 11
24.166403
 21
-60.74307
  0
LINE
  8
型材断面
  6
DOT
 10
-28.596933
 20
-61.909738
 11
24.166403
 21
-61.909738
  0
LINE
  8
別途部材
  6
DOT
 62
    96
 10
-80.263598
 20
-58.542945
 11
-80.663598
 21
-59.542945
  0
ARC
  8
別途部材
  6
DOT
 10
-63.596932
 20
-67.876281
 40
17.666667
 50
90.0
 51
148.109204
  0
LINE
  8
別途部材
  6
DOT
 62
    96
 10
-80.263598
 20
-58.542945
 11
-28.596933
 21
-58.542945
  0
LINE
  8
別途部材
  6
DOT
 10
-80.663598
 20
-59.542945
 11
-28.596933
 21
-59.542945
  0
LINE
  8
別途部材
  6
DOT
 10
-62.096933
 20
-50.209613
 11
-63.596933
 21
-50.209613
  0
LINE
  8
別途部材
  6
DOT
 62
    96
 10
23.069735
 20
-58.542945
 11
23.469735
 21
-59.542945
  0
ARC
  8
別途部材
  6
DOT
 10
6.403068
 20
-67.876281
 40
17.666667
 50
31.890796
 51
90.0
  0
LINE
  8
別途部材
  6
DOT
 62
    96
 10
23.069735
 20
-58.542945
 11
-28.596933
 21
-58.542945
  0
LINE
  8
別途部材
  6
DOT
 10
23.469735
 20
-59.542945
 11
-28.596933
 21
-59.542945
  0
LINE
  8
別途部材
  6
DOT
 10
4.903067
 20
-50.209613
 11
6.403067
 21
-50.209613
  0
LINE
  8
別途部材
  6
DOT
 10
-62.096933
 20
-50.209613
 11
-28.596933
 21
-50.209613
  0
LINE
  8
別途部材
  6
DOT
 10
4.903067
 20
-50.209613
 11
-28.596933
 21
-50.209613
  0
LINE
  8
鉄骨等
  6
DOT
 62
    47
 10
-81.360268
 20
-60.74307
 11
-79.957082
 21
-59.59307
  0
LINE
  8
鉄骨等
  6
DOT
 62
    47
 10
-79.957082
 20
-59.59307
 11
-79.957082
 21
-59.54295
  0
LINE
  8
鉄骨等
  6
DOT
 62
    47
 10
-81.360268
 20
-60.74307
 11
-81.360268
 21
-61.909738
  0
LINE
  8
鉄骨等
  6
DOT
 62
    47
 10
24.166403
 20
-60.74307
 11
22.763218
 21
-59.59307
  0
LINE
  8
鉄骨等
  6
DOT
 62
    47
 10
22.763218
 20
-59.59307
 11
22.763218
 21
-59.54295
  0
LINE
  8
鉄骨等
  6
DOT
 62
    47
 10
24.166403
 20
-60.74307
 11
24.166403
 21
-61.909738
  0
ENDBLK
  0
BLOCK
  2
*GRP_0029
 70
    65
 10
0.0
 20
0.0
  0
LINE
  8
型材断面
  6
DOT
 10
100.319782
 20
37.814033
 11
100.319782
 21
21.453885
  0
LINE
  8
型材断面
  6
DOT
 10
101.469782
 20
37.814033
 11
101.469782
 21
20.0507
  0
LINE
  8
型材断面
  6
DOT
 10
102.63645
 20
37.814033
 11
102.63645
 21
20.0507
  0
LINE
  8
型材断面
  6
DOT
 10
100.319782
 20
37.814033
 11
100.319782
 21
54.17418
  0
LINE
  8
型材断面
  6
DOT
 10
101.469782
 20
37.814033
 11
101.469782
 21
55.577365
  0
LINE
  8
型材断面
  6
DOT
 10
102.63645
 20
37.814033
 11
102.63645
 21
55.577365
  0
LINE
  8
別途部材
  6
DOT
 62
    96
 10
99.269665
 20
21.147365
 11
100.269665
 21
20.747365
  0
LINE
  8
別途部材
  6
DOT
 62
    96
 10
99.269665
 20
21.147365
 11
99.269665
 21
37.814033
  0
LINE
  8
別途部材
  6
DOT
 10
100.269665
 20
20.747365
 11
100.269665
 21
37.814033
  0
LINE
  8
別途部材
  6
DOT
 62
    96
 10
99.269665
 20
54.4807
 11
100.269665
 21
54.8807
  0
LINE
  8
別途部材
  6
DOT
 62
    96
 10
99.269665
 20
54.4807
 11
99.269665
 21
37.814033
  0
LINE
  8
別途部材
  6
DOT
 10
100.269665
 20
54.8807
 11
100.269665
 21
37.814033
  0
ARC
  8
別途部材
  6
DOT
 10
108.602996
 20
37.814033
 40
17.666667
 50
121.890796
 51
238.109204
  0
LINE
  8
鉄骨等
  6
DOT
 62
    47
 10
102.63645
 20
20.0507
 11
101.469782
 21
20.0507
  0
LINE
  8
鉄骨等
  6
DOT
 62
    47
 10
101.469782
 20
20.0507
 11
100.319782
 21
21.453885
  0
LINE
  8
鉄骨等
  6
DOT
 62
    47
 10
100.319782
 20
21.453885
 11
100.269663
 21
21.453885
  0
LINE
  8
鉄骨等
  6
DOT
 62
    47
 10
102.63645
 20
55.577365
 11
101.469782
 21
55.577365
  0
LINE
  8
鉄骨等
  6
DOT
 62
    47
 10
101.469782
 20
55.577365
 11
100.319782
 21
54.17418
  0
LINE
  8
鉄骨等
  6
DOT
 62
    47
 10
100.319782
 20
54.17418
 11
100.269663
 21
54.17418
  0
ENDBLK
  0
BLOCK
  2
*GRP_0030
 70
    65
 10
0.0
 20
0.0
  0
LINE
  8
ボルト／ビス
  6
CONTINUOUS
 10
110.93633
 20
53.4807
 11
110.469665
 21
53.4807
  0
LINE
  8
ボルト／ビス
  6
CONTINUOUS
 10
110.93633
 20
53.114035
 11
110.869665
 21
53.114035
  0
LINE
  8
ボルト／ビス
  6
CONTINUOUS
 10
110.869665
 20
53.114035
 11
110.869665
 21
53.847367
  0
LINE
  8
ボルト／ビス
  6
CONTINUOUS
 10
110.869665
 20
53.847367
 11
110.93633
 21
53.847367
  0
LINE
  8
ボルト／ビス
  6
CONTINUOUS
 10
110.93633
 20
53.114035
 11
110.93633
 21
53.847367
  0
LINE
  8
ボルト／ビス
  6
CONTINUOUS
 10
110.83633
 20
53.1807
 11
110.869665
 21
53.1807
  0
LINE
  8
ボルト／ビス
  6
CONTINUOUS
 10
110.83633
 20
53.1807
 11
110.83633
 21
53.7807
  0
LINE
  8
ボルト／ビス
  6
CONTINUOUS
 10
110.83633
 20
53.7807
 11
110.869665
 21
53.7807
  0
LINE
  8
ボルト／ビス
  6
CONTINUOUS
 62
    64
 10
110.63633
 20
53.320325
 11
110.648005
 21
53.28825
  0
ARC
  8
ボルト／ビス
  6
CONTINUOUS
 62
    64
 10
110.741308
 20
53.336362
 40
0.104978
 50
152.721967
 51
180.0
  0
ARC
  8
ボルト／ビス
  6
CONTINUOUS
 62
    64
 10
111.038732
 20
53.480699
 40
0.402402
 50
166.165002
 51
193.834985
  0
LINE
  8
ボルト／ビス
  6
CONTINUOUS
 62
    64
 10
110.63633
 20
53.641075
 11
110.648005
 21
53.67315
  0
ARC
  8
ボルト／ビス
  6
CONTINUOUS
 62
    64
 10
110.741308
 20
53.625037
 40
0.104978
 50
180.0
 51
207.278033
  0
LINE
  8
ボルト／ビス
  6
CONTINUOUS
 62
    64
 10
110.63633
 20
53.320325
 11
110.63633
 21
53.641075
  0
LINE
  8
ボルト／ビス
  6
CONTINUOUS
 62
    64
 10
110.648005
 20
53.67315
 11
110.769665
 21
53.67315
  0
LINE
  8
ボルト／ビス
  6
CONTINUOUS
 62
    64
 10
110.648005
 20
53.576925
 11
110.769665
 21
53.576925
  0
LINE
  8
ボルト／ビス
  6
CONTINUOUS
 62
    64
 10
110.648005
 20
53.28825
 11
110.769665
 21
53.28825
  0
LINE
  8
ボルト／ビス
  6
CONTINUOUS
 62
    64
 10
110.648005
 20
53.384475
 11
110.769665
 21
53.384475
  0
LINE
  8
ボルト／ビス
  6
CONTINUOUS
 10
110.769665
 20
53.28825
 11
110.769665
 21
53.67315
  0
LINE
  8
ボルト／ビス
  6
CONTINUOUS
 10
110.769665
 20
53.2807
 11
110.83633
 21
53.2807
  0
LINE
  8
ボルト／ビス
  6
CONTINUOUS
 10
110.769665
 20
53.2807
 11
110.769665
 21
53.6807
  0
LINE
  8
ボルト／ビス
  6
CONTINUOUS
 10
110.769665
 20
53.6807
 11
110.83633
 21
53.6807
  0
ENDBLK
  0
BLOCK
  2
*GRP_0031
 70
    65
 10
0.0
 20
0.0
  0
LINE
  8
ボルト／ビス
  6
CONTINUOUS
 10
110.93633
 20
22.147365
 11
110.469665
 21
22.147365
  0
LINE
  8
ボルト／ビス
  6
CONTINUOUS
 10
110.93633
 20
22.51403
 11
110.869665
 21
22.51403
  0
LINE
  8
ボルト／ビス
  6
CONTINUOUS
 10
110.869665
 20
22.51403
 11
110.869665
 21
21.780697
  0
LINE
  8
ボルト／ビス
  6
CONTINUOUS
 10
110.869665
 20
21.780697
 11
110.93633
 21
21.780697
  0
LINE
  8
ボルト／ビス
  6
CONTINUOUS
 10
110.93633
 20
22.51403
 11
110.93633
 21
21.780697
  0
LINE
  8
ボルト／ビス
  6
CONTINUOUS
 10
110.83633
 20
22.447365
 11
110.869665
 21
22.447365
  0
LINE
  8
ボルト／ビス
  6
CONTINUOUS
 10
110.83633
 20
22.447365
 11
110.83633
 21
21.847365
  0
LINE
  8
ボルト／ビス
  6
CONTINUOUS
 10
110.83633
 20
21.847365
 11
110.869665
 21
21.847365
  0
LINE
  8
ボルト／ビス
  6
CONTINUOUS
 62
    64
 10
110.63633
 20
22.30774
 11
110.648005
 21
22.339815
  0
ARC
  8
ボルト／ビス
  6
CONTINUOUS
 62
    64
 10
110.741308
 20
22.291703
 40
0.104978
 50
180.0
 51
207.278033
  0
ARC
  8
ボルト／ビス
  6
CONTINUOUS
 62
    64
 10
111.038732
 20
22.147366
 40
0.402402
 50
166.165015
 51
193.834998
  0
LINE
  8
ボルト／ビス
  6
CONTINUOUS
 62
    64
 10
110.63633
 20
21.98699
 11
110.648005
 21
21.954915
  0
ARC
  8
ボルト／ビス
  6
CONTINUOUS
 62
    64
 10
110.741308
 20
22.003028
 40
0.104978
 50
152.721967
 51
180.0
  0
LINE
  8
ボルト／ビス
  6
CONTINUOUS
 62
    64
 10
110.63633
 20
22.30774
 11
110.63633
 21
21.98699
  0
LINE
  8
ボルト／ビス
  6
CONTINUOUS
 62
    64
 10
110.648005
 20
21.954915
 11
110.769665
 21
21.954915
  0
LINE
  8
ボルト／ビス
  6
CONTINUOUS
 62
    64
 10
110.648005
 20
22.05114
 11
110.769665
 21
22.05114
  0
LINE
  8
ボルト／ビス
  6
CONTINUOUS
 62
    64
 10
110.648005
 20
22.339815
 11
110.769665
 21
22.339815
  0
LINE
  8
ボルト／ビス
  6
CONTINUOUS
 62
    64
 10
110.648005
 20
22.24359
 11
110.769665
 21
22.24359
  0
LINE
  8
ボルト／ビス
  6
CONTINUOUS
 10
110.769665
 20
22.339815
 11
110.769665
 21
21.954915
  0
LINE
  8
ボルト／ビス
  6
CONTINUOUS
 10
110.769665
 20
22.347365
 11
110.83633
 21
22.347365
  0
LINE
  8
ボルト／ビス
  6
CONTINUOUS
 10
110.769665
 20
22.347365
 11
110.769665
 21
21.947365
  0
LINE
  8
ボルト／ビス
  6
CONTINUOUS
 10
110.769665
 20
21.947365
 11
110.83633
 21
21.947365
  0
ENDBLK
  0
BLOCK
  2
*GRP_0032
 70
    65
 10
0.0
 20
0.0
  0
LINE
  8
ボルト／ビス
  6
DOT
 10
99.269665
 20
53.4807
 11
98.803
 21
53.4807
  0
LINE
  8
ボルト／ビス
  6
DOT
 10
99.269665
 20
53.114035
 11
99.203
 21
53.114035
  0
LINE
  8
ボルト／ビス
  6
DOT
 10
99.203
 20
53.114035
 11
99.203
 21
53.847367
  0
LINE
  8
ボルト／ビス
  6
DOT
 10
99.203
 20
53.847367
 11
99.269665
 21
53.847367
  0
LINE
  8
ボルト／ビス
  6
DOT
 10
99.269665
 20
53.114035
 11
99.269665
 21
53.847367
  0
LINE
  8
ボルト／ビス
  6
DOT
 10
99.169665
 20
53.1807
 11
99.203
 21
53.1807
  0
LINE
  8
ボルト／ビス
  6
DOT
 10
99.169665
 20
53.1807
 11
99.169665
 21
53.7807
  0
LINE
  8
ボルト／ビス
  6
DOT
 10
99.169665
 20
53.7807
 11
99.203
 21
53.7807
  0
LINE
  8
ボルト／ビス
  6
DOT
 62
    64
 10
98.969665
 20
53.320325
 11
98.98134
 21
53.28825
  0
ARC
  8
ボルト／ビス
  6
DOT
 62
    64
 10
99.074643
 20
53.336362
 40
0.104978
 50
152.721967
 51
180.0
  0
ARC
  8
ボルト／ビス
  6
DOT
 62
    64
 10
99.372067
 20
53.480699
 40
0.402402
 50
166.165002
 51
193.834985
  0
LINE
  8
ボルト／ビス
  6
DOT
 62
    64
 10
98.969665
 20
53.641075
 11
98.98134
 21
53.67315
  0
ARC
  8
ボルト／ビス
  6
DOT
 62
    64
 10
99.074643
 20
53.625037
 40
0.104978
 50
180.0
 51
207.278033
  0
LINE
  8
ボルト／ビス
  6
DOT
 62
    64
 10
98.969665
 20
53.320325
 11
98.969665
 21
53.641075
  0
LINE
  8
ボルト／ビス
  6
DOT
 62
    64
 10
98.98134
 20
53.67315
 11
99.103
 21
53.67315
  0
LINE
  8
ボルト／ビス
  6
DOT
 62
    64
 10
98.98134
 20
53.576925
 11
99.103
 21
53.576925
  0
LINE
  8
ボルト／ビス
  6
DOT
 62
    64
 10
98.98134
 20
53.28825
 11
99.103
 21
53.28825
  0
LINE
  8
ボルト／ビス
  6
DOT
 62
    64
 10
98.98134
 20
53.384475
 11
99.103
 21
53.384475
  0
LINE
  8
ボルト／ビス
  6
DOT
 10
99.103
 20
53.28825
 11
99.103
 21
53.67315
  0
LINE
  8
ボルト／ビス
  6
DOT
 10
99.103
 20
53.2807
 11
99.169665
 21
53.2807
  0
LINE
  8
ボルト／ビス
  6
DOT
 10
99.103
 20
53.2807
 11
99.103
 21
53.6807
  0
LINE
  8
ボルト／ビス
  6
DOT
 10
99.103
 20
53.6807
 11
99.169665
 21
53.6807
  0
ENDBLK
  0
BLOCK
  2
*GRP_0033
 70
    65
 10
0.0
 20
0.0
  0
LINE
  8
ボルト／ビス
  6
DOT
 10
99.269665
 20
22.147365
 11
98.803
 21
22.147365
  0
LINE
  8
ボルト／ビス
  6
DOT
 10
99.269665
 20
22.51403
 11
99.203
 21
22.51403
  0
LINE
  8
ボルト／ビス
  6
DOT
 10
99.203
 20
22.51403
 11
99.203
 21
21.780697
  0
LINE
  8
ボルト／ビス
  6
DOT
 10
99.203
 20
21.780697
 11
99.269665
 21
21.780697
  0
LINE
  8
ボルト／ビス
  6
DOT
 10
99.269665
 20
22.51403
 11
99.269665
 21
21.780697
  0
LINE
  8
ボルト／ビス
  6
DOT
 10
99.169665
 20
22.447365
 11
99.203
 21
22.447365
  0
LINE
  8
ボルト／ビス
  6
DOT
 10
99.169665
 20
22.447365
 11
99.169665
 21
21.847365
  0
LINE
  8
ボルト／ビス
  6
DOT
 10
99.169665
 20
21.847365
 11
99.203
 21
21.847365
  0
LINE
  8
ボルト／ビス
  6
DOT
 62
    64
 10
98.969665
 20
22.30774
 11
98.98134
 21
22.339815
  0
ARC
  8
ボルト／ビス
  6
DOT
 62
    64
 10
99.074643
 20
22.291703
 40
0.104978
 50
180.0
 51
207.278033
  0
ARC
  8
ボルト／ビス
  6
DOT
 62
    64
 10
99.372067
 20
22.147366
 40
0.402402
 50
166.165015
 51
193.834998
  0
LINE
  8
ボルト／ビス
  6
DOT
 62
    64
 10
98.969665
 20
21.98699
 11
98.98134
 21
21.954915
  0
ARC
  8
ボルト／ビス
  6
DOT
 62
    64
 10
99.074643
 20
22.003028
 40
0.104978
 50
152.721967
 51
180.0
  0
LINE
  8
ボルト／ビス
  6
DOT
 62
    64
 10
98.969665
 20
22.30774
 11
98.969665
 21
21.98699
  0
LINE
  8
ボルト／ビス
  6
DOT
 62
    64
 10
98.98134
 20
21.954915
 11
99.103
 21
21.954915
  0
LINE
  8
ボルト／ビス
  6
DOT
 62
    64
 10
98.98134
 20
22.05114
 11
99.103
 21
22.05114
  0
LINE
  8
ボルト／ビス
  6
DOT
 62
    64
 10
98.98134
 20
22.339815
 11
99.103
 21
22.339815
  0
LINE
  8
ボルト／ビス
  6
DOT
 62
    64
 10
98.98134
 20
22.24359
 11
99.103
 21
22.24359
  0
LINE
  8
ボルト／ビス
  6
DOT
 10
99.103
 20
22.339815
 11
99.103
 21
21.954915
  0
LINE
  8
ボルト／ビス
  6
DOT
 10
99.103
 20
22.347365
 11
99.169665
 21
22.347365
  0
LINE
  8
ボルト／ビス
  6
DOT
 10
99.103
 20
22.347365
 11
99.103
 21
21.947365
  0
LINE
  8
ボルト／ビス
  6
DOT
 10
99.103
 20
21.947365
 11
99.169665
 21
21.947365
  0
ENDBLK
  0
BLOCK
  2
*GRP_0034
 70
    65
 10
0.0
 20
0.0
  0
LINE
  8
ボルト／ビス
  6
CONTINUOUS
 10
22.069735
 20
-70.209613
 11
22.069735
 21
-69.742947
  0
LINE
  8
ボルト／ビス
  6
CONTINUOUS
 10
21.70307
 20
-70.209613
 11
21.70307
 21
-70.142947
  0
LINE
  8
ボルト／ビス
  6
CONTINUOUS
 10
21.70307
 20
-70.142947
 11
22.436403
 21
-70.142947
  0
LINE
  8
ボルト／ビス
  6
CONTINUOUS
 10
22.436403
 20
-70.142947
 11
22.436403
 21
-70.209613
  0
LINE
  8
ボルト／ビス
  6
CONTINUOUS
 10
21.70307
 20
-70.209613
 11
22.436403
 21
-70.209613
  0
LINE
  8
ボルト／ビス
  6
CONTINUOUS
 10
21.769735
 20
-70.109612
 11
21.769735
 21
-70.142947
  0
LINE
  8
ボルト／ビス
  6
CONTINUOUS
 10
21.769735
 20
-70.109612
 11
22.369735
 21
-70.109612
  0
LINE
  8
ボルト／ビス
  6
CONTINUOUS
 10
22.369735
 20
-70.109612
 11
22.369735
 21
-70.142947
  0
LINE
  8
ボルト／ビス
  6
CONTINUOUS
 62
    64
 10
21.90936
 20
-69.909613
 11
21.877285
 21
-69.921288
  0
ARC
  8
ボルト／ビス
  6
CONTINUOUS
 62
    64
 10
21.925399
 20
-70.014592
 40
0.104978
 50
62.721967
 51
90.0
  0
ARC
  8
ボルト／ビス
  6
CONTINUOUS
 62
    64
 10
22.069737
 20
-70.312016
 40
0.402402
 50
76.165002
 51
103.834985
  0
LINE
  8
ボルト／ビス
  6
CONTINUOUS
 62
    64
 10
22.23011
 20
-69.909613
 11
22.262185
 21
-69.921288
  0
ARC
  8
ボルト／ビス
  6
CONTINUOUS
 62
    64
 10
22.214074
 20
-70.014592
 40
0.104978
 50
90.0
 51
117.278033
  0
LINE
  8
ボルト／ビス
  6
CONTINUOUS
 62
    64
 10
21.90936
 20
-69.909613
 11
22.23011
 21
-69.909613
  0
LINE
  8
ボルト／ビス
  6
CONTINUOUS
 62
    64
 10
22.262185
 20
-69.921288
 11
22.262185
 21
-70.042947
  0
LINE
  8
ボルト／ビス
  6
CONTINUOUS
 62
    64
 10
22.16596
 20
-69.921288
 11
22.16596
 21
-70.042947
  0
LINE
  8
ボルト／ビス
  6
CONTINUOUS
 62
    64
 10
21.877285
 20
-69.921288
 11
21.877285
 21
-70.042947
  0
LINE
  8
ボルト／ビス
  6
CONTINUOUS
 62
    64
 10
21.97351
 20
-69.921288
 11
21.97351
 21
-70.042947
  0
LINE
  8
ボルト／ビス
  6
CONTINUOUS
 10
21.877285
 20
-70.042947
 11
22.262185
 21
-70.042947
  0
LINE
  8
ボルト／ビス
  6
CONTINUOUS
 10
21.869735
 20
-70.042947
 11
21.869735
 21
-70.109612
  0
LINE
  8
ボルト／ビス
  6
CONTINUOUS
 10
21.869735
 20
-70.042947
 11
22.269735
 21
-70.042947
  0
LINE
  8
ボルト／ビス
  6
CONTINUOUS
 10
22.269735
 20
-70.042947
 11
22.269735
 21
-70.109612
  0
ENDBLK
  0
BLOCK
  2
*GRP_0035
 70
    65
 10
0.0
 20
0.0
  0
LINE
  8
ボルト／ビス
  6
DOT
 10
22.069735
 20
-58.542945
 11
22.069735
 21
-58.07628
  0
LINE
  8
ボルト／ビス
  6
DOT
 10
21.70307
 20
-58.542945
 11
21.70307
 21
-58.47628
  0
LINE
  8
ボルト／ビス
  6
DOT
 10
21.70307
 20
-58.47628
 11
22.436403
 21
-58.47628
  0
LINE
  8
ボルト／ビス
  6
DOT
 10
22.436403
 20
-58.47628
 11
22.436403
 21
-58.542945
  0
LINE
  8
ボルト／ビス
  6
DOT
 10
21.70307
 20
-58.542945
 11
22.436403
 21
-58.542945
  0
LINE
  8
ボルト／ビス
  6
DOT
 10
21.769735
 20
-58.442945
 11
21.769735
 21
-58.47628
  0
LINE
  8
ボルト／ビス
  6
DOT
 10
21.769735
 20
-58.442945
 11
22.369735
 21
-58.442945
  0
LINE
  8
ボルト／ビス
  6
DOT
 10
22.369735
 20
-58.442945
 11
22.369735
 21
-58.47628
  0
LINE
  8
ボルト／ビス
  6
DOT
 62
    64
 10
21.90936
 20
-58.242945
 11
21.877285
 21
-58.25462
  0
ARC
  8
ボルト／ビス
  6
DOT
 62
    64
 10
21.925399
 20
-58.347925
 40
0.104978
 50
62.721967
 51
90.0
  0
ARC
  8
ボルト／ビス
  6
DOT
 62
    64
 10
22.069737
 20
-58.645349
 40
0.402402
 50
76.165002
 51
103.834985
  0
LINE
  8
ボルト／ビス
  6
DOT
 62
    64
 10
22.23011
 20
-58.242945
 11
22.262185
 21
-58.25462
  0
ARC
  8
ボルト／ビス
  6
DOT
 62
    64
 10
22.214074
 20
-58.347925
 40
0.104978
 50
90.0
 51
117.278033
  0
LINE
  8
ボルト／ビス
  6
DOT
 62
    64
 10
21.90936
 20
-58.242945
 11
22.23011
 21
-58.242945
  0
LINE
  8
ボルト／ビス
  6
DOT
 62
    64
 10
22.262185
 20
-58.25462
 11
22.262185
 21
-58.37628
  0
LINE
  8
ボルト／ビス
  6
DOT
 62
    64
 10
22.16596
 20
-58.25462
 11
22.16596
 21
-58.37628
  0
LINE
  8
ボルト／ビス
  6
DOT
 62
    64
 10
21.877285
 20
-58.25462
 11
21.877285
 21
-58.37628
  0
LINE
  8
ボルト／ビス
  6
DOT
 62
    64
 10
21.97351
 20
-58.25462
 11
21.97351
 21
-58.37628
  0
LINE
  8
ボルト／ビス
  6
DOT
 10
21.877285
 20
-58.37628
 11
22.262185
 21
-58.37628
  0
LINE
  8
ボルト／ビス
  6
DOT
 10
21.869735
 20
-58.37628
 11
21.869735
 21
-58.442945
  0
LINE
  8
ボルト／ビス
  6
DOT
 10
21.869735
 20
-58.37628
 11
22.269735
 21
-58.37628
  0
LINE
  8
ボルト／ビス
  6
DOT
 10
22.269735
 20
-58.37628
 11
22.269735
 21
-58.442945
  0
ENDBLK
  0
BLOCK
  2
*GRP_0036
 70
    65
 10
0.0
 20
0.0
  0
LINE
  8
ボルト／ビス
  6
CONTINUOUS
 10
-79.2636
 20
-70.209613
 11
-79.2636
 21
-69.742947
  0
LINE
  8
ボルト／ビス
  6
CONTINUOUS
 10
-78.896935
 20
-70.209613
 11
-78.896935
 21
-70.142947
  0
LINE
  8
ボルト／ビス
  6
CONTINUOUS
 10
-78.896935
 20
-70.142947
 11
-79.630267
 21
-70.142947
  0
LINE
  8
ボルト／ビス
  6
CONTINUOUS
 10
-79.630267
 20
-70.142947
 11
-79.630267
 21
-70.209613
  0
LINE
  8
ボルト／ビス
  6
CONTINUOUS
 10
-78.896935
 20
-70.209613
 11
-79.630267
 21
-70.209613
  0
LINE
  8
ボルト／ビス
  6
CONTINUOUS
 10
-78.9636
 20
-70.109612
 11
-78.9636
 21
-70.142947
  0
LINE
  8
ボルト／ビス
  6
CONTINUOUS
 10
-78.9636
 20
-70.109612
 11
-79.5636
 21
-70.109612
  0
LINE
  8
ボルト／ビス
  6
CONTINUOUS
 10
-79.5636
 20
-70.109612
 11
-79.5636
 21
-70.142947
  0
LINE
  8
ボルト／ビス
  6
CONTINUOUS
 62
    64
 10
-79.103225
 20
-69.909613
 11
-79.07115
 21
-69.921288
  0
ARC
  8
ボルト／ビス
  6
CONTINUOUS
 62
    64
 10
-79.119264
 20
-70.014592
 40
0.104978
 50
90.0
 51
117.278033
  0
ARC
  8
ボルト／ビス
  6
CONTINUOUS
 62
    64
 10
-79.263602
 20
-70.312016
 40
0.402402
 50
76.165015
 51
103.834998
  0
LINE
  8
ボルト／ビス
  6
CONTINUOUS
 62
    64
 10
-79.423975
 20
-69.909613
 11
-79.45605
 21
-69.921288
  0
ARC
  8
ボルト／ビス
  6
CONTINUOUS
 62
    64
 10
-79.407939
 20
-70.014592
 40
0.104978
 50
62.721967
 51
90.0
  0
LINE
  8
ボルト／ビス
  6
CONTINUOUS
 62
    64
 10
-79.103225
 20
-69.909613
 11
-79.423975
 21
-69.909613
  0
LINE
  8
ボルト／ビス
  6
CONTINUOUS
 62
    64
 10
-79.45605
 20
-69.921288
 11
-79.45605
 21
-70.042947
  0
LINE
  8
ボルト／ビス
  6
CONTINUOUS
 62
    64
 10
-79.359825
 20
-69.921288
 11
-79.359825
 21
-70.042947
  0
LINE
  8
ボルト／ビス
  6
CONTINUOUS
 62
    64
 10
-79.07115
 20
-69.921288
 11
-79.07115
 21
-70.042947
  0
LINE
  8
ボルト／ビス
  6
CONTINUOUS
 62
    64
 10
-79.167375
 20
-69.921288
 11
-79.167375
 21
-70.042947
  0
LINE
  8
ボルト／ビス
  6
CONTINUOUS
 10
-79.07115
 20
-70.042947
 11
-79.45605
 21
-70.042947
  0
LINE
  8
ボルト／ビス
  6
CONTINUOUS
 10
-79.0636
 20
-70.042947
 11
-79.0636
 21
-70.109612
  0
LINE
  8
ボルト／ビス
  6
CONTINUOUS
 10
-79.0636
 20
-70.042947
 11
-79.4636
 21
-70.042947
  0
LINE
  8
ボルト／ビス
  6
CONTINUOUS
 10
-79.4636
 20
-70.042947
 11
-79.4636
 21
-70.109612
  0
ENDBLK
  0
BLOCK
  2
*GRP_0037
 70
    65
 10
0.0
 20
0.0
  0
LINE
  8
ボルト／ビス
  6
DOT
 10
-79.2636
 20
-58.542945
 11
-79.2636
 21
-58.07628
  0
LINE
  8
ボルト／ビス
  6
DOT
 10
-78.896935
 20
-58.542945
 11
-78.896935
 21
-58.47628
  0
LINE
  8
ボルト／ビス
  6
DOT
 10
-78.896935
 20
-58.47628
 11
-79.630267
 21
-58.47628
  0
LINE
  8
ボルト／ビス
  6
DOT
 10
-79.630267
 20
-58.47628
 11
-79.630267
 21
-58.542945
  0
LINE
  8
ボルト／ビス
  6
DOT
 10
-78.896935
 20
-58.542945
 11
-79.630267
 21
-58.542945
  0
LINE
  8
ボルト／ビス
  6
DOT
 10
-78.9636
 20
-58.442945
 11
-78.9636
 21
-58.47628
  0
LINE
  8
ボルト／ビス
  6
DOT
 10
-78.9636
 20
-58.442945
 11
-79.5636
 21
-58.442945
  0
LINE
  8
ボルト／ビス
  6
DOT
 10
-79.5636
 20
-58.442945
 11
-79.5636
 21
-58.47628
  0
LINE
  8
ボルト／ビス
  6
DOT
 62
    64
 10
-79.103225
 20
-58.242945
 11
-79.07115
 21
-58.25462
  0
ARC
  8
ボルト／ビス
  6
DOT
 62
    64
 10
-79.119264
 20
-58.347925
 40
0.104978
 50
90.0
 51
117.278033
  0
ARC
  8
ボルト／ビス
  6
DOT
 62
    64
 10
-79.263602
 20
-58.645349
 40
0.402402
 50
76.165015
 51
103.834998
  0
LINE
  8
ボルト／ビス
  6
DOT
 62
    64
 10
-79.423975
 20
-58.242945
 11
-79.45605
 21
-58.25462
  0
ARC
  8
ボルト／ビス
  6
DOT
 62
    64
 10
-79.407939
 20
-58.347925
 40
0.104978
 50
62.721967
 51
90.0
  0
LINE
  8
ボルト／ビス
  6
DOT
 62
    64
 10
-79.103225
 20
-58.242945
 11
-79.423975
 21
-58.242945
  0
LINE
  8
ボルト／ビス
  6
DOT
 62
    64
 10
-79.45605
 20
-58.25462
 11
-79.45605
 21
-58.37628
  0
LINE
  8
ボルト／ビス
  6
DOT
 62
    64
 10
-79.359825
 20
-58.25462
 11
-79.359825
 21
-58.37628
  0
LINE
  8
ボルト／ビス
  6
DOT
 62
    64
 10
-79.07115
 20
-58.25462
 11
-79.07115
 21
-58.37628
  0
LINE
  8
ボルト／ビス
  6
DOT
 62
    64
 10
-79.167375
 20
-58.25462
 11
-79.167375
 21
-58.37628
  0
LINE
  8
ボルト／ビス
  6
DOT
 10
-79.07115
 20
-58.37628
 11
-79.45605
 21
-58.37628
  0
LINE
  8
ボルト／ビス
  6
DOT
 10
-79.0636
 20
-58.37628
 11
-79.0636
 21
-58.442945
  0
LINE
  8
ボルト／ビス
  6
DOT
 10
-79.0636
 20
-58.37628
 11
-79.4636
 21
-58.37628
  0
LINE
  8
ボルト／ビス
  6
DOT
 10
-79.4636
 20
-58.37628
 11
-79.4636
 21
-58.442945
  0
ENDBLK
  0
BLOCK
  2
*DIM_0038
 70
    65
 10
0.0
 20
0.0
  0
LINE
  8
寸法
  6
BYBLOCK
 62
     0
 10
9.403065
 20
-50.209613
 11
37.372718
 21
-50.209613
  0
LINE
  8
寸法
  6
BYBLOCK
 62
     0
 10
37.372718
 20
-61.87628
 11
37.372718
 21
-50.209613
  0
POINT
  8
寸法
 62
     0
 10
37.372718
 20
-61.87628
  0
POINT
  8
寸法
 62
     0
 10
37.372718
 20
-50.209613
  0
TEXT
  7
TextStyle03
  8
寸法
  6
CONTINUOUS
 62
     0
 10
37.175
 20
-47.1375
  1
上昇高さ350
 40
3.0
 50
90.0
 72
     5
 11
37.175
 21
-28.7625
  0
ENDBLK
  0
BLOCK
  2
*DIM_0039
 70
    65
 10
0.0
 20
0.0
  0
LINE
  8
寸法
  6
BYBLOCK
 62
     0
 10
102.603
 20
68.369967
 11
90.936333
 21
68.369967
  0
POINT
  8
寸法
 62
     0
 10
102.603
 20
68.369967
  0
POINT
  8
寸法
 62
     0
 10
90.936333
 20
68.369967
  0
TEXT
  7
TextStyle03
  8
寸法
  6
CONTINUOUS
 62
     0
 10
68.9125
 20
65.7
  1
上昇高さ350
 40
3.0
 72
     5
 11
87.2875
 21
65.7
  0
ENDBLK
  0
ENDSEC
  0
SECTION
  2
ENTITIES
  0
POLYLINE
  8
通り芯
  6
CONTINUOUS
 66
     1
 70
     1
  0
VERTEX
  8
通り芯
 10
-210.0
 20
-148.5
  0
VERTEX
  8
通り芯
 10
210.0
 20
-148.5
  0
VERTEX
  8
通り芯
 10
210.0
 20
148.5
  0
VERTEX
  8
通り芯
 10
-210.0
 20
148.5
  0
SEQEND
  0
INSERT
  2
*GRP_0001
  8
型材断面
  6
CONTINUOUS
 10
0.0
 20
0.0
  0
LINE
  8
型材断面
  6
DASHDOT
 10
21.403067
 20
-77.836442
 11
21.403067
 21
52.814033
  0
LINE
  8
型材断面
  6
DASHDOT
 10
-28.596933
 20
-77.836442
 11
-28.596933
 21
52.814033
  0
LINE
  8
型材断面
  6
DASHDOT
 10
-78.596933
 20
-77.836442
 11
-78.596933
 21
52.814033
  0
LINE
  8
型材断面
  6
DASHDOT
 10
119.07983
 20
52.814033
 11
-78.596933
 21
52.814033
  0
LINE
  8
型材断面
  6
DASHDOT
 10
119.07983
 20
37.814033
 11
-78.596933
 21
37.814033
  0
LINE
  8
型材断面
  6
DASHDOT
 10
119.07983
 20
22.814033
 11
-78.596933
 21
22.814033
  0
LINE
  8
型材断面
  6
DOT
 10
-13.1136
 20
22.814033
 11
-13.1136
 21
52.814033
  0
LINE
  8
型材断面
  6
DOT
 10
-10.6136
 20
22.814033
 11
-10.6136
 21
52.814033
  0
LINE
  8
型材断面
  6
DASHDOT
 10
-11.8636
 20
22.814033
 11
-11.8636
 21
52.814033
  0
LINE
  8
型材断面
  6
DOT
 10
-44.080265
 20
22.814033
 11
-44.080265
 21
52.814033
  0
LINE
  8
型材断面
  6
DOT
 10
-46.580265
 20
22.814033
 11
-46.580265
 21
52.814033
  0
LINE
  8
型材断面
  6
DASHDOT
 10
-45.330265
 20
22.814033
 11
-45.330265
 21
52.814033
  0
POLYLINE
  8
型材断面
  6
CONTINUOUS
 66
     1
 70
     1
  0
VERTEX
  8
型材断面
 10
-19.131995
 20
13.03811
  0
VERTEX
  8
型材断面
 10
-37.903925
 20
13.03811
  0
VERTEX
  8
型材断面
 10
-37.903925
 20
8.301267
  0
VERTEX
  8
型材断面
 10
-19.131995
 20
8.301267
  0
SEQEND
  0
POLYLINE
  8
型材断面
  6
CONTINUOUS
 66
     1
 70
     1
  0
VERTEX
  8
型材断面
 10
-19.131995
 20
62.589955
  0
VERTEX
  8
型材断面
 10
-37.903925
 20
62.589955
  0
VERTEX
  8
型材断面
 10
-37.903925
 20
67.326798
  0
VERTEX
  8
型材断面
 10
-19.131995
 20
67.326798
  0
SEQEND
  0
LINE
  8
型材断面
  6
CONTINUOUS
 10
-132.475455
 20
90.791505
 11
-131.8794
 21
88.200998
  0
LINE
  8
型材断面
  6
CONTINUOUS
 10
-132.475455
 20
90.791505
 11
-133.071512
 21
88.200998
  0
LINE
  8
型材断面
  6
CONTINUOUS
 10
-133.071512
 20
88.200998
 11
-131.8794
 21
88.200998
  0
LINE
  8
型材断面
  6
CONTINUOUS
 10
-138.498042
 20
84.922105
 11
-92.256265
 21
84.922105
  0
LINE
  8
型材断面
  6
CONTINUOUS
 10
-132.475455
 20
97.32138
 11
-133.971085
 21
94.730873
  0
LINE
  8
型材断面
  6
CONTINUOUS
 10
-132.475455
 20
97.32138
 11
-130.979825
 21
94.730873
  0
LINE
  8
型材断面
  6
CONTINUOUS
 10
-130.979825
 20
94.730873
 11
-133.971085
 21
94.730873
  0
LINE
  8
型材断面
  6
CONTINUOUS
 10
-138.498042
 20
93.792277
 11
-92.256265
 21
93.792277
  0
LINE
  8
型材断面
  6
CONTINUOUS
 10
-138.498042
 20
79.134073
 11
-92.256265
 21
79.134073
  0
INSERT
  2
*GRP_0008
  8
型材断面
  6
CONTINUOUS
 10
0.0
 20
0.0
  0
INSERT
  2
*GRP_0009
  8
型材断面
  6
CONTINUOUS
 10
0.0
 20
0.0
  0
INSERT
  2
*GRP_0010
  8
型材断面
  6
CONTINUOUS
 10
0.0
 20
0.0
  0
INSERT
  2
*GRP_0011
  8
型材断面
  6
CONTINUOUS
 10
0.0
 20
0.0
  0
LINE
  8
型材断面
  6
CONTINUOUS
 10
-138.498042
 20
73.34604
 11
-92.256265
 21
73.34604
  0
LINE
  8
型材断面
  6
CONTINUOUS
 10
111.98645
 20
37.814033
 11
111.98645
 21
21.453885
  0
LINE
  8
型材断面
  6
CONTINUOUS
 10
113.13645
 20
37.814033
 11
113.13645
 21
20.0507
  0
LINE
  8
型材断面
  6
CONTINUOUS
 10
114.303118
 20
37.814033
 11
114.303118
 21
20.0507
  0
LINE
  8
型材断面
  6
CONTINUOUS
 10
111.98645
 20
37.814033
 11
111.98645
 21
54.17418
  0
LINE
  8
型材断面
  6
CONTINUOUS
 10
113.13645
 20
37.814033
 11
113.13645
 21
55.577365
  0
LINE
  8
型材断面
  6
CONTINUOUS
 10
114.303118
 20
37.814033
 11
114.303118
 21
55.577365
  0
LINE
  8
型材断面
  6
CONTINUOUS
 10
-28.596933
 20
-71.259738
 11
-79.957082
 21
-71.259738
  0
LINE
  8
型材断面
  6
CONTINUOUS
 10
-28.596933
 20
-72.409738
 11
-81.360268
 21
-72.409738
  0
LINE
  8
型材断面
  6
CONTINUOUS
 10
-28.596933
 20
-73.576405
 11
-81.360268
 21
-73.576405
  0
LINE
  8
型材断面
  6
CONTINUOUS
 10
-28.596933
 20
-71.259738
 11
22.763218
 21
-71.259738
  0
LINE
  8
型材断面
  6
CONTINUOUS
 10
-28.596933
 20
-72.409738
 11
24.166403
 21
-72.409738
  0
LINE
  8
型材断面
  6
CONTINUOUS
 10
-28.596933
 20
-73.576405
 11
24.166403
 21
-73.576405
  0
LINE
  8
型材断面
  6
CONTINUOUS
 10
-81.360268
 20
55.577365
 11
24.166403
 21
55.577365
  0
LINE
  8
型材断面
  6
CONTINUOUS
 10
24.166403
 20
55.577365
 11
24.166403
 21
20.0507
  0
LINE
  8
型材断面
  6
CONTINUOUS
 10
24.166403
 20
20.0507
 11
-81.360268
 21
20.0507
  0
LINE
  8
型材断面
  6
CONTINUOUS
 10
-81.360268
 20
55.577365
 11
-81.360268
 21
20.0507
  0
LINE
  8
型材断面
  6
CONTINUOUS
 10
-80.6636
 20
20.747365
 11
-81.360268
 21
20.0507
  0
LINE
  8
型材断面
  6
CONTINUOUS
 10
-80.6636
 20
54.8807
 11
-81.360268
 21
55.577365
  0
LINE
  8
型材断面
  6
CONTINUOUS
 10
23.469735
 20
54.8807
 11
24.166403
 21
55.577365
  0
LINE
  8
型材断面
  6
CONTINUOUS
 10
23.469735
 20
20.747365
 11
24.166403
 21
20.0507
  0
LINE
  8
型材断面
  6
CONTINUOUS
 10
-81.360268
 20
37.814033
 11
-83.950775
 21
39.309663
  0
LINE
  8
型材断面
  6
CONTINUOUS
 10
-81.360268
 20
37.814033
 11
-83.950775
 21
36.318403
  0
LINE
  8
型材断面
  6
CONTINUOUS
 10
-83.950775
 20
36.318403
 11
-83.950775
 21
39.309663
  0
LINE
  8
型材断面
  6
CONTINUOUS
 10
-81.360268
 20
49.114035
 11
-83.950778
 21
48.517982
  0
LINE
  8
型材断面
  6
CONTINUOUS
 10
-81.360268
 20
49.114035
 11
-83.950775
 21
49.710095
  0
LINE
  8
型材断面
  6
CONTINUOUS
 10
-83.950775
 20
49.710095
 11
-83.950778
 21
48.517982
  0
LINE
  8
型材断面
  6
CONTINUOUS
 10
-81.360268
 20
26.51403
 11
-83.950778
 21
27.110082
  0
LINE
  8
型材断面
  6
CONTINUOUS
 10
-81.360268
 20
26.51403
 11
-83.950775
 21
25.91797
  0
LINE
  8
型材断面
  6
CONTINUOUS
 10
-83.950775
 20
25.91797
 11
-83.950778
 21
27.110082
  0
LINE
  8
型材断面
  6
CONTINUOUS
 10
-61.930265
 20
55.577365
 11
-63.425895
 21
58.167872
  0
LINE
  8
型材断面
  6
CONTINUOUS
 10
-61.930265
 20
55.577365
 11
-60.434635
 21
58.167872
  0
LINE
  8
型材断面
  6
CONTINUOUS
 10
-60.434635
 20
58.167872
 11
-63.425895
 21
58.167872
  0
LINE
  8
型材断面
  6
CONTINUOUS
 10
4.7364
 20
55.577365
 11
6.23203
 21
58.167872
  0
LINE
  8
型材断面
  6
CONTINUOUS
 10
4.7364
 20
55.577365
 11
3.24077
 21
58.167872
  0
LINE
  8
型材断面
  6
CONTINUOUS
 10
3.24077
 20
58.167872
 11
6.23203
 21
58.167872
  0
LINE
  8
型材断面
  6
CONTINUOUS
 10
24.166403
 20
49.114035
 11
26.756912
 21
48.517982
  0
LINE
  8
型材断面
  6
CONTINUOUS
 10
24.166403
 20
49.114035
 11
26.75691
 21
49.710095
  0
LINE
  8
型材断面
  6
CONTINUOUS
 10
26.75691
 20
49.710095
 11
26.756912
 21
48.517982
  0
LINE
  8
型材断面
  6
CONTINUOUS
 10
24.166403
 20
26.51403
 11
26.756912
 21
27.110082
  0
LINE
  8
型材断面
  6
CONTINUOUS
 10
24.166403
 20
26.51403
 11
26.75691
 21
25.91797
  0
LINE
  8
型材断面
  6
CONTINUOUS
 10
26.75691
 20
25.91797
 11
26.756912
 21
27.110082
  0
LINE
  8
型材断面
  6
CONTINUOUS
 10
24.166403
 20
37.814033
 11
26.75691
 21
39.309663
  0
LINE
  8
型材断面
  6
CONTINUOUS
 10
24.166403
 20
37.814033
 11
26.75691
 21
36.318403
  0
LINE
  8
型材断面
  6
CONTINUOUS
 10
26.75691
 20
36.318403
 11
26.75691
 21
39.309663
  0
LINE
  8
型材断面
  6
CONTINUOUS
 10
-61.930265
 20
20.0507
 11
-63.425895
 21
17.460193
  0
LINE
  8
型材断面
  6
CONTINUOUS
 10
-61.930265
 20
20.0507
 11
-60.434635
 21
17.460193
  0
LINE
  8
型材断面
  6
CONTINUOUS
 10
-60.434635
 20
17.460193
 11
-63.425895
 21
17.460193
  0
LINE
  8
型材断面
  6
CONTINUOUS
 10
4.7364
 20
20.0507
 11
6.23203
 21
17.460193
  0
LINE
  8
型材断面
  6
CONTINUOUS
 10
4.7364
 20
20.0507
 11
3.24077
 21
17.460193
  0
LINE
  8
型材断面
  6
CONTINUOUS
 10
3.24077
 20
17.460193
 11
6.23203
 21
17.460193
  0
LINE
  8
型材断面
  6
CONTINUOUS
 10
23.666403
 20
-77.709623
 11
23.666403
 21
-78.046288
  0
LINE
  8
型材断面
  6
CONTINUOUS
 10
24.166403
 20
-77.709623
 11
23.666403
 21
-77.709623
  0
LINE
  8
型材断面
  6
CONTINUOUS
 10
24.166403
 20
-73.80974
 11
23.969778
 21
-73.613118
  0
LINE
  8
型材断面
  6
CONTINUOUS
 10
24.166403
 20
-73.80974
 11
24.166403
 21
-77.709623
  0
LINE
  8
型材断面
  6
CONTINUOUS
 10
118.436335
 20
55.077365
 11
118.773
 21
55.077365
  0
LINE
  8
型材断面
  6
CONTINUOUS
 10
118.436335
 20
55.577365
 11
118.436335
 21
55.077365
  0
LINE
  8
型材断面
  6
CONTINUOUS
 10
114.536453
 20
55.577365
 11
114.33983
 21
55.38074
  0
LINE
  8
型材断面
  6
CONTINUOUS
 10
114.536453
 20
55.577365
 11
118.436335
 21
55.577365
  0
LINE
  8
型材断面
  6
CONTINUOUS
 62
    47
 10
114.33983
 20
55.38074
 11
114.33983
 21
37.814033
  0
LINE
  8
型材断面
  6
CONTINUOUS
 10
114.536453
 20
55.577365
 11
114.536453
 21
37.814033
  0
LINE
  8
型材断面
  6
CONTINUOUS
 10
118.436335
 20
55.577365
 11
118.436335
 21
37.814033
  0
LINE
  8
型材断面
  6
CONTINUOUS
 10
118.773
 20
55.077365
 11
118.773
 21
37.814033
  0
LINE
  8
型材断面
  6
CONTINUOUS
 10
118.436335
 20
20.5507
 11
118.773
 21
20.5507
  0
LINE
  8
型材断面
  6
CONTINUOUS
 10
114.536453
 20
20.0507
 11
114.33983
 21
20.247325
  0
LINE
  8
型材断面
  6
CONTINUOUS
 10
114.536453
 20
20.0507
 11
118.436335
 21
20.0507
  0
LINE
  8
型材断面
  6
CONTINUOUS
 62
    47
 10
114.33983
 20
20.247325
 11
114.33983
 21
37.814033
  0
LINE
  8
型材断面
  6
CONTINUOUS
 10
114.536453
 20
20.0507
 11
114.536453
 21
37.814033
  0
LINE
  8
型材断面
  6
CONTINUOUS
 10
118.436335
 20
20.0507
 11
118.436335
 21
37.814033
  0
LINE
  8
型材断面
  6
CONTINUOUS
 10
118.773
 20
20.5507
 11
118.773
 21
37.814033
  0
LINE
  8
型材断面
  6
CONTINUOUS
 62
    47
 10
23.969778
 20
-73.613118
 11
-28.596933
 21
-73.613118
  0
LINE
  8
型材断面
  6
CONTINUOUS
 10
24.166403
 20
-73.80974
 11
-28.596933
 21
-73.80974
  0
LINE
  8
型材断面
  6
CONTINUOUS
 10
23.666403
 20
-78.046288
 11
-28.596933
 21
-78.046288
  0
LINE
  8
型材断面
  6
CONTINUOUS
 10
24.166403
 20
-77.709623
 11
-28.596933
 21
-77.709623
  0
LINE
  8
型材断面
  6
CONTINUOUS
 10
-80.860268
 20
-77.709623
 11
-80.860268
 21
-78.046288
  0
LINE
  8
型材断面
  6
CONTINUOUS
 10
-81.360268
 20
-77.709623
 11
-80.860268
 21
-77.709623
  0
LINE
  8
型材断面
  6
CONTINUOUS
 10
-81.360268
 20
-73.80974
 11
-81.163642
 21
-73.613118
  0
LINE
  8
型材断面
  6
CONTINUOUS
 10
-81.360268
 20
-73.80974
 11
-81.360268
 21
-77.709623
  0
LINE
  8
型材断面
  6
CONTINUOUS
 62
    47
 10
-81.163642
 20
-73.613118
 11
-28.596933
 21
-73.613118
  0
LINE
  8
型材断面
  6
CONTINUOUS
 10
-81.360268
 20
-73.80974
 11
-28.596933
 21
-73.80974
  0
LINE
  8
型材断面
  6
CONTINUOUS
 10
-80.860268
 20
-78.046288
 11
-28.596933
 21
-78.046288
  0
LINE
  8
型材断面
  6
CONTINUOUS
 10
-81.360268
 20
-77.709623
 11
-28.596933
 21
-77.709623
  0
TEXT
  7
TextStyle03
  8
文字
  6
CONTINUOUS
 10
-36.8
 20
9.325
  1
可動装置側
 40
3.0
 72
     5
 11
-20.3
 21
9.325
  0
TEXT
  7
TextStyle03
  8
文字
  6
CONTINUOUS
 10
-36.8
 20
63.275
  1
可動装置側
 40
3.0
 72
     5
 11
-20.3
 21
63.275
  0
TEXT
  7
TextStyle03
  8
文字
  6
CONTINUOUS
 10
-129.675
 20
89.4
  1
はケーシング位置を示す
 40
3.0
 72
     5
 11
-92.925
 21
89.4
  0
TEXT
  7
TextStyle03
  8
文字
  6
CONTINUOUS
 10
-129.675
 20
86.025
  1
４ヶ所中1ヶ所に設定
 40
3.0
 72
     5
 11
-97.9875
 21
86.025
  0
TEXT
  7
TextStyle03
  8
文字
  6
CONTINUOUS
 10
-129.675
 20
94.925
  1
は排水穴位置を示す
 40
3.0
 72
     5
 11
-99.675
 21
94.925
  0
TEXT
  7
TextStyle03
  8
文字
  6
CONTINUOUS
 10
-99.575
 20
16.275
  1
アンカーピッチ
 40
3.0
 50
90.0
 72
     5
 11
-99.575
 21
39.525
  0
TEXT
  7
TextStyle03
  8
文字
  6
CONTINUOUS
 10
-68.625
 20
90.225
  1
アンカーピッチ
 40
3.0
 72
     5
 11
-45.375
 21
90.225
  0
TEXT
  7
TextStyle03
  8
文字
  6
CONTINUOUS
 10
-133.4
 20
80.05
  1
アンカー数量　１２ヶ所
 40
3.0
 72
     5
 11
-96.65
 21
80.05
  0
TEXT
  7
TextStyle03
  8
文字
  6
CONTINUOUS
 10
-133.45
 20
74.3
  1
アームユニット数　４ヶ所
 40
3.0
 72
     5
 11
-93.325
 21
74.3
  0
LINE
  8
文字
  6
CONTINUOUS
 10
55.422717
 20
20.0507
 11
111.96182
 21
20.0507
  0
LINE
  8
文字
  6
CONTINUOUS
 10
55.422717
 20
55.577365
 11
111.879665
 21
55.577365
  0
LINE
  8
文字
  6
CONTINUOUS
 10
90.936333
 20
38.814033
 11
90.936333
 21
68.369967
  0
LINE
  8
文字
  6
CONTINUOUS
 10
-81.360268
 20
-13.121378
 11
-81.360268
 21
-71.231
  0
LINE
  8
文字
  6
CONTINUOUS
 10
24.166403
 20
-13.121378
 11
24.166403
 21
-71.204143
  0
TEXT
  7
TextStyle03
  8
文字
  6
CONTINUOUS
 10
94.7
 20
-74.175
  1
網入り6.8t
 40
3.0
 72
     5
 11
111.3875
 21
-74.175
  0
TEXT
  7
TextStyle03
  8
文字
  6
CONTINUOUS
 10
101.375
 20
-78.85
  1
×３枚
 40
3.0
 72
     5
 11
111.125
 21
-78.85
  0
TEXT
  7
TextStyle03
  8
文字
  6
CONTINUOUS
 10
78.1
 20
125.25
  1
シリーズ：ＴＤ１Ｌ
 40
5.0
 72
     5
 11
128.1
 21
125.25
  0
TEXT
  7
TextStyle03
  8
文字
  6
CONTINUOUS
 10
78.1
 20
119.625
  1
　　　　　（上下可動）900×3000タイプ
 40
5.0
 72
     5
 11
181.5375
 21
119.625
  0
TEXT
  7
TextStyle03
  8
文字
  6
CONTINUOUS
 10
78.1
 20
114.0
  1
図面名　：外観姿図
 40
5.0
 72
     5
 11
128.1
 21
114.0
  0
TEXT
  7
TextStyle03
  8
文字
  6
CONTINUOUS
 10
78.1
 20
108.375
  1
　　　　　　
 40
5.0
 72
     5
 11
111.225
 21
108.375
  0
TEXT
  7
TextStyle03
  8
文字
  6
CONTINUOUS
 10
77.525
 20
103.1
  1
ＮＳコード：ＮＳＤＬ
 40
5.0
 72
     5
 11
133.15
 21
103.1
  0
INSERT
  2
*DIM_0002
  8
寸法
  6
CONTINUOUS
 10
0.0
 20
0.0
  0
INSERT
  2
*DIM_0003
  8
寸法
  6
CONTINUOUS
 10
0.0
 20
0.0
  0
INSERT
  2
*DIM_0004
  8
寸法
  6
CONTINUOUS
 10
0.0
 20
0.0
  0
INSERT
  2
*DIM_0005
  8
寸法
  6
CONTINUOUS
 10
0.0
 20
0.0
  0
INSERT
  2
*DIM_0006
  8
寸法
  6
CONTINUOUS
 10
0.0
 20
0.0
  0
INSERT
  2
*DIM_0012
  8
寸法
  6
CONTINUOUS
 10
0.0
 20
0.0
  0
INSERT
  2
*DIM_0013
  8
寸法
  6
CONTINUOUS
 10
0.0
 20
0.0
  0
INSERT
  2
*DIM_0014
  8
寸法
  6
CONTINUOUS
 10
0.0
 20
0.0
  0
INSERT
  2
*DIM_0015
  8
寸法
  6
CONTINUOUS
 10
0.0
 20
0.0
  0
INSERT
  2
*DIM_0016
  8
寸法
  6
CONTINUOUS
 10
0.0
 20
0.0
  0
INSERT
  2
*DIM_0017
  8
寸法
  6
CONTINUOUS
 10
0.0
 20
0.0
  0
INSERT
  2
*DIM_0018
  8
寸法
  6
CONTINUOUS
 10
0.0
 20
0.0
  0
INSERT
  2
*DIM_0019
  8
寸法
  6
CONTINUOUS
 10
0.0
 20
0.0
  0
INSERT
  2
*DIM_0020
  8
寸法
  6
CONTINUOUS
 10
0.0
 20
0.0
  0
INSERT
  2
*DIM_0021
  8
寸法
  6
CONTINUOUS
 10
0.0
 20
0.0
  0
INSERT
  2
*DIM_0024
  8
寸法
  6
CONTINUOUS
 10
0.0
 20
0.0
  0
INSERT
  2
*DIM_0025
  8
寸法
  6
CONTINUOUS
 10
0.0
 20
0.0
  0
INSERT
  2
*DIM_0026
  8
寸法
  6
CONTINUOUS
 10
0.0
 20
0.0
  0
INSERT
  2
*DIM_0027
  8
寸法
  6
CONTINUOUS
 10
0.0
 20
0.0
  0
INSERT
  2
*DIM_0038
  8
寸法
  6
CONTINUOUS
 10
0.0
 20
0.0
  0
INSERT
  2
*DIM_0039
  8
寸法
  6
CONTINUOUS
 10
0.0
 20
0.0
  0
LINE
  8
別途部材
  6
CONTINUOUS
 10
23.469735
 20
20.747365
 11
23.069735
 21
21.147365
  0
LINE
  8
別途部材
  6
CONTINUOUS
 10
21.403067
 20
22.814033
 11
13.343813
 21
30.87329
  0
LINE
  8
別途部材
  6
CONTINUOUS
 10
23.069735
 20
21.147365
 11
23.069735
 21
37.814033
  0
LINE
  8
別途部材
  6
CONTINUOUS
 10
23.469735
 20
20.747365
 11
23.469735
 21
37.814033
  0
LINE
  8
別途部材
  6
CONTINUOUS
 10
23.469735
 20
54.8807
 11
23.069735
 21
54.4807
  0
LINE
  8
別途部材
  6
CONTINUOUS
 10
21.403067
 20
52.814033
 11
13.343813
 21
44.754775
  0
LINE
  8
別途部材
  6
CONTINUOUS
 10
23.069735
 20
54.4807
 11
23.069735
 21
37.814033
  0
LINE
  8
別途部材
  6
CONTINUOUS
 10
23.469735
 20
54.8807
 11
23.469735
 21
37.814033
  0
LINE
  8
別途部材
  6
CONTINUOUS
 10
23.069735
 20
54.4807
 11
-28.596933
 21
54.4807
  0
LINE
  8
別途部材
  6
CONTINUOUS
 10
23.469735
 20
54.8807
 11
-28.596933
 21
54.8807
  0
LINE
  8
別途部材
  6
CONTINUOUS
 10
23.069735
 20
21.147365
 11
-28.596933
 21
21.147365
  0
LINE
  8
別途部材
  6
CONTINUOUS
 10
23.469735
 20
20.747365
 11
-28.596933
 21
20.747365
  0
LINE
  8
別途部材
  6
CONTINUOUS
 10
-80.6636
 20
20.747365
 11
-80.2636
 21
21.147365
  0
LINE
  8
別途部材
  6
CONTINUOUS
 10
-78.596933
 20
22.814033
 11
-70.537677
 21
30.87329
  0
LINE
  8
別途部材
  6
CONTINUOUS
 10
-80.2636
 20
21.147365
 11
-80.2636
 21
37.814033
  0
LINE
  8
別途部材
  6
CONTINUOUS
 10
-80.6636
 20
20.747365
 11
-80.6636
 21
37.814033
  0
LINE
  8
別途部材
  6
CONTINUOUS
 10
-80.6636
 20
54.8807
 11
-80.2636
 21
54.4807
  0
LINE
  8
別途部材
  6
CONTINUOUS
 10
-78.596933
 20
52.814033
 11
-70.537677
 21
44.754775
  0
LINE
  8
別途部材
  6
CONTINUOUS
 10
-80.2636
 20
54.4807
 11
-80.2636
 21
37.814033
  0
LINE
  8
別途部材
  6
CONTINUOUS
 10
-80.6636
 20
54.8807
 11
-80.6636
 21
37.814033
  0
LINE
  8
別途部材
  6
CONTINUOUS
 10
-80.2636
 20
54.4807
 11
-28.596933
 21
54.4807
  0
LINE
  8
別途部材
  6
CONTINUOUS
 10
-80.6636
 20
54.8807
 11
-28.596933
 21
54.8807
  0
LINE
  8
別途部材
  6
CONTINUOUS
 10
-80.2636
 20
21.147365
 11
-28.596933
 21
21.147365
  0
LINE
  8
別途部材
  6
CONTINUOUS
 10
-80.6636
 20
20.747365
 11
-28.596933
 21
20.747365
  0
INSERT
  2
*GRP_0007
  8
別途部材
  6
CONTINUOUS
 10
0.0
 20
0.0
  0
LINE
  8
別途部材
  6
CONTINUOUS
 62
    96
 10
110.936333
 20
21.147365
 11
111.936333
 21
20.747365
  0
LINE
  8
別途部材
  6
CONTINUOUS
 62
    96
 10
110.936333
 20
21.147365
 11
110.936333
 21
37.814033
  0
LINE
  8
別途部材
  6
CONTINUOUS
 10
111.936333
 20
20.747365
 11
111.936333
 21
37.814033
  0
LINE
  8
別途部材
  6
CONTINUOUS
 62
    96
 10
110.936333
 20
54.4807
 11
111.936333
 21
54.8807
  0
LINE
  8
別途部材
  6
CONTINUOUS
 62
    96
 10
110.936333
 20
54.4807
 11
110.936333
 21
37.814033
  0
LINE
  8
別途部材
  6
CONTINUOUS
 10
111.936333
 20
54.8807
 11
111.936333
 21
37.814033
  0
ARC
  8
別途部材
  6
CONTINUOUS
 10
120.269662
 20
37.814033
 40
17.666667
 50
121.890796
 51
238.109204
  0
INSERT
  2
*GRP_0030
  8
別途部材
  6
DOT
 10
0.0
 20
0.0
  0
INSERT
  2
*GRP_0031
  8
別途部材
  6
DOT
 10
0.0
 20
0.0
  0
INSERT
  2
*GRP_0032
  8
別途部材
  6
DOT
 10
0.0
 20
0.0
  0
INSERT
  2
*GRP_0033
  8
別途部材
  6
DOT
 10
0.0
 20
0.0
  0
INSERT
  2
*GRP_0034
  8
別途部材
  6
DOT
 10
0.0
 20
0.0
  0
INSERT
  2
*GRP_0035
  8
別途部材
  6
DOT
 10
0.0
 20
0.0
  0
INSERT
  2
*GRP_0036
  8
別途部材
  6
DOT
 10
0.0
 20
0.0
  0
INSERT
  2
*GRP_0037
  8
別途部材
  6
DOT
 10
0.0
 20
0.0
  0
POLYLINE
  8
曲げ物
  6
CONTINUOUS
 66
     1
 70
     1
  0
VERTEX
  8
曲げ物
 10
114.823715
 20
-51.15287
  0
VERTEX
  8
曲げ物
 10
82.223715
 20
-51.15287
  0
VERTEX
  8
曲げ物
 10
82.223715
 20
-81.15287
  0
VERTEX
  8
曲げ物
 10
114.823715
 20
-81.15287
  0
SEQEND
  0
INSERT
  2
*GRP_0028
  8
曲げ物
  6
CONTINUOUS
 10
0.0
 20
0.0
  0
INSERT
  2
*GRP_0029
  8
曲げ物
  6
CONTINUOUS
 10
0.0
 20
0.0
  0
LINE
  8
鉄骨等
  6
CONTINUOUS
 62
    47
 10
114.303118
 20
20.0507
 11
113.13645
 21
20.0507
  0
LINE
  8
鉄骨等
  6
CONTINUOUS
 62
    47
 10
113.13645
 20
20.0507
 11
111.98645
 21
21.453885
  0
LINE
  8
鉄骨等
  6
CONTINUOUS
 62
    47
 10
111.98645
 20
21.453885
 11
111.93633
 21
21.453885
  0
LINE
  8
鉄骨等
  6
CONTINUOUS
 62
    47
 10
114.303118
 20
55.577365
 11
113.13645
 21
55.577365
  0
LINE
  8
鉄骨等
  6
CONTINUOUS
 62
    47
 10
113.13645
 20
55.577365
 11
111.98645
 21
54.17418
  0
LINE
  8
鉄骨等
  6
CONTINUOUS
 62
    47
 10
111.98645
 20
54.17418
 11
111.93633
 21
54.17418
  0
LINE
  8
鉄骨等
  6
CONTINUOUS
 62
    47
 10
24.166403
 20
-72.409738
 11
22.763218
 21
-71.259738
  0
LINE
  8
鉄骨等
  6
CONTINUOUS
 62
    47
 10
22.763218
 20
-71.259738
 11
22.763218
 21
-71.209617
  0
LINE
  8
鉄骨等
  6
CONTINUOUS
 62
    47
 10
24.166403
 20
-72.409738
 11
24.166403
 21
-73.576405
  0
LINE
  8
鉄骨等
  6
CONTINUOUS
 62
    47
 10
-81.360268
 20
-73.576405
 11
-81.360268
 21
-72.409738
  0
LINE
  8
鉄骨等
  6
CONTINUOUS
 62
    47
 10
-81.360268
 20
-72.409738
 11
-79.957082
 21
-71.259738
  0
LINE
  8
鉄骨等
  6
CONTINUOUS
 62
    47
 10
-79.957082
 20
-71.259738
 11
-79.957082
 21
-71.209617
  0
ENDSEC
  0
EOF
