  0
SECTION
  2
HEADER
  9
$EXTMIN
 10
-210.0
 20
-148.5
  9
$EXTMAX
 10
210.0
 20
148.5
  9
$PDMODE
 70
    32
  9
$PDSIZE
 40
1.5
  9
$LTSCALE
 40
10.0
  0
ENDSEC
  0
SECTION
  2
TABLES
  0
TABLE
  2
LTYPE
 70
    15
  0
LTYPE
  2
CONTINUOUS
 70
    64
  3
実線
 72
    65
 73
     0
 40
0.0
  0
LTYPE
  2
DASHED
 70
    64
  3
破線A
 72
    65
 73
     2
 40
0.6
 49
0.4
 49
-0.2
  0
LTYPE
  2
DASHEDX2
 70
    64
  3
破線B
 72
    65
 73
     2
 40
1.3
 49
0.9
 49
-0.4
  0
LTYPE
  2
DASHDOT
 70
    64
  3
１点鎖線A
 72
    65
 73
     4
 40
0.5375
 49
0.375
 49
-0.05
 49
0.0625
 49
-0.05
  0
LTYPE
  2
DASHDOTX2
 70
    64
  3
１点鎖線B
 72
    65
 73
     4
 40
1.075
 49
0.75
 49
-0.1
 49
0.125
 49
-0.1
  0
LTYPE
  2
DIVIDE2
 70
    64
  3
２点鎖線A
 72
    65
 73
     6
 40
0.5125
 49
0.3
 49
-0.0375
 49
0.05
 49
-0.0375
 49
0.05
 49
-0.0375
  0
LTYPE
  2
DIVIDE
 70
    64
  3
２点鎖線B
 72
    65
 73
     6
 40
1.05
 49
0.55
 49
-0.1
 49
0.1
 49
-0.1
 49
0.1
 49
-0.1
  0
LTYPE
  2
DOT
 70
    64
  3
点線A
 72
    65
 73
     2
 40
0.1125
 49
0.0625
 49
-0.05
  0
LTYPE
  2
DOTX2
 70
    64
  3
点線B
 72
    65
 73
     2
 40
0.275
 49
0.15
 49
-0.125
  0
LTYPE
  2
CONTINUOUS
 70
    64
  3
実線
 72
    65
 73
     0
 40
0.0
  0
LTYPE
  2
CONTINUOUS
 70
    64
  3
実線
 72
    65
 73
     0
 40
0.0
  0
LTYPE
  2
CONTINUOUS
 70
    64
  3
実線
 72
    65
 73
     0
 40
0.0
  0
LTYPE
  2
CONTINUOUS
 70
    64
  3
実線
 72
    65
 73
     0
 40
0.0
  0
LTYPE
  2
CONTINUOUS
 70
    64
  3
実線
 72
    65
 73
     0
 40
0.0
  0
LTYPE
  2
CONTINUOUS
 70
    64
  3
実線
 72
    65
 73
     0
 40
0.0
  0
ENDTAB
  0
TABLE
  2
LAYER
 70
    34
  0
LAYER
  2
通り芯
 70
     0
 62
    15
  6
CONTINUOUS
  0
LAYER
  2
補助線
 70
     0
 62
    16
  6
DOT
  0
LAYER
  2
躯体
 70
     0
 62
    31
  6
CONTINUOUS
  0
LAYER
  2
型材
 70
     0
 62
    32
  6
CONTINUOUS
  0
LAYER
  2
型材断面
 70
     0
 62
    47
  6
CONTINUOUS
  0
LAYER
  2
ガラス
 70
     0
 62
    48
  6
CONTINUOUS
  0
LAYER
  2
ゴム等
 70
     0
 62
    63
  6
CONTINUOUS
  0
LAYER
  2
ボルト／ビス
 70
     0
 62
    64
  6
CONTINUOUS
  0
LAYER
  2
文字
 70
     0
 62
    79
  6
CONTINUOUS
  0
LAYER
  2
寸法
 70
     0
 62
    80
  6
CONTINUOUS
  0
LAYER
  2
ﾊｯﾁﾝｸﾞ
 70
     0
 62
    95
  6
CONTINUOUS
  0
LAYER
  2
別途部材
 70
     0
 62
    96
  6
CONTINUOUS
  0
LAYER
  2
曲げ物
 70
     0
 62
   111
  6
CONTINUOUS
  0
LAYER
  2
鉄骨等
 70
     0
 62
   112
  6
CONTINUOUS
  0
LAYER
  2
St
 70
     0
 62
   127
  6
CONTINUOUS
  0
LAYER
  2
その他部品等
 70
     0
 62
   128
  6
CONTINUOUS
  0
LAYER
  2
ｶﾞｽｹｯﾄ
 70
     0
 62
   143
  6
CONTINUOUS
  0
LAYER
  2
ｽｹｯﾁ
 70
     0
 62
    14
  6
CONTINUOUS
  0
LAYER
  2
0
 70
     0
 62
    17
  6
CONTINUOUS
  0
LAYER
  2
1
 70
     0
 62
    30
  6
CONTINUOUS
  0
LAYER
  2
4
 70
     0
 62
    33
  6
CONTINUOUS
  0
LAYER
  2
ﾚｲﾔ3
 70
     0
 62
    46
  6
CONTINUOUS
  0
LAYER
  2
外形線
 70
     0
 62
    49
  6
CONTINUOUS
  0
LAYER
  2
部品
 70
     0
 62
    14
  6
CONTINUOUS
  0
LAYER
  2
サッシ芯
 70
     0
 62
    17
  6
DASHDOTX2
  0
LAYER
  2
寸法線
 70
     0
 62
    62
  6
CONTINUOUS
  0
LAYER
  2
姿図外形線
 70
     0
 62
    65
  6
CONTINUOUS
  0
LAYER
  2
姿補助線
 70
     0
 62
    30
  6
CONTINUOUS
  0
LAYER
  2
透視線
 70
     0
 62
    78
  6
DOT
  0
LAYER
  2
用紙
 70
     0
 62
    81
  6
CONTINUOUS
  0
LAYER
  2
実線図枠
 70
     0
 62
    94
  6
CONTINUOUS
  0
LAYER
  2
補助図枠
 70
     0
 62
    97
  6
CONTINUOUS
  0
LAYER
  2
建具記号
 70
     0
 62
   110
  6
CONTINUOUS
  0
LAYER
  2
補助文字
 70
     0
 62
   113
  6
CONTINUOUS
  0
ENDTAB
  0
TABLE
  2
STYLE
 70
    10
  0
STYLE
  2
STANDARD
 70
     0
 40
1.0
 41
1.0
 42
1.0
 50
0.0
 71
     0
  3
TXT
  4
BIGFONT
  0
STYLE
  2
TATE
 70
     4
 40
1.0
 41
1.0
 42
1.0
 50
0.0
 71
     0
  3
TXT
  4
BIGFONT
  0
STYLE
  2
TextStyle03
 70
     0
 40
1.0
 41
1.0
 42
1.0
 50
0.0
 71
     0
  3
MONOTXT
  4
BIGFONT
  0
STYLE
  2
TextStyle04
 70
     0
 40
1.0
 41
1.0
 42
1.0
 50
0.0
 71
     0
  3
MONOTXT
  4
BIGFONT
  0
STYLE
  2
TextStyle05
 70
     0
 40
1.0
 41
1.0
 42
1.0
 50
0.0
 71
     0
  3
MONOTXT
  4
BIGFONT
  0
STYLE
  2
TextStyle06
 70
     0
 40
1.0
 41
1.0
 42
1.0
 50
0.0
 71
     0
  3
MONOTXT
  4
BIGFONT
  0
STYLE
  2
TextStyle07
 70
     0
 40
1.0
 41
1.0
 42
1.0
 50
0.0
 71
     0
  3
MONOTXT
  4
BIGFONT
  0
STYLE
  2
TextStyle08
 70
     0
 40
1.0
 41
1.0
 42
1.0
 50
0.0
 71
     0
  3
MONOTXT
  4
BIGFONT
  0
STYLE
  2
TextStyle09
 70
     0
 40
1.0
 41
1.0
 42
1.0
 50
0.0
 71
     0
  3
MONOTXT
  4
BIGFONT
  0
STYLE
  2
TextStyle10
 70
     0
 40
1.0
 41
1.0
 42
1.0
 50
0.0
 71
     0
  3
MONOTXT
  4
BIGFONT
  0
ENDTAB
  0
ENDSEC
  0
SECTION
  2
BLOCKS
  0
BLOCK
  2
*GRP_0001
 70
    65
 10
0.0
 20
0.0
  0
LINE
  8
型材断面
  6
CONTINUOUS
 10
195.0
 20
133.5
 11
195.0
 21
-133.5
  0
LINE
  8
型材断面
  6
CONTINUOUS
 10
195.0
 20
-133.5
 11
-185.0
 21
-133.5
  0
LINE
  8
型材断面
  6
CONTINUOUS
 10
-185.0
 20
-133.5
 11
-185.0
 21
133.5
  0
LINE
  8
型材断面
  6
CONTINUOUS
 10
195.0
 20
133.5
 11
-185.0
 21
133.5
  0
LINE
  8
型材断面
  6
CONTINUOUS
 10
145.0
 20
-133.5
 11
145.0
 21
-118.5
  0
LINE
  8
型材断面
  6
CONTINUOUS
 10
195.0
 20
-118.5
 11
145.0
 21
-118.5
  0
ENDBLK
  0
BLOCK
  2
*DIM_0002
 70
    65
 10
0.0
 20
0.0
  0
LINE
  8
寸法
  6
BYBLOCK
 62
     0
 10
7.403067
 20
-61.87628
 11
37.372718
 21
-61.87628
  0
LINE
  8
寸法
  6
BYBLOCK
 62
     0
 10
37.372718
 20
-70.209613
 11
37.372718
 21
-61.87628
  0
POINT
  8
寸法
 62
     0
 10
37.372718
 20
-70.209613
  0
POINT
  8
寸法
 62
     0
 10
37.372718
 20
-61.87628
  0
TEXT
  7
TextStyle03
  8
寸法
  6
CONTINUOUS
 62
     0
 10
37.05
 20
-68.5125
  1
250
 40
3.0
 50
90.0
 72
     5
 11
37.05
 21
-63.6375
  0
ENDBLK
  0
BLOCK
  2
*DIM_0003
 70
    65
 10
0.0
 20
0.0
  0
LINE
  8
寸法
  6
BYBLOCK
 62
     0
 10
-61.930265
 20
-13.511205
 11
-61.930265
 21
-13.121378
  0
LINE
  8
寸法
  6
BYBLOCK
 62
     0
 10
21.403067
 20
-13.121378
 11
-61.930265
 21
-13.121378
  0
POINT
  8
寸法
 62
     0
 10
21.403067
 20
-13.121378
  0
POINT
  8
寸法
 62
     0
 10
-61.930265
 20
-13.121378
  0
TEXT
  7
TextStyle03
  8
寸法
  6
CONTINUOUS
 62
     0
 10
-31.99375
 20
-12.75
  1
呼称寸法　2500
 40
3.0
 72
     5
 11
-8.55625
 21
-12.75
  0
ENDBLK
  0
BLOCK
  2
*DIM_0004
 70
    65
 10
0.0
 20
0.0
  0
LINE
  8
寸法
  6
BYBLOCK
 62
     0
 10
-45.263598
 20
19.183902
 11
-45.263598
 21
14.01842
  0
LINE
  8
寸法
  6
BYBLOCK
 62
     0
 10
4.736398
 20
19.183902
 11
4.736398
 21
14.01842
  0
LINE
  8
寸法
  6
BYBLOCK
 62
     0
 10
-45.263598
 20
14.01842
 11
4.736398
 21
14.01842
  0
POINT
  8
寸法
 62
     0
 10
-45.263598
 20
14.01842
  0
POINT
  8
寸法
 62
     0
 10
4.736398
 20
14.01842
  0
TEXT
  7
TextStyle03
  8
寸法
  6
CONTINUOUS
 62
     0
 10
-23.55625
 20
14.375
  1
1500
 40
3.0
 72
     5
 11
-16.99375
 21
14.375
  0
ENDBLK
  0
BLOCK
  2
*DIM_0005
 70
    65
 10
0.0
 20
0.0
  0
LINE
  8
寸法
  6
BYBLOCK
 62
     0
 10
22.403067
 20
52.814035
 11
32.12735
 21
52.814035
  0
LINE
  8
寸法
  6
BYBLOCK
 62
     0
 10
25.033197
 20
49.114035
 11
32.12735
 21
49.114035
  0
LINE
  8
寸法
  6
BYBLOCK
 62
     0
 10
32.12735
 20
52.814035
 11
32.12735
 21
49.114035
  0
POINT
  8
寸法
 62
     0
 10
32.12735
 20
52.814035
  0
POINT
  8
寸法
 62
     0
 10
32.12735
 20
49.114035
  0
TEXT
  7
TextStyle03
  8
寸法
  6
CONTINUOUS
 62
     0
 10
31.8
 20
53.8125
  1
111
 40
3.0
 50
90.0
 72
     5
 11
31.8
 21
58.6875
  0
ENDBLK
  0
BLOCK
  2
*DIM_0006
 70
    65
 10
0.0
 20
0.0
  0
LINE
  8
寸法
  6
BYBLOCK
 62
     0
 10
22.403067
 20
22.81403
 11
32.12735
 21
22.814027
  0
LINE
  8
寸法
  6
BYBLOCK
 62
     0
 10
25.033197
 20
26.51403
 11
32.12735
 21
26.514027
  0
LINE
  8
寸法
  6
BYBLOCK
 62
     0
 10
32.12735
 20
22.814027
 11
32.12735
 21
26.514027
  0
POINT
  8
寸法
 62
     0
 10
32.12735
 20
22.814027
  0
POINT
  8
寸法
 62
     0
 10
32.12735
 20
26.514027
  0
TEXT
  7
TextStyle03
  8
寸法
  6
CONTINUOUS
 62
     0
 10
31.8
 20
16.9375
  1
111
 40
3.0
 50
90.0
 72
     5
 11
31.8
 21
21.8125
  0
ENDBLK
  0
BLOCK
  2
*GRP_0007
 70
    65
 10
0.0
 20
0.0
  0
LINE
  8
別途部材
  6
CONTINUOUS
 62
    96
 10
-63.596933
 20
-70.209613
 11
-63.996933
 21
-71.209613
  0
ARC
  8
別途部材
  6
CONTINUOUS
 10
-46.930262
 20
-79.54295
 40
17.666667
 50
90.0
 51
148.109204
  0
LINE
  8
別途部材
  6
CONTINUOUS
 62
    96
 10
-63.596933
 20
-70.209613
 11
-20.263598
 21
-70.209613
  0
LINE
  8
別途部材
  6
CONTINUOUS
 10
-63.996933
 20
-71.209613
 11
-20.263598
 21
-71.209613
  0
LINE
  8
別途部材
  6
CONTINUOUS
 10
-20.763598
 20
-60.87628
 11
-21.763598
 21
-61.87628
  0
LINE
  8
別途部材
  6
CONTINUOUS
 10
-22.763598
 20
-61.87628
 11
-23.763598
 21
-60.87628
  0
LINE
  8
別途部材
  6
CONTINUOUS
 10
-24.763598
 20
-60.87628
 11
-25.763598
 21
-61.87628
  0
LINE
  8
別途部材
  6
CONTINUOUS
 10
-23.763598
 20
-60.87628
 11
-24.763598
 21
-60.87628
  0
LINE
  8
別途部材
  6
CONTINUOUS
 10
-20.763598
 20
-60.87628
 11
-20.263598
 21
-60.87628
  0
LINE
  8
別途部材
  6
CONTINUOUS
 10
-26.763598
 20
-61.87628
 11
-27.763598
 21
-60.87628
  0
LINE
  8
別途部材
  6
CONTINUOUS
 10
-28.763598
 20
-60.87628
 11
-29.763598
 21
-61.87628
  0
LINE
  8
別途部材
  6
CONTINUOUS
 10
-27.763598
 20
-60.87628
 11
-28.763598
 21
-60.87628
  0
LINE
  8
別途部材
  6
CONTINUOUS
 10
-30.763598
 20
-61.87628
 11
-31.763598
 21
-60.87628
  0
LINE
  8
別途部材
  6
CONTINUOUS
 10
-32.763598
 20
-60.87628
 11
-33.763598
 21
-61.87628
  0
LINE
  8
別途部材
  6
CONTINUOUS
 10
-31.763598
 20
-60.87628
 11
-32.763598
 21
-60.87628
  0
LINE
  8
別途部材
  6
CONTINUOUS
 10
-34.763598
 20
-61.87628
 11
-35.763598
 21
-60.87628
  0
LINE
  8
別途部材
  6
CONTINUOUS
 10
-36.763598
 20
-60.87628
 11
-37.763598
 21
-61.87628
  0
LINE
  8
別途部材
  6
CONTINUOUS
 10
-35.763598
 20
-60.87628
 11
-36.763598
 21
-60.87628
  0
LINE
  8
別途部材
  6
CONTINUOUS
 10
-38.763598
 20
-61.87628
 11
-39.763598
 21
-60.87628
  0
LINE
  8
別途部材
  6
CONTINUOUS
 10
-40.763598
 20
-60.87628
 11
-41.763598
 21
-61.87628
  0
LINE
  8
別途部材
  6
CONTINUOUS
 10
-39.763598
 20
-60.87628
 11
-40.763598
 21
-60.87628
  0
LINE
  8
別途部材
  6
CONTINUOUS
 10
-42.763598
 20
-61.87628
 11
-43.763598
 21
-60.87628
  0
LINE
  8
別途部材
  6
CONTINUOUS
 10
-44.763598
 20
-60.87628
 11
-45.763598
 21
-61.87628
  0
LINE
  8
別途部材
  6
CONTINUOUS
 10
-43.763598
 20
-60.87628
 11
-44.763598
 21
-60.87628
  0
LINE
  8
別途部材
  6
CONTINUOUS
 10
-41.763598
 20
-61.87628
 11
-42.763598
 21
-61.87628
  0
LINE
  8
別途部材
  6
CONTINUOUS
 10
-37.763598
 20
-61.87628
 11
-38.763598
 21
-61.87628
  0
LINE
  8
別途部材
  6
CONTINUOUS
 10
-33.763598
 20
-61.87628
 11
-34.763598
 21
-61.87628
  0
LINE
  8
別途部材
  6
CONTINUOUS
 10
-29.763598
 20
-61.87628
 11
-30.763598
 21
-61.87628
  0
LINE
  8
別途部材
  6
CONTINUOUS
 10
-25.763598
 20
-61.87628
 11
-26.763598
 21
-61.87628
  0
LINE
  8
別途部材
  6
CONTINUOUS
 10
-22.763598
 20
-61.87628
 11
-21.763598
 21
-61.87628
  0
LINE
  8
別途部材
  6
CONTINUOUS
 10
-45.763598
 20
-61.87628
 11
-45.763598
 21
-70.209613
  0
LINE
  8
別途部材
  6
CONTINUOUS
 10
-44.763598
 20
-60.87628
 11
-44.763598
 21
-70.209613
  0
LINE
  8
別途部材
  6
CONTINUOUS
 10
-43.763598
 20
-60.87628
 11
-43.763598
 21
-70.209613
  0
LINE
  8
別途部材
  6
CONTINUOUS
 10
-39.763598
 20
-60.87628
 11
-39.763598
 21
-70.209613
  0
LINE
  8
別途部材
  6
CONTINUOUS
 10
-41.763598
 20
-61.87628
 11
-41.763598
 21
-70.209613
  0
LINE
  8
別途部材
  6
CONTINUOUS
 10
-42.763598
 20
-61.87628
 11
-42.763598
 21
-70.209613
  0
LINE
  8
別途部材
  6
CONTINUOUS
 10
-40.763598
 20
-60.87628
 11
-40.763598
 21
-70.209613
  0
LINE
  8
別途部材
  6
CONTINUOUS
 10
-38.763598
 20
-61.87628
 11
-38.763598
 21
-70.209613
  0
LINE
  8
別途部材
  6
CONTINUOUS
 10
-36.763598
 20
-60.87628
 11
-36.763598
 21
-70.209613
  0
LINE
  8
別途部材
  6
CONTINUOUS
 10
-35.763598
 20
-60.87628
 11
-35.763598
 21
-70.209613
  0
LINE
  8
別途部材
  6
CONTINUOUS
 10
-33.763598
 20
-61.87628
 11
-33.763598
 21
-70.209613
  0
LINE
  8
別途部材
  6
CONTINUOUS
 10
-34.763598
 20
-61.87628
 11
-34.763598
 21
-70.209613
  0
LINE
  8
別途部材
  6
CONTINUOUS
 10
-37.763598
 20
-61.87628
 11
-37.763598
 21
-70.209613
  0
LINE
  8
別途部材
  6
CONTINUOUS
 10
-32.763598
 20
-60.87628
 11
-32.763598
 21
-70.209613
  0
LINE
  8
別途部材
  6
CONTINUOUS
 10
-30.763598
 20
-61.87628
 11
-30.763598
 21
-70.209613
  0
LINE
  8
別途部材
  6
CONTINUOUS
 10
-31.763598
 20
-60.87628
 11
-31.763598
 21
-70.209613
  0
LINE
  8
別途部材
  6
CONTINUOUS
 10
-29.763598
 20
-61.87628
 11
-29.763598
 21
-70.209613
  0
LINE
  8
別途部材
  6
CONTINUOUS
 10
-28.763598
 20
-60.87628
 11
-28.763598
 21
-70.209613
  0
LINE
  8
別途部材
  6
CONTINUOUS
 10
-26.763598
 20
-61.87628
 11
-26.763598
 21
-70.209613
  0
LINE
  8
別途部材
  6
CONTINUOUS
 10
-27.763598
 20
-60.87628
 11
-27.763598
 21
-70.209613
  0
LINE
  8
別途部材
  6
CONTINUOUS
 10
-25.763598
 20
-61.87628
 11
-25.763598
 21
-70.209613
  0
LINE
  8
別途部材
  6
CONTINUOUS
 10
-24.763598
 20
-60.87628
 11
-24.763598
 21
-70.209613
  0
LINE
  8
別途部材
  6
CONTINUOUS
 10
-22.763598
 20
-61.87628
 11
-22.763598
 21
-70.209613
  0
LINE
  8
別途部材
  6
CONTINUOUS
 10
-23.763598
 20
-60.87628
 11
-23.763598
 21
-70.209613
  0
LINE
  8
別途部材
  6
CONTINUOUS
 10
-21.763598
 20
-61.87628
 11
-21.763598
 21
-70.209613
  0
LINE
  8
別途部材
  6
CONTINUOUS
 10
-20.763598
 20
-60.87628
 11
-20.763598
 21
-70.209613
  0
LINE
  8
別途部材
  6
CONTINUOUS
 10
-45.763598
 20
-61.87628
 11
-46.930265
 21
-61.87628
  0
LINE
  8
別途部材
  6
CONTINUOUS
 62
    96
 10
23.069735
 20
-70.209613
 11
23.469735
 21
-71.209613
  0
ARC
  8
別途部材
  6
CONTINUOUS
 10
6.403065
 20
-79.54295
 40
17.666667
 50
31.890796
 51
90.0
  0
LINE
  8
別途部材
  6
CONTINUOUS
 62
    96
 10
23.069735
 20
-70.209613
 11
-20.263598
 21
-70.209613
  0
LINE
  8
別途部材
  6
CONTINUOUS
 10
23.469735
 20
-71.209613
 11
-20.263598
 21
-71.209613
  0
LINE
  8
別途部材
  6
CONTINUOUS
 10
-19.763598
 20
-60.87628
 11
-18.763598
 21
-61.87628
  0
LINE
  8
別途部材
  6
CONTINUOUS
 10
-17.763598
 20
-61.87628
 11
-16.763598
 21
-60.87628
  0
LINE
  8
別途部材
  6
CONTINUOUS
 10
-15.763598
 20
-60.87628
 11
-14.763598
 21
-61.87628
  0
LINE
  8
別途部材
  6
CONTINUOUS
 10
-16.763598
 20
-60.87628
 11
-15.763598
 21
-60.87628
  0
LINE
  8
別途部材
  6
CONTINUOUS
 10
-19.763598
 20
-60.87628
 11
-20.263598
 21
-60.87628
  0
LINE
  8
別途部材
  6
CONTINUOUS
 10
-13.763598
 20
-61.87628
 11
-12.763598
 21
-60.87628
  0
LINE
  8
別途部材
  6
CONTINUOUS
 10
-11.763598
 20
-60.87628
 11
-10.763598
 21
-61.87628
  0
LINE
  8
別途部材
  6
CONTINUOUS
 10
-12.763598
 20
-60.87628
 11
-11.763598
 21
-60.87628
  0
LINE
  8
別途部材
  6
CONTINUOUS
 10
-9.763598
 20
-61.87628
 11
-8.763598
 21
-60.87628
  0
LINE
  8
別途部材
  6
CONTINUOUS
 10
-7.763598
 20
-60.87628
 11
-6.763598
 21
-61.87628
  0
LINE
  8
別途部材
  6
CONTINUOUS
 10
-8.763598
 20
-60.87628
 11
-7.763598
 21
-60.87628
  0
LINE
  8
別途部材
  6
CONTINUOUS
 10
-5.763598
 20
-61.87628
 11
-4.763598
 21
-60.87628
  0
LINE
  8
別途部材
  6
CONTINUOUS
 10
-3.763598
 20
-60.87628
 11
-2.763598
 21
-61.87628
  0
LINE
  8
別途部材
  6
CONTINUOUS
 10
-4.763598
 20
-60.87628
 11
-3.763598
 21
-60.87628
  0
LINE
  8
別途部材
  6
CONTINUOUS
 10
-1.763598
 20
-61.87628
 11
-0.763598
 21
-60.87628
  0
LINE
  8
別途部材
  6
CONTINUOUS
 10
0.236403
 20
-60.87628
 11
1.236403
 21
-61.87628
  0
LINE
  8
別途部材
  6
CONTINUOUS
 10
-0.763598
 20
-60.87628
 11
0.236403
 21
-60.87628
  0
LINE
  8
別途部材
  6
CONTINUOUS
 10
2.236403
 20
-61.87628
 11
3.236403
 21
-60.87628
  0
LINE
  8
別途部材
  6
CONTINUOUS
 10
4.236403
 20
-60.87628
 11
5.236403
 21
-61.87628
  0
LINE
  8
別途部材
  6
CONTINUOUS
 10
3.236403
 20
-60.87628
 11
4.236403
 21
-60.87628
  0
LINE
  8
別途部材
  6
CONTINUOUS
 10
1.236403
 20
-61.87628
 11
2.236403
 21
-61.87628
  0
LINE
  8
別途部材
  6
CONTINUOUS
 10
-2.763598
 20
-61.87628
 11
-1.763598
 21
-61.87628
  0
LINE
  8
別途部材
  6
CONTINUOUS
 10
-6.763598
 20
-61.87628
 11
-5.763598
 21
-61.87628
  0
LINE
  8
別途部材
  6
CONTINUOUS
 10
-10.763598
 20
-61.87628
 11
-9.763598
 21
-61.87628
  0
LINE
  8
別途部材
  6
CONTINUOUS
 10
-14.763598
 20
-61.87628
 11
-13.763598
 21
-61.87628
  0
LINE
  8
別途部材
  6
CONTINUOUS
 10
-17.763598
 20
-61.87628
 11
-18.763598
 21
-61.87628
  0
LINE
  8
別途部材
  6
CONTINUOUS
 10
5.236403
 20
-61.87628
 11
5.236403
 21
-70.209613
  0
LINE
  8
別途部材
  6
CONTINUOUS
 10
4.236403
 20
-60.87628
 11
4.236403
 21
-70.209613
  0
LINE
  8
別途部材
  6
CONTINUOUS
 10
3.236403
 20
-60.87628
 11
3.236403
 21
-70.209613
  0
LINE
  8
別途部材
  6
CONTINUOUS
 10
-0.763598
 20
-60.87628
 11
-0.763598
 21
-70.209613
  0
LINE
  8
別途部材
  6
CONTINUOUS
 10
1.236403
 20
-61.87628
 11
1.236403
 21
-70.209613
  0
LINE
  8
別途部材
  6
CONTINUOUS
 10
2.236403
 20
-61.87628
 11
2.236403
 21
-70.209613
  0
LINE
  8
別途部材
  6
CONTINUOUS
 10
0.236403
 20
-60.87628
 11
0.236403
 21
-70.209613
  0
LINE
  8
別途部材
  6
CONTINUOUS
 10
-1.763598
 20
-61.87628
 11
-1.763598
 21
-70.209613
  0
LINE
  8
別途部材
  6
CONTINUOUS
 10
-3.763598
 20
-60.87628
 11
-3.763598
 21
-70.209613
  0
LINE
  8
別途部材
  6
CONTINUOUS
 10
-4.763598
 20
-60.87628
 11
-4.763598
 21
-70.209613
  0
LINE
  8
別途部材
  6
CONTINUOUS
 10
-6.763598
 20
-61.87628
 11
-6.763598
 21
-70.209613
  0
LINE
  8
別途部材
  6
CONTINUOUS
 10
-5.763598
 20
-61.87628
 11
-5.763598
 21
-70.209613
  0
LINE
  8
別途部材
  6
CONTINUOUS
 10
-2.763598
 20
-61.87628
 11
-2.763598
 21
-70.209613
  0
LINE
  8
別途部材
  6
CONTINUOUS
 10
-7.763598
 20
-60.87628
 11
-7.763598
 21
-70.209613
  0
LINE
  8
別途部材
  6
CONTINUOUS
 10
-9.763598
 20
-61.87628
 11
-9.763598
 21
-70.209613
  0
LINE
  8
別途部材
  6
CONTINUOUS
 10
-8.763598
 20
-60.87628
 11
-8.763598
 21
-70.209613
  0
LINE
  8
別途部材
  6
CONTINUOUS
 10
-10.763598
 20
-61.87628
 11
-10.763598
 21
-70.209613
  0
LINE
  8
別途部材
  6
CONTINUOUS
 10
-11.763598
 20
-60.87628
 11
-11.763598
 21
-70.209613
  0
LINE
  8
別途部材
  6
CONTINUOUS
 10
-13.763598
 20
-61.87628
 11
-13.763598
 21
-70.209613
  0
LINE
  8
別途部材
  6
CONTINUOUS
 10
-12.763598
 20
-60.87628
 11
-12.763598
 21
-70.209613
  0
LINE
  8
別途部材
  6
CONTINUOUS
 10
-14.763598
 20
-61.87628
 11
-14.763598
 21
-70.209613
  0
LINE
  8
別途部材
  6
CONTINUOUS
 10
-15.763598
 20
-60.87628
 11
-15.763598
 21
-70.209613
  0
LINE
  8
別途部材
  6
CONTINUOUS
 10
-17.763598
 20
-61.87628
 11
-17.763598
 21
-70.209613
  0
LINE
  8
別途部材
  6
CONTINUOUS
 10
-16.763598
 20
-60.87628
 11
-16.763598
 21
-70.209613
  0
LINE
  8
別途部材
  6
CONTINUOUS
 10
-18.763598
 20
-61.87628
 11
-18.763598
 21
-70.209613
  0
LINE
  8
別途部材
  6
CONTINUOUS
 10
-19.763598
 20
-60.87628
 11
-19.763598
 21
-70.209613
  0
LINE
  8
別途部材
  6
CONTINUOUS
 10
5.236403
 20
-61.87628
 11
6.403067
 21
-61.87628
  0
ENDBLK
  0
BLOCK
  2
*DIM_0008
 70
    65
 10
0.0
 20
0.0
  0
LINE
  8
寸法
  6
BYBLOCK
 62
     0
 10
-64.930265
 20
47.814033
 11
-78.223103
 21
47.814033
  0
LINE
  8
寸法
  6
BYBLOCK
 62
     0
 10
-64.930265
 20
27.814033
 11
-78.223103
 21
27.814033
  0
LINE
  8
寸法
  6
BYBLOCK
 62
     0
 10
-78.223103
 20
47.814033
 11
-78.223103
 21
27.814033
  0
POINT
  8
寸法
 62
     0
 10
-78.223103
 20
47.814033
  0
POINT
  8
寸法
 62
     0
 10
-78.223103
 20
27.814033
  0
TEXT
  7
TextStyle03
  8
寸法
  6
CONTINUOUS
 62
     0
 10
-78.6
 20
35.3625
  1
600
 40
3.0
 50
90.0
 72
     5
 11
-78.6
 21
40.2375
  0
ENDBLK
  0
BLOCK
  2
*DIM_0009
 70
    65
 10
0.0
 20
0.0
  0
LINE
  8
寸法
  6
BYBLOCK
 62
     0
 10
-55.2636
 20
55.814033
 11
-55.2636
 21
85.561652
  0
LINE
  8
寸法
  6
BYBLOCK
 62
     0
 10
-31.930267
 20
55.814033
 11
-31.930267
 21
85.561652
  0
LINE
  8
寸法
  6
BYBLOCK
 62
     0
 10
-55.2636
 20
85.561652
 11
-31.930267
 21
85.561652
  0
POINT
  8
寸法
 62
     0
 10
-55.2636
 20
85.561652
  0
POINT
  8
寸法
 62
     0
 10
-31.930267
 20
85.561652
  0
TEXT
  7
TextStyle03
  8
寸法
  6
CONTINUOUS
 62
     0
 10
-46.0375
 20
85.95
  1
700
 40
3.0
 72
     5
 11
-41.1625
 21
85.95
  0
ENDBLK
  0
BLOCK
  2
*DIM_0010
 70
    65
 10
0.0
 20
0.0
  0
LINE
  8
寸法
  6
BYBLOCK
 62
     0
 10
-8.596933
 20
55.814033
 11
-8.596933
 21
85.561652
  0
LINE
  8
寸法
  6
BYBLOCK
 62
     0
 10
-31.930267
 20
85.561652
 11
-8.596933
 21
85.561652
  0
POINT
  8
寸法
 62
     0
 10
-8.596933
 20
85.561652
  0
TEXT
  7
TextStyle03
  8
寸法
  6
CONTINUOUS
 62
     0
 10
-22.7125
 20
85.95
  1
700
 40
3.0
 72
     5
 11
-17.8375
 21
85.95
  0
ENDBLK
  0
BLOCK
  2
*DIM_0011
 70
    65
 10
0.0
 20
0.0
  0
LINE
  8
寸法
  6
BYBLOCK
 62
     0
 10
14.7364
 20
55.814033
 11
14.7364
 21
85.561652
  0
LINE
  8
寸法
  6
BYBLOCK
 62
     0
 10
-8.596933
 20
85.561652
 11
14.7364
 21
85.561652
  0
POINT
  8
寸法
 62
     0
 10
14.7364
 20
85.561652
  0
TEXT
  7
TextStyle03
  8
寸法
  6
CONTINUOUS
 62
     0
 10
0.6375
 20
85.95
  1
700
 40
3.0
 72
     5
 11
5.5125
 21
85.95
  0
ENDBLK
  0
BLOCK
  2
*GRP_0012
 70
    65
 10
0.0
 20
0.0
  0
LINE
  8
補助線
  6
BYBLOCK
 62
    64
 10
115.849075
 20
49.412175
 11
115.94392
 21
49.549225
  0
LINE
  8
補助線
  6
BYBLOCK
 62
    64
 10
115.82797
 20
49.528123
 11
115.965022
 21
49.433278
  0
LINE
  8
補助線
  6
BYBLOCK
 62
    64
 10
109.532385
 20
40.284772
 11
109.627227
 21
40.421823
  0
LINE
  8
補助線
  6
BYBLOCK
 62
    64
 10
109.51128
 20
40.40072
 11
109.64833
 21
40.305875
  0
LINE
  8
補助線
  6
BYBLOCK
 62
    64
 10
103.310537
 20
31.29442
 11
103.215692
 21
31.157373
  0
LINE
  8
補助線
  6
BYBLOCK
 62
    64
 10
103.194587
 20
31.27332
 11
103.33164
 21
31.178472
  0
LINE
  8
型材断面
  6
CONTINUOUS
 10
115.40095
 20
50.22902
 11
116.09663
 21
50.35563
  0
LINE
  8
型材断面
  6
CONTINUOUS
 10
116.09663
 20
50.35563
 11
116.64482
 21
49.976247
  0
LINE
  8
型材断面
  6
CONTINUOUS
 10
116.64482
 20
49.976247
 11
116.77143
 21
49.280567
  0
LINE
  8
型材断面
  6
CONTINUOUS
 10
102.388185
 20
31.426028
 11
102.514795
 21
30.730348
  0
LINE
  8
型材断面
  6
CONTINUOUS
 10
102.514795
 20
30.730348
 11
103.062985
 21
30.350965
  0
LINE
  8
型材断面
  6
CONTINUOUS
 10
103.062985
 20
30.350965
 11
103.758665
 21
30.477575
  0
LINE
  8
型材断面
  6
CONTINUOUS
 10
115.40095
 20
50.22902
 11
102.388185
 21
31.426028
  0
LINE
  8
型材断面
  6
CONTINUOUS
 10
116.77143
 20
49.280567
 11
103.758665
 21
30.477575
  0
CIRCLE
  8
ボルト／ビス
  6
CONTINUOUS
 10
115.896498
 20
49.4807
 40
0.250185
  0
CIRCLE
  8
ボルト／ビス
  6
CONTINUOUS
 10
115.896498
 20
49.4807
 40
0.301025
  0
LINE
  8
ボルト／ビス
  6
CONTINUOUS
 62
    64
 10
115.916935
 20
49.73005
 11
115.690775
 21
49.623072
  0
LINE
  8
ボルト／ビス
  6
CONTINUOUS
 62
    64
 10
115.670337
 20
49.373723
 11
115.690775
 21
49.623072
  0
LINE
  8
ボルト／ビス
  6
CONTINUOUS
 62
    64
 10
116.122658
 20
49.587678
 11
116.10222
 21
49.338328
  0
LINE
  8
ボルト／ビス
  6
CONTINUOUS
 62
    64
 10
115.87606
 20
49.23135
 11
116.10222
 21
49.338328
  0
LINE
  8
ボルト／ビス
  6
CONTINUOUS
 62
    64
 10
115.916935
 20
49.73005
 11
116.122658
 21
49.587678
  0
LINE
  8
ボルト／ビス
  6
CONTINUOUS
 62
    64
 10
115.670337
 20
49.373723
 11
115.87606
 21
49.23135
  0
CIRCLE
  8
ボルト／ビス
  6
CONTINUOUS
 62
    64
 10
115.896498
 20
49.4807
 40
0.216668
  0
CIRCLE
  8
ボルト／ビス
  6
CONTINUOUS
 10
109.579805
 20
40.353298
 40
0.250185
  0
CIRCLE
  8
ボルト／ビス
  6
CONTINUOUS
 10
109.579805
 20
40.353298
 40
0.301025
  0
LINE
  8
ボルト／ビス
  6
CONTINUOUS
 62
    64
 10
109.600243
 20
40.60265
 11
109.374083
 21
40.495672
  0
LINE
  8
ボルト／ビス
  6
CONTINUOUS
 62
    64
 10
109.353645
 20
40.24632
 11
109.374083
 21
40.495672
  0
LINE
  8
ボルト／ビス
  6
CONTINUOUS
 62
    64
 10
109.805968
 20
40.460275
 11
109.78553
 21
40.210925
  0
LINE
  8
ボルト／ビス
  6
CONTINUOUS
 62
    64
 10
109.55937
 20
40.10395
 11
109.78553
 21
40.210925
  0
LINE
  8
ボルト／ビス
  6
CONTINUOUS
 62
    64
 10
109.600243
 20
40.60265
 11
109.805968
 21
40.460275
  0
LINE
  8
ボルト／ビス
  6
CONTINUOUS
 62
    64
 10
109.353645
 20
40.24632
 11
109.55937
 21
40.10395
  0
CIRCLE
  8
ボルト／ビス
  6
CONTINUOUS
 62
    64
 10
109.579805
 20
40.353298
 40
0.216668
  0
CIRCLE
  8
ボルト／ビス
  6
CONTINUOUS
 10
103.263115
 20
31.225895
 40
0.250185
  0
CIRCLE
  8
ボルト／ビス
  6
CONTINUOUS
 10
103.263115
 20
31.225895
 40
0.301025
  0
LINE
  8
ボルト／ビス
  6
CONTINUOUS
 62
    64
 10
103.036953
 20
31.118917
 11
103.057393
 21
31.368268
  0
LINE
  8
ボルト／ビス
  6
CONTINUOUS
 62
    64
 10
103.283553
 20
31.475245
 11
103.057393
 21
31.368268
  0
LINE
  8
ボルト／ビス
  6
CONTINUOUS
 62
    64
 10
103.242677
 20
30.976548
 11
103.468837
 21
31.083523
  0
LINE
  8
ボルト／ビス
  6
CONTINUOUS
 62
    64
 10
103.489275
 20
31.332872
 11
103.468837
 21
31.083523
  0
LINE
  8
ボルト／ビス
  6
CONTINUOUS
 62
    64
 10
103.036953
 20
31.118917
 11
103.242677
 21
30.976548
  0
LINE
  8
ボルト／ビス
  6
CONTINUOUS
 62
    64
 10
103.283553
 20
31.475245
 11
103.489275
 21
31.332872
  0
CIRCLE
  8
ボルト／ビス
  6
CONTINUOUS
 62
    64
 10
103.263115
 20
31.225895
 40
0.216668
  0
ENDBLK
  0
BLOCK
  2
*GRP_0013
 70
    65
 10
0.0
 20
0.0
  0
LINE
  8
補助線
  6
BYBLOCK
 62
    64
 10
115.849075
 20
31.29442
 11
115.94392
 21
31.15737
  0
LINE
  8
補助線
  6
BYBLOCK
 62
    64
 10
115.82797
 20
31.178472
 11
115.965022
 21
31.273317
  0
LINE
  8
補助線
  6
BYBLOCK
 62
    64
 10
109.532385
 20
40.421823
 11
109.627227
 21
40.284772
  0
LINE
  8
補助線
  6
BYBLOCK
 62
    64
 10
109.51128
 20
40.305875
 11
109.64833
 21
40.40072
  0
LINE
  8
補助線
  6
BYBLOCK
 62
    64
 10
103.310537
 20
49.412175
 11
103.215692
 21
49.549222
  0
LINE
  8
補助線
  6
BYBLOCK
 62
    64
 10
103.194587
 20
49.433275
 11
103.33164
 21
49.528123
  0
LINE
  8
型材断面
  6
CONTINUOUS
 10
115.40095
 20
30.477575
 11
116.09663
 21
30.350965
  0
LINE
  8
型材断面
  6
CONTINUOUS
 10
116.09663
 20
30.350965
 11
116.64482
 21
30.730348
  0
LINE
  8
型材断面
  6
CONTINUOUS
 10
116.64482
 20
30.730348
 11
116.77143
 21
31.426028
  0
LINE
  8
型材断面
  6
CONTINUOUS
 10
102.388185
 20
49.280567
 11
102.514795
 21
49.976247
  0
LINE
  8
型材断面
  6
CONTINUOUS
 10
102.514795
 20
49.976247
 11
103.062985
 21
50.35563
  0
LINE
  8
型材断面
  6
CONTINUOUS
 10
103.062985
 20
50.35563
 11
103.758665
 21
50.22902
  0
LINE
  8
型材断面
  6
CONTINUOUS
 10
115.40095
 20
30.477575
 11
102.388185
 21
49.280567
  0
LINE
  8
型材断面
  6
CONTINUOUS
 10
116.77143
 20
31.426028
 11
103.758665
 21
50.22902
  0
CIRCLE
  8
ボルト／ビス
  6
CONTINUOUS
 10
115.896498
 20
31.225895
 40
0.250185
  0
CIRCLE
  8
ボルト／ビス
  6
CONTINUOUS
 10
115.896498
 20
31.225895
 40
0.301025
  0
LINE
  8
ボルト／ビス
  6
CONTINUOUS
 62
    64
 10
115.916935
 20
30.976545
 11
115.690775
 21
31.083523
  0
LINE
  8
ボルト／ビス
  6
CONTINUOUS
 62
    64
 10
115.670337
 20
31.332872
 11
115.690775
 21
31.083523
  0
LINE
  8
ボルト／ビス
  6
CONTINUOUS
 62
    64
 10
116.122658
 20
31.118917
 11
116.10222
 21
31.368268
  0
LINE
  8
ボルト／ビス
  6
CONTINUOUS
 62
    64
 10
115.87606
 20
31.475245
 11
116.10222
 21
31.368268
  0
LINE
  8
ボルト／ビス
  6
CONTINUOUS
 62
    64
 10
115.916935
 20
30.976545
 11
116.122658
 21
31.118917
  0
LINE
  8
ボルト／ビス
  6
CONTINUOUS
 62
    64
 10
115.670337
 20
31.332872
 11
115.87606
 21
31.475245
  0
CIRCLE
  8
ボルト／ビス
  6
CONTINUOUS
 62
    64
 10
115.896498
 20
31.225895
 40
0.216668
  0
CIRCLE
  8
ボルト／ビス
  6
CONTINUOUS
 10
109.579805
 20
40.353298
 40
0.250185
  0
CIRCLE
  8
ボルト／ビス
  6
CONTINUOUS
 10
109.579805
 20
40.353298
 40
0.301025
  0
LINE
  8
ボルト／ビス
  6
CONTINUOUS
 62
    64
 10
109.600243
 20
40.103945
 11
109.374083
 21
40.210923
  0
LINE
  8
ボルト／ビス
  6
CONTINUOUS
 62
    64
 10
109.353645
 20
40.460275
 11
109.374083
 21
40.210923
  0
LINE
  8
ボルト／ビス
  6
CONTINUOUS
 62
    64
 10
109.805968
 20
40.24632
 11
109.78553
 21
40.49567
  0
LINE
  8
ボルト／ビス
  6
CONTINUOUS
 62
    64
 10
109.55937
 20
40.602645
 11
109.78553
 21
40.49567
  0
LINE
  8
ボルト／ビス
  6
CONTINUOUS
 62
    64
 10
109.600243
 20
40.103945
 11
109.805968
 21
40.24632
  0
LINE
  8
ボルト／ビス
  6
CONTINUOUS
 62
    64
 10
109.353645
 20
40.460275
 11
109.55937
 21
40.602645
  0
CIRCLE
  8
ボルト／ビス
  6
CONTINUOUS
 62
    64
 10
109.579805
 20
40.353298
 40
0.216668
  0
CIRCLE
  8
ボルト／ビス
  6
CONTINUOUS
 10
103.263115
 20
49.4807
 40
0.250185
  0
CIRCLE
  8
ボルト／ビス
  6
CONTINUOUS
 10
103.263115
 20
49.4807
 40
0.301025
  0
LINE
  8
ボルト／ビス
  6
CONTINUOUS
 62
    64
 10
103.036953
 20
49.587678
 11
103.057393
 21
49.338328
  0
LINE
  8
ボルト／ビス
  6
CONTINUOUS
 62
    64
 10
103.283553
 20
49.23135
 11
103.057393
 21
49.338328
  0
LINE
  8
ボルト／ビス
  6
CONTINUOUS
 62
    64
 10
103.242677
 20
49.730047
 11
103.468837
 21
49.623072
  0
LINE
  8
ボルト／ビス
  6
CONTINUOUS
 62
    64
 10
103.489275
 20
49.373723
 11
103.468837
 21
49.623072
  0
LINE
  8
ボルト／ビス
  6
CONTINUOUS
 62
    64
 10
103.036953
 20
49.587678
 11
103.242677
 21
49.730047
  0
LINE
  8
ボルト／ビス
  6
CONTINUOUS
 62
    64
 10
103.283553
 20
49.23135
 11
103.489275
 21
49.373723
  0
CIRCLE
  8
ボルト／ビス
  6
CONTINUOUS
 62
    64
 10
103.263115
 20
49.4807
 40
0.216668
  0
ENDBLK
  0
BLOCK
  2
*DIM_0014
 70
    65
 10
0.0
 20
0.0
  0
LINE
  8
寸法
  6
BYBLOCK
 62
     0
 10
102.603
 20
38.814033
 11
102.603
 21
68.369967
  0
LINE
  8
寸法
  6
BYBLOCK
 62
     0
 10
110.936333
 20
68.369967
 11
102.603
 21
68.369967
  0
POINT
  8
寸法
 62
     0
 10
110.936333
 20
68.369967
  0
POINT
  8
寸法
 62
     0
 10
102.603
 20
68.369967
  0
TEXT
  7
TextStyle03
  8
寸法
  6
CONTINUOUS
 62
     0
 10
104.3875
 20
68.725
  1
250
 40
3.0
 72
     5
 11
109.2625
 21
68.725
  0
ENDBLK
  0
BLOCK
  2
*DIM_0015
 70
    65
 10
0.0
 20
0.0
  0
LINE
  8
寸法
  6
BYBLOCK
 62
     0
 10
55.422717
 20
22.814033
 11
55.422717
 21
52.814033
  0
POINT
  8
寸法
 62
     0
 10
55.422717
 20
22.814033
  0
POINT
  8
寸法
 62
     0
 10
55.422717
 20
52.814033
  0
TEXT
  7
TextStyle03
  8
寸法
  6
CONTINUOUS
 62
     0
 10
55.125
 20
26.9
  1
呼称寸法　900
 40
3.0
 50
90.0
 72
     5
 11
55.125
 21
48.65
  0
ENDBLK
  0
BLOCK
  2
*DIM_0016
 70
    65
 10
0.0
 20
0.0
  0
LINE
  8
寸法
  6
CONTINUOUS
 10
55.422717
 20
22.814033
 11
55.422717
 21
20.0507
  0
POINT
  8
寸法
 10
55.422717
 20
22.814033
  0
POINT
  8
寸法
 10
55.422717
 20
20.0507
  0
TEXT
  7
TextStyle03
  8
寸法
  6
CONTINUOUS
 10
54.85
 20
15.76875
  1
82.9
 40
3.0
 50
90.0
 72
     5
 11
54.85
 21
22.33125
  0
ENDBLK
  0
BLOCK
  2
*DIM_0017
 70
    65
 10
0.0
 20
0.0
  0
LINE
  8
寸法
  6
CONTINUOUS
 10
55.422717
 20
52.814033
 11
55.422717
 21
55.577365
  0
POINT
  8
寸法
 10
55.422717
 20
52.814033
  0
POINT
  8
寸法
 10
55.422717
 20
55.577365
  0
TEXT
  7
TextStyle03
  8
寸法
  6
CONTINUOUS
 10
54.575
 20
53.24375
  1
82.9
 40
3.0
 50
90.0
 72
     5
 11
54.575
 21
59.80625
  0
ENDBLK
  0
BLOCK
  2
*DIM_0018
 70
    65
 10
0.0
 20
0.0
  0
LINE
  8
寸法
  6
CONTINUOUS
 10
21.403067
 20
-13.121378
 11
24.166395
 21
-13.121378
  0
POINT
  8
寸法
 10
21.403067
 20
-13.121378
  0
POINT
  8
寸法
 10
24.166395
 20
-13.121378
  0
TEXT
  7
TextStyle03
  8
寸法
  6
CONTINUOUS
 10
21.96875
 20
-12.35
  1
82.9
 40
3.0
 72
     5
 11
28.53125
 21
-12.35
  0
ENDBLK
  0
BLOCK
  2
*DIM_0019
 70
    65
 10
0.0
 20
0.0
  0
LINE
  8
寸法
  6
CONTINUOUS
 10
-61.930265
 20
-13.121378
 11
-64.693595
 21
-13.121378
  0
POINT
  8
寸法
 10
-61.930265
 20
-13.121378
  0
POINT
  8
寸法
 10
-64.693595
 20
-13.121378
  0
TEXT
  7
TextStyle03
  8
寸法
  6
CONTINUOUS
 10
-69.10625
 20
-12.225
  1
82.9
 40
3.0
 72
     5
 11
-62.54375
 21
-12.225
  0
ENDBLK
  0
BLOCK
  2
*DIM_0022
 70
    65
 10
0.0
 20
0.0
  0
LINE
  8
寸法
  6
CONTINUOUS
 10
75.768362
 20
-49.728222
 11
75.768362
 21
-44.53788
  0
LINE
  8
寸法
  6
CONTINUOUS
 10
116.901698
 20
-49.728222
 11
116.901698
 21
-44.53788
  0
LINE
  8
寸法
  6
CONTINUOUS
 10
75.768362
 20
-44.53788
 11
116.901698
 21
-44.53788
  0
POINT
  8
寸法
 10
75.768362
 20
-44.53788
  0
POINT
  8
寸法
 10
116.901698
 20
-44.53788
  0
TEXT
  7
TextStyle03
  8
寸法
  6
CONTINUOUS
 10
93.06875
 20
-44.15
  1
1234
 40
3.0
 72
     5
 11
99.63125
 21
-44.15
  0
ENDBLK
  0
BLOCK
  2
*DIM_0023
 70
    65
 10
0.0
 20
0.0
  0
LINE
  8
寸法
  6
CONTINUOUS
 10
121.901698
 20
-54.728222
 11
128.30105
 21
-54.728222
  0
LINE
  8
寸法
  6
CONTINUOUS
 10
121.901698
 20
-84.728222
 11
128.30105
 21
-84.728222
  0
LINE
  8
寸法
  6
CONTINUOUS
 10
128.30105
 20
-54.728222
 11
128.30105
 21
-84.728222
  0
POINT
  8
寸法
 10
128.30105
 20
-54.728222
  0
POINT
  8
寸法
 10
128.30105
 20
-84.728222
  0
TEXT
  7
TextStyle03
  8
寸法
  6
CONTINUOUS
 10
127.925
 20
-72.1625
  1
900
 40
3.0
 50
90.0
 72
     5
 11
127.925
 21
-67.2875
  0
ENDBLK
  0
BLOCK
  2
*DIM_0024
 70
    65
 10
0.0
 20
0.0
  0
LINE
  8
寸法
  6
CONTINUOUS
 10
28.069728
 20
-70.209617
 11
37.37271
 21
-70.209617
  0
LINE
  8
寸法
  6
CONTINUOUS
 10
29.166395
 20
-77.70962
 11
37.37271
 21
-77.70962
  0
LINE
  8
寸法
  6
CONTINUOUS
 10
37.37271
 20
-70.209617
 11
37.37271
 21
-77.70962
  0
POINT
  8
寸法
 10
37.37271
 20
-70.209617
  0
POINT
  8
寸法
 10
37.37271
 20
-77.70962
  0
TEXT
  7
TextStyle03
  8
寸法
  6
CONTINUOUS
 10
36.975
 20
-76.4125
  1
225
 40
3.0
 50
90.0
 72
     5
 11
36.975
 21
-71.5375
  0
ENDBLK
  0
BLOCK
  2
*DIM_0025
 70
    65
 10
0.0
 20
0.0
  0
LINE
  8
寸法
  6
CONTINUOUS
 10
110.936333
 20
59.4807
 11
110.936333
 21
68.369967
  0
LINE
  8
寸法
  6
CONTINUOUS
 10
118.436335
 20
60.577365
 11
118.436335
 21
68.369967
  0
LINE
  8
寸法
  6
CONTINUOUS
 10
110.936333
 20
68.369967
 11
118.436335
 21
68.369967
  0
POINT
  8
寸法
 10
110.936333
 20
68.369967
  0
POINT
  8
寸法
 10
118.436335
 20
68.369967
  0
TEXT
  7
TextStyle03
  8
寸法
  6
CONTINUOUS
 10
112.2375
 20
68.725
  1
225
 40
3.0
 72
     5
 11
117.1125
 21
68.725
  0
ENDBLK
  0
BLOCK
  2
*GRP_0026
 70
    65
 10
0.0
 20
0.0
  0
LINE
  8
型材断面
  6
DOT
 10
-20.2636
 20
-61.259735
 11
-63.29041
 21
-61.259735
  0
LINE
  8
型材断面
  6
DOT
 10
-20.2636
 20
-62.409735
 11
-64.693595
 21
-62.409735
  0
LINE
  8
型材断面
  6
DOT
 10
-20.2636
 20
-63.576403
 11
-64.693595
 21
-63.576403
  0
LINE
  8
型材断面
  6
DOT
 10
-20.2636
 20
-61.259735
 11
22.76321
 21
-61.259735
  0
LINE
  8
型材断面
  6
DOT
 10
-20.2636
 20
-62.409735
 11
24.166395
 21
-62.409735
  0
LINE
  8
型材断面
  6
DOT
 10
-20.2636
 20
-63.576403
 11
24.166395
 21
-63.576403
  0
LINE
  8
別途部材
  6
DOT
 62
    96
 10
-63.596933
 20
-60.209613
 11
-63.996933
 21
-61.209613
  0
ARC
  8
別途部材
  6
DOT
 10
-46.930262
 20
-69.54295
 40
17.666667
 50
90.0
 51
148.109204
  0
LINE
  8
別途部材
  6
DOT
 62
    96
 10
-63.596933
 20
-60.209613
 11
-20.263598
 21
-60.209613
  0
LINE
  8
別途部材
  6
DOT
 10
-63.996933
 20
-61.209613
 11
-20.263598
 21
-61.209613
  0
LINE
  8
別途部材
  6
DOT
 10
-45.763598
 20
-51.87628
 11
-46.930265
 21
-51.87628
  0
LINE
  8
別途部材
  6
DOT
 62
    96
 10
23.069735
 20
-60.209613
 11
23.469735
 21
-61.209613
  0
ARC
  8
別途部材
  6
DOT
 10
6.403065
 20
-69.54295
 40
17.666667
 50
31.890796
 51
90.0
  0
LINE
  8
別途部材
  6
DOT
 62
    96
 10
23.069735
 20
-60.209613
 11
-20.263598
 21
-60.209613
  0
LINE
  8
別途部材
  6
DOT
 10
23.469735
 20
-61.209613
 11
-20.263598
 21
-61.209613
  0
LINE
  8
別途部材
  6
DOT
 10
5.236403
 20
-51.87628
 11
6.403067
 21
-51.87628
  0
LINE
  8
別途部材
  6
DOT
 10
-45.763598
 20
-51.87628
 11
-20.2636
 21
-51.87628
  0
LINE
  8
別途部材
  6
DOT
 10
5.236403
 20
-51.87628
 11
-20.2636
 21
-51.87628
  0
LINE
  8
鉄骨等
  6
DOT
 62
    47
 10
-64.693595
 20
-63.576403
 11
-64.693595
 21
-62.409735
  0
LINE
  8
鉄骨等
  6
DOT
 62
    47
 10
-64.693595
 20
-62.409735
 11
-63.29041
 21
-61.259735
  0
LINE
  8
鉄骨等
  6
DOT
 62
    47
 10
-63.29041
 20
-61.259735
 11
-63.29041
 21
-61.209615
  0
LINE
  8
鉄骨等
  6
DOT
 62
    47
 10
24.166395
 20
-63.576403
 11
24.166395
 21
-62.409735
  0
LINE
  8
鉄骨等
  6
DOT
 62
    47
 10
24.166395
 20
-62.409735
 11
22.76321
 21
-61.259735
  0
LINE
  8
鉄骨等
  6
DOT
 62
    47
 10
22.76321
 20
-61.259735
 11
22.76321
 21
-61.209615
  0
ENDBLK
  0
BLOCK
  2
*GRP_0027
 70
    65
 10
0.0
 20
0.0
  0
LINE
  8
型材断面
  6
DOT
 10
101.98645
 20
37.814033
 11
101.98645
 21
21.453885
  0
LINE
  8
型材断面
  6
DOT
 10
103.13645
 20
37.814033
 11
103.13645
 21
20.0507
  0
LINE
  8
型材断面
  6
DOT
 10
104.303118
 20
37.814033
 11
104.303118
 21
20.0507
  0
LINE
  8
型材断面
  6
DOT
 10
101.98645
 20
37.814033
 11
101.98645
 21
54.17418
  0
LINE
  8
型材断面
  6
DOT
 10
103.13645
 20
37.814033
 11
103.13645
 21
55.577365
  0
LINE
  8
型材断面
  6
DOT
 10
104.303118
 20
37.814033
 11
104.303118
 21
55.577365
  0
LINE
  8
別途部材
  6
DOT
 62
    96
 10
100.936333
 20
21.147365
 11
101.936333
 21
20.747365
  0
LINE
  8
別途部材
  6
DOT
 62
    96
 10
100.936333
 20
21.147365
 11
100.936333
 21
37.814033
  0
LINE
  8
別途部材
  6
DOT
 10
101.936333
 20
20.747365
 11
101.936333
 21
37.814033
  0
LINE
  8
別途部材
  6
DOT
 62
    96
 10
100.936333
 20
54.4807
 11
101.936333
 21
54.8807
  0
LINE
  8
別途部材
  6
DOT
 62
    96
 10
100.936333
 20
54.4807
 11
100.936333
 21
37.814033
  0
LINE
  8
別途部材
  6
DOT
 10
101.936333
 20
54.8807
 11
101.936333
 21
37.814033
  0
ARC
  8
別途部材
  6
DOT
 10
110.269666
 20
37.814033
 40
17.666667
 50
121.890796
 51
238.109204
  0
LINE
  8
鉄骨等
  6
DOT
 62
    47
 10
104.303118
 20
20.0507
 11
103.13645
 21
20.0507
  0
LINE
  8
鉄骨等
  6
DOT
 62
    47
 10
103.13645
 20
20.0507
 11
101.98645
 21
21.453885
  0
LINE
  8
鉄骨等
  6
DOT
 62
    47
 10
101.98645
 20
21.453885
 11
101.93633
 21
21.453885
  0
LINE
  8
鉄骨等
  6
DOT
 62
    47
 10
104.303118
 20
55.577365
 11
103.13645
 21
55.577365
  0
LINE
  8
鉄骨等
  6
DOT
 62
    47
 10
103.13645
 20
55.577365
 11
101.98645
 21
54.17418
  0
LINE
  8
鉄骨等
  6
DOT
 62
    47
 10
101.98645
 20
54.17418
 11
101.93633
 21
54.17418
  0
ENDBLK
  0
BLOCK
  2
*GRP_0028
 70
    65
 10
0.0
 20
0.0
  0
LINE
  8
ボルト／ビス
  6
CONTINUOUS
 10
110.936333
 20
53.4807
 11
110.469667
 21
53.4807
  0
LINE
  8
ボルト／ビス
  6
CONTINUOUS
 10
110.936333
 20
53.114035
 11
110.869667
 21
53.114035
  0
LINE
  8
ボルト／ビス
  6
CONTINUOUS
 10
110.869667
 20
53.114035
 11
110.869667
 21
53.847367
  0
LINE
  8
ボルト／ビス
  6
CONTINUOUS
 10
110.869667
 20
53.847367
 11
110.936333
 21
53.847367
  0
LINE
  8
ボルト／ビス
  6
CONTINUOUS
 10
110.936333
 20
53.114035
 11
110.936333
 21
53.847367
  0
LINE
  8
ボルト／ビス
  6
CONTINUOUS
 10
110.836333
 20
53.1807
 11
110.869667
 21
53.1807
  0
LINE
  8
ボルト／ビス
  6
CONTINUOUS
 10
110.836333
 20
53.1807
 11
110.836333
 21
53.7807
  0
LINE
  8
ボルト／ビス
  6
CONTINUOUS
 10
110.836333
 20
53.7807
 11
110.869667
 21
53.7807
  0
LINE
  8
ボルト／ビス
  6
CONTINUOUS
 62
    64
 10
110.636333
 20
53.320325
 11
110.648007
 21
53.28825
  0
ARC
  8
ボルト／ビス
  6
CONTINUOUS
 62
    64
 10
110.741311
 20
53.336362
 40
0.104978
 50
152.721967
 51
180.0
  0
ARC
  8
ボルト／ビス
  6
CONTINUOUS
 62
    64
 10
111.038735
 20
53.480699
 40
0.402402
 50
166.165002
 51
193.834985
  0
LINE
  8
ボルト／ビス
  6
CONTINUOUS
 62
    64
 10
110.636333
 20
53.641075
 11
110.648007
 21
53.67315
  0
ARC
  8
ボルト／ビス
  6
CONTINUOUS
 62
    64
 10
110.741311
 20
53.625037
 40
0.104978
 50
180.0
 51
207.278033
  0
LINE
  8
ボルト／ビス
  6
CONTINUOUS
 62
    64
 10
110.636333
 20
53.320325
 11
110.636333
 21
53.641075
  0
LINE
  8
ボルト／ビス
  6
CONTINUOUS
 62
    64
 10
110.648007
 20
53.67315
 11
110.769667
 21
53.67315
  0
LINE
  8
ボルト／ビス
  6
CONTINUOUS
 62
    64
 10
110.648007
 20
53.576925
 11
110.769667
 21
53.576925
  0
LINE
  8
ボルト／ビス
  6
CONTINUOUS
 62
    64
 10
110.648007
 20
53.28825
 11
110.769667
 21
53.28825
  0
LINE
  8
ボルト／ビス
  6
CONTINUOUS
 62
    64
 10
110.648007
 20
53.384475
 11
110.769667
 21
53.384475
  0
LINE
  8
ボルト／ビス
  6
CONTINUOUS
 10
110.769667
 20
53.28825
 11
110.769667
 21
53.67315
  0
LINE
  8
ボルト／ビス
  6
CONTINUOUS
 10
110.769667
 20
53.2807
 11
110.836333
 21
53.2807
  0
LINE
  8
ボルト／ビス
  6
CONTINUOUS
 10
110.769667
 20
53.2807
 11
110.769667
 21
53.6807
  0
LINE
  8
ボルト／ビス
  6
CONTINUOUS
 10
110.769667
 20
53.6807
 11
110.836333
 21
53.6807
  0
ENDBLK
  0
BLOCK
  2
*GRP_0029
 70
    65
 10
0.0
 20
0.0
  0
LINE
  8
ボルト／ビス
  6
DOT
 10
100.936333
 20
53.4807
 11
100.469667
 21
53.4807
  0
LINE
  8
ボルト／ビス
  6
DOT
 10
100.936333
 20
53.114035
 11
100.869667
 21
53.114035
  0
LINE
  8
ボルト／ビス
  6
DOT
 10
100.869667
 20
53.114035
 11
100.869667
 21
53.847367
  0
LINE
  8
ボルト／ビス
  6
DOT
 10
100.869667
 20
53.847367
 11
100.936333
 21
53.847367
  0
LINE
  8
ボルト／ビス
  6
DOT
 10
100.936333
 20
53.114035
 11
100.936333
 21
53.847367
  0
LINE
  8
ボルト／ビス
  6
DOT
 10
100.836333
 20
53.1807
 11
100.869667
 21
53.1807
  0
LINE
  8
ボルト／ビス
  6
DOT
 10
100.836333
 20
53.1807
 11
100.836333
 21
53.7807
  0
LINE
  8
ボルト／ビス
  6
DOT
 10
100.836333
 20
53.7807
 11
100.869667
 21
53.7807
  0
LINE
  8
ボルト／ビス
  6
DOT
 62
    64
 10
100.636333
 20
53.320325
 11
100.648007
 21
53.28825
  0
ARC
  8
ボルト／ビス
  6
DOT
 62
    64
 10
100.741311
 20
53.336362
 40
0.104978
 50
152.721967
 51
180.0
  0
ARC
  8
ボルト／ビス
  6
DOT
 62
    64
 10
101.038735
 20
53.480699
 40
0.402402
 50
166.165002
 51
193.834985
  0
LINE
  8
ボルト／ビス
  6
DOT
 62
    64
 10
100.636333
 20
53.641075
 11
100.648007
 21
53.67315
  0
ARC
  8
ボルト／ビス
  6
DOT
 62
    64
 10
100.741311
 20
53.625037
 40
0.104978
 50
180.0
 51
207.278033
  0
LINE
  8
ボルト／ビス
  6
DOT
 62
    64
 10
100.636333
 20
53.320325
 11
100.636333
 21
53.641075
  0
LINE
  8
ボルト／ビス
  6
DOT
 62
    64
 10
100.648007
 20
53.67315
 11
100.769667
 21
53.67315
  0
LINE
  8
ボルト／ビス
  6
DOT
 62
    64
 10
100.648007
 20
53.576925
 11
100.769667
 21
53.576925
  0
LINE
  8
ボルト／ビス
  6
DOT
 62
    64
 10
100.648007
 20
53.28825
 11
100.769667
 21
53.28825
  0
LINE
  8
ボルト／ビス
  6
DOT
 62
    64
 10
100.648007
 20
53.384475
 11
100.769667
 21
53.384475
  0
LINE
  8
ボルト／ビス
  6
DOT
 10
100.769667
 20
53.28825
 11
100.769667
 21
53.67315
  0
LINE
  8
ボルト／ビス
  6
DOT
 10
100.769667
 20
53.2807
 11
100.836333
 21
53.2807
  0
LINE
  8
ボルト／ビス
  6
DOT
 10
100.769667
 20
53.2807
 11
100.769667
 21
53.6807
  0
LINE
  8
ボルト／ビス
  6
DOT
 10
100.769667
 20
53.6807
 11
100.836333
 21
53.6807
  0
ENDBLK
  0
BLOCK
  2
*GRP_0030
 70
    65
 10
0.0
 20
0.0
  0
LINE
  8
ボルト／ビス
  6
CONTINUOUS
 10
110.936333
 20
22.147365
 11
110.469667
 21
22.147365
  0
LINE
  8
ボルト／ビス
  6
CONTINUOUS
 10
110.936333
 20
22.51403
 11
110.869667
 21
22.51403
  0
LINE
  8
ボルト／ビス
  6
CONTINUOUS
 10
110.869667
 20
22.51403
 11
110.869667
 21
21.780697
  0
LINE
  8
ボルト／ビス
  6
CONTINUOUS
 10
110.869667
 20
21.780697
 11
110.936333
 21
21.780697
  0
LINE
  8
ボルト／ビス
  6
CONTINUOUS
 10
110.936333
 20
22.51403
 11
110.936333
 21
21.780697
  0
LINE
  8
ボルト／ビス
  6
CONTINUOUS
 10
110.836333
 20
22.447365
 11
110.869667
 21
22.447365
  0
LINE
  8
ボルト／ビス
  6
CONTINUOUS
 10
110.836333
 20
22.447365
 11
110.836333
 21
21.847365
  0
LINE
  8
ボルト／ビス
  6
CONTINUOUS
 10
110.836333
 20
21.847365
 11
110.869667
 21
21.847365
  0
LINE
  8
ボルト／ビス
  6
CONTINUOUS
 62
    64
 10
110.636333
 20
22.30774
 11
110.648007
 21
22.339815
  0
ARC
  8
ボルト／ビス
  6
CONTINUOUS
 62
    64
 10
110.741311
 20
22.291703
 40
0.104978
 50
180.0
 51
207.278033
  0
ARC
  8
ボルト／ビス
  6
CONTINUOUS
 62
    64
 10
111.038735
 20
22.147366
 40
0.402402
 50
166.165015
 51
193.834998
  0
LINE
  8
ボルト／ビス
  6
CONTINUOUS
 62
    64
 10
110.636333
 20
21.98699
 11
110.648007
 21
21.954915
  0
ARC
  8
ボルト／ビス
  6
CONTINUOUS
 62
    64
 10
110.741311
 20
22.003028
 40
0.104978
 50
152.721967
 51
180.0
  0
LINE
  8
ボルト／ビス
  6
CONTINUOUS
 62
    64
 10
110.636333
 20
22.30774
 11
110.636333
 21
21.98699
  0
LINE
  8
ボルト／ビス
  6
CONTINUOUS
 62
    64
 10
110.648007
 20
21.954915
 11
110.769667
 21
21.954915
  0
LINE
  8
ボルト／ビス
  6
CONTINUOUS
 62
    64
 10
110.648007
 20
22.05114
 11
110.769667
 21
22.05114
  0
LINE
  8
ボルト／ビス
  6
CONTINUOUS
 62
    64
 10
110.648007
 20
22.339815
 11
110.769667
 21
22.339815
  0
LINE
  8
ボルト／ビス
  6
CONTINUOUS
 62
    64
 10
110.648007
 20
22.24359
 11
110.769667
 21
22.24359
  0
LINE
  8
ボルト／ビス
  6
CONTINUOUS
 10
110.769667
 20
22.339815
 11
110.769667
 21
21.954915
  0
LINE
  8
ボルト／ビス
  6
CONTINUOUS
 10
110.769667
 20
22.347365
 11
110.836333
 21
22.347365
  0
LINE
  8
ボルト／ビス
  6
CONTINUOUS
 10
110.769667
 20
22.347365
 11
110.769667
 21
21.947365
  0
LINE
  8
ボルト／ビス
  6
CONTINUOUS
 10
110.769667
 20
21.947365
 11
110.836333
 21
21.947365
  0
ENDBLK
  0
BLOCK
  2
*GRP_0031
 70
    65
 10
0.0
 20
0.0
  0
LINE
  8
ボルト／ビス
  6
DOT
 10
100.936333
 20
22.147365
 11
100.469667
 21
22.147365
  0
LINE
  8
ボルト／ビス
  6
DOT
 10
100.936333
 20
22.51403
 11
100.869667
 21
22.51403
  0
LINE
  8
ボルト／ビス
  6
DOT
 10
100.869667
 20
22.51403
 11
100.869667
 21
21.780697
  0
LINE
  8
ボルト／ビス
  6
DOT
 10
100.869667
 20
21.780697
 11
100.936333
 21
21.780697
  0
LINE
  8
ボルト／ビス
  6
DOT
 10
100.936333
 20
22.51403
 11
100.936333
 21
21.780697
  0
LINE
  8
ボルト／ビス
  6
DOT
 10
100.836333
 20
22.447365
 11
100.869667
 21
22.447365
  0
LINE
  8
ボルト／ビス
  6
DOT
 10
100.836333
 20
22.447365
 11
100.836333
 21
21.847365
  0
LINE
  8
ボルト／ビス
  6
DOT
 10
100.836333
 20
21.847365
 11
100.869667
 21
21.847365
  0
LINE
  8
ボルト／ビス
  6
DOT
 62
    64
 10
100.636333
 20
22.30774
 11
100.648007
 21
22.339815
  0
ARC
  8
ボルト／ビス
  6
DOT
 62
    64
 10
100.741311
 20
22.291703
 40
0.104978
 50
180.0
 51
207.278033
  0
ARC
  8
ボルト／ビス
  6
DOT
 62
    64
 10
101.038735
 20
22.147366
 40
0.402402
 50
166.165015
 51
193.834998
  0
LINE
  8
ボルト／ビス
  6
DOT
 62
    64
 10
100.636333
 20
21.98699
 11
100.648007
 21
21.954915
  0
ARC
  8
ボルト／ビス
  6
DOT
 62
    64
 10
100.741311
 20
22.003028
 40
0.104978
 50
152.721967
 51
180.0
  0
LINE
  8
ボルト／ビス
  6
DOT
 62
    64
 10
100.636333
 20
22.30774
 11
100.636333
 21
21.98699
  0
LINE
  8
ボルト／ビス
  6
DOT
 62
    64
 10
100.648007
 20
21.954915
 11
100.769667
 21
21.954915
  0
LINE
  8
ボルト／ビス
  6
DOT
 62
    64
 10
100.648007
 20
22.05114
 11
100.769667
 21
22.05114
  0
LINE
  8
ボルト／ビス
  6
DOT
 62
    64
 10
100.648007
 20
22.339815
 11
100.769667
 21
22.339815
  0
LINE
  8
ボルト／ビス
  6
DOT
 62
    64
 10
100.648007
 20
22.24359
 11
100.769667
 21
22.24359
  0
LINE
  8
ボルト／ビス
  6
DOT
 10
100.769667
 20
22.339815
 11
100.769667
 21
21.954915
  0
LINE
  8
ボルト／ビス
  6
DOT
 10
100.769667
 20
22.347365
 11
100.836333
 21
22.347365
  0
LINE
  8
ボルト／ビス
  6
DOT
 10
100.769667
 20
22.347365
 11
100.769667
 21
21.947365
  0
LINE
  8
ボルト／ビス
  6
DOT
 10
100.769667
 20
21.947365
 11
100.836333
 21
21.947365
  0
ENDBLK
  0
BLOCK
  2
*GRP_0032
 70
    65
 10
0.0
 20
0.0
  0
LINE
  8
ボルト／ビス
  6
CONTINUOUS
 10
22.069735
 20
-70.209613
 11
22.069735
 21
-69.742947
  0
LINE
  8
ボルト／ビス
  6
CONTINUOUS
 10
21.70307
 20
-70.209613
 11
21.70307
 21
-70.142947
  0
LINE
  8
ボルト／ビス
  6
CONTINUOUS
 10
21.70307
 20
-70.142947
 11
22.436403
 21
-70.142947
  0
LINE
  8
ボルト／ビス
  6
CONTINUOUS
 10
22.436403
 20
-70.142947
 11
22.436403
 21
-70.209613
  0
LINE
  8
ボルト／ビス
  6
CONTINUOUS
 10
21.70307
 20
-70.209613
 11
22.436403
 21
-70.209613
  0
LINE
  8
ボルト／ビス
  6
CONTINUOUS
 10
21.769735
 20
-70.109612
 11
21.769735
 21
-70.142947
  0
LINE
  8
ボルト／ビス
  6
CONTINUOUS
 10
21.769735
 20
-70.109612
 11
22.369735
 21
-70.109612
  0
LINE
  8
ボルト／ビス
  6
CONTINUOUS
 10
22.369735
 20
-70.109612
 11
22.369735
 21
-70.142947
  0
LINE
  8
ボルト／ビス
  6
CONTINUOUS
 62
    64
 10
21.90936
 20
-69.909613
 11
21.877285
 21
-69.921288
  0
ARC
  8
ボルト／ビス
  6
CONTINUOUS
 62
    64
 10
21.925399
 20
-70.014592
 40
0.104978
 50
62.721967
 51
90.0
  0
ARC
  8
ボルト／ビス
  6
CONTINUOUS
 62
    64
 10
22.069737
 20
-70.312016
 40
0.402402
 50
76.165002
 51
103.834985
  0
LINE
  8
ボルト／ビス
  6
CONTINUOUS
 62
    64
 10
22.23011
 20
-69.909613
 11
22.262185
 21
-69.921288
  0
ARC
  8
ボルト／ビス
  6
CONTINUOUS
 62
    64
 10
22.214074
 20
-70.014592
 40
0.104978
 50
90.0
 51
117.278033
  0
LINE
  8
ボルト／ビス
  6
CONTINUOUS
 62
    64
 10
21.90936
 20
-69.909613
 11
22.23011
 21
-69.909613
  0
LINE
  8
ボルト／ビス
  6
CONTINUOUS
 62
    64
 10
22.262185
 20
-69.921288
 11
22.262185
 21
-70.042947
  0
LINE
  8
ボルト／ビス
  6
CONTINUOUS
 62
    64
 10
22.16596
 20
-69.921288
 11
22.16596
 21
-70.042947
  0
LINE
  8
ボルト／ビス
  6
CONTINUOUS
 62
    64
 10
21.877285
 20
-69.921288
 11
21.877285
 21
-70.042947
  0
LINE
  8
ボルト／ビス
  6
CONTINUOUS
 62
    64
 10
21.97351
 20
-69.921288
 11
21.97351
 21
-70.042947
  0
LINE
  8
ボルト／ビス
  6
CONTINUOUS
 10
21.877285
 20
-70.042947
 11
22.262185
 21
-70.042947
  0
LINE
  8
ボルト／ビス
  6
CONTINUOUS
 10
21.869735
 20
-70.042947
 11
21.869735
 21
-70.109612
  0
LINE
  8
ボルト／ビス
  6
CONTINUOUS
 10
21.869735
 20
-70.042947
 11
22.269735
 21
-70.042947
  0
LINE
  8
ボルト／ビス
  6
CONTINUOUS
 10
22.269735
 20
-70.042947
 11
22.269735
 21
-70.109612
  0
ENDBLK
  0
BLOCK
  2
*GRP_0033
 70
    65
 10
0.0
 20
0.0
  0
LINE
  8
ボルト／ビス
  6
DOT
 10
22.069735
 20
-60.209613
 11
22.069735
 21
-59.742947
  0
LINE
  8
ボルト／ビス
  6
DOT
 10
21.70307
 20
-60.209613
 11
21.70307
 21
-60.142947
  0
LINE
  8
ボルト／ビス
  6
DOT
 10
21.70307
 20
-60.142947
 11
22.436403
 21
-60.142947
  0
LINE
  8
ボルト／ビス
  6
DOT
 10
22.436403
 20
-60.142947
 11
22.436403
 21
-60.209613
  0
LINE
  8
ボルト／ビス
  6
DOT
 10
21.70307
 20
-60.209613
 11
22.436403
 21
-60.209613
  0
LINE
  8
ボルト／ビス
  6
DOT
 10
21.769735
 20
-60.109613
 11
21.769735
 21
-60.142947
  0
LINE
  8
ボルト／ビス
  6
DOT
 10
21.769735
 20
-60.109613
 11
22.369735
 21
-60.109613
  0
LINE
  8
ボルト／ビス
  6
DOT
 10
22.369735
 20
-60.109613
 11
22.369735
 21
-60.142947
  0
LINE
  8
ボルト／ビス
  6
DOT
 62
    64
 10
21.90936
 20
-59.909613
 11
21.877285
 21
-59.921288
  0
ARC
  8
ボルト／ビス
  6
DOT
 62
    64
 10
21.925399
 20
-60.014592
 40
0.104978
 50
62.721967
 51
90.0
  0
ARC
  8
ボルト／ビス
  6
DOT
 62
    64
 10
22.069737
 20
-60.312016
 40
0.402402
 50
76.165002
 51
103.834985
  0
LINE
  8
ボルト／ビス
  6
DOT
 62
    64
 10
22.23011
 20
-59.909613
 11
22.262185
 21
-59.921288
  0
ARC
  8
ボルト／ビス
  6
DOT
 62
    64
 10
22.214074
 20
-60.014592
 40
0.104978
 50
90.0
 51
117.278033
  0
LINE
  8
ボルト／ビス
  6
DOT
 62
    64
 10
21.90936
 20
-59.909613
 11
22.23011
 21
-59.909613
  0
LINE
  8
ボルト／ビス
  6
DOT
 62
    64
 10
22.262185
 20
-59.921288
 11
22.262185
 21
-60.042947
  0
LINE
  8
ボルト／ビス
  6
DOT
 62
    64
 10
22.16596
 20
-59.921288
 11
22.16596
 21
-60.042947
  0
LINE
  8
ボルト／ビス
  6
DOT
 62
    64
 10
21.877285
 20
-59.921288
 11
21.877285
 21
-60.042947
  0
LINE
  8
ボルト／ビス
  6
DOT
 62
    64
 10
21.97351
 20
-59.921288
 11
21.97351
 21
-60.042947
  0
LINE
  8
ボルト／ビス
  6
DOT
 10
21.877285
 20
-60.042947
 11
22.262185
 21
-60.042947
  0
LINE
  8
ボルト／ビス
  6
DOT
 10
21.869735
 20
-60.042947
 11
21.869735
 21
-60.109613
  0
LINE
  8
ボルト／ビス
  6
DOT
 10
21.869735
 20
-60.042947
 11
22.269735
 21
-60.042947
  0
LINE
  8
ボルト／ビス
  6
DOT
 10
22.269735
 20
-60.042947
 11
22.269735
 21
-60.109613
  0
ENDBLK
  0
BLOCK
  2
*GRP_0034
 70
    65
 10
0.0
 20
0.0
  0
LINE
  8
ボルト／ビス
  6
CONTINUOUS
 10
-62.596935
 20
-70.209613
 11
-62.596935
 21
-69.742947
  0
LINE
  8
ボルト／ビス
  6
CONTINUOUS
 10
-62.23027
 20
-70.209613
 11
-62.23027
 21
-70.142947
  0
LINE
  8
ボルト／ビス
  6
CONTINUOUS
 10
-62.23027
 20
-70.142947
 11
-62.963602
 21
-70.142947
  0
LINE
  8
ボルト／ビス
  6
CONTINUOUS
 10
-62.963602
 20
-70.142947
 11
-62.963602
 21
-70.209613
  0
LINE
  8
ボルト／ビス
  6
CONTINUOUS
 10
-62.23027
 20
-70.209613
 11
-62.963602
 21
-70.209613
  0
LINE
  8
ボルト／ビス
  6
CONTINUOUS
 10
-62.296935
 20
-70.109612
 11
-62.296935
 21
-70.142947
  0
LINE
  8
ボルト／ビス
  6
CONTINUOUS
 10
-62.296935
 20
-70.109612
 11
-62.896935
 21
-70.109612
  0
LINE
  8
ボルト／ビス
  6
CONTINUOUS
 10
-62.896935
 20
-70.109612
 11
-62.896935
 21
-70.142947
  0
LINE
  8
ボルト／ビス
  6
CONTINUOUS
 62
    64
 10
-62.43656
 20
-69.909613
 11
-62.404485
 21
-69.921288
  0
ARC
  8
ボルト／ビス
  6
CONTINUOUS
 62
    64
 10
-62.452599
 20
-70.014592
 40
0.104978
 50
90.0
 51
117.278033
  0
ARC
  8
ボルト／ビス
  6
CONTINUOUS
 62
    64
 10
-62.596937
 20
-70.312016
 40
0.402402
 50
76.165015
 51
103.834998
  0
LINE
  8
ボルト／ビス
  6
CONTINUOUS
 62
    64
 10
-62.75731
 20
-69.909613
 11
-62.789385
 21
-69.921288
  0
ARC
  8
ボルト／ビス
  6
CONTINUOUS
 62
    64
 10
-62.741274
 20
-70.014592
 40
0.104978
 50
62.721967
 51
90.0
  0
LINE
  8
ボルト／ビス
  6
CONTINUOUS
 62
    64
 10
-62.43656
 20
-69.909613
 11
-62.75731
 21
-69.909613
  0
LINE
  8
ボルト／ビス
  6
CONTINUOUS
 62
    64
 10
-62.789385
 20
-69.921288
 11
-62.789385
 21
-70.042947
  0
LINE
  8
ボルト／ビス
  6
CONTINUOUS
 62
    64
 10
-62.69316
 20
-69.921288
 11
-62.69316
 21
-70.042947
  0
LINE
  8
ボルト／ビス
  6
CONTINUOUS
 62
    64
 10
-62.404485
 20
-69.921288
 11
-62.404485
 21
-70.042947
  0
LINE
  8
ボルト／ビス
  6
CONTINUOUS
 62
    64
 10
-62.50071
 20
-69.921288
 11
-62.50071
 21
-70.042947
  0
LINE
  8
ボルト／ビス
  6
CONTINUOUS
 10
-62.404485
 20
-70.042947
 11
-62.789385
 21
-70.042947
  0
LINE
  8
ボルト／ビス
  6
CONTINUOUS
 10
-62.396935
 20
-70.042947
 11
-62.396935
 21
-70.109612
  0
LINE
  8
ボルト／ビス
  6
CONTINUOUS
 10
-62.396935
 20
-70.042947
 11
-62.796935
 21
-70.042947
  0
LINE
  8
ボルト／ビス
  6
CONTINUOUS
 10
-62.796935
 20
-70.042947
 11
-62.796935
 21
-70.109612
  0
ENDBLK
  0
BLOCK
  2
*GRP_0035
 70
    65
 10
0.0
 20
0.0
  0
LINE
  8
ボルト／ビス
  6
DOT
 10
-62.596935
 20
-60.209613
 11
-62.596935
 21
-59.742947
  0
LINE
  8
ボルト／ビス
  6
DOT
 10
-62.23027
 20
-60.209613
 11
-62.23027
 21
-60.142947
  0
LINE
  8
ボルト／ビス
  6
DOT
 10
-62.23027
 20
-60.142947
 11
-62.963602
 21
-60.142947
  0
LINE
  8
ボルト／ビス
  6
DOT
 10
-62.963602
 20
-60.142947
 11
-62.963602
 21
-60.209613
  0
LINE
  8
ボルト／ビス
  6
DOT
 10
-62.23027
 20
-60.209613
 11
-62.963602
 21
-60.209613
  0
LINE
  8
ボルト／ビス
  6
DOT
 10
-62.296935
 20
-60.109613
 11
-62.296935
 21
-60.142947
  0
LINE
  8
ボルト／ビス
  6
DOT
 10
-62.296935
 20
-60.109613
 11
-62.896935
 21
-60.109613
  0
LINE
  8
ボルト／ビス
  6
DOT
 10
-62.896935
 20
-60.109613
 11
-62.896935
 21
-60.142947
  0
LINE
  8
ボルト／ビス
  6
DOT
 62
    64
 10
-62.43656
 20
-59.909613
 11
-62.404485
 21
-59.921288
  0
ARC
  8
ボルト／ビス
  6
DOT
 62
    64
 10
-62.452599
 20
-60.014592
 40
0.104978
 50
90.0
 51
117.278033
  0
ARC
  8
ボルト／ビス
  6
DOT
 62
    64
 10
-62.596937
 20
-60.312016
 40
0.402402
 50
76.165015
 51
103.834998
  0
LINE
  8
ボルト／ビス
  6
DOT
 62
    64
 10
-62.75731
 20
-59.909613
 11
-62.789385
 21
-59.921288
  0
ARC
  8
ボルト／ビス
  6
DOT
 62
    64
 10
-62.741274
 20
-60.014592
 40
0.104978
 50
62.721967
 51
90.0
  0
LINE
  8
ボルト／ビス
  6
DOT
 62
    64
 10
-62.43656
 20
-59.909613
 11
-62.75731
 21
-59.909613
  0
LINE
  8
ボルト／ビス
  6
DOT
 62
    64
 10
-62.789385
 20
-59.921288
 11
-62.789385
 21
-60.042947
  0
LINE
  8
ボルト／ビス
  6
DOT
 62
    64
 10
-62.69316
 20
-59.921288
 11
-62.69316
 21
-60.042947
  0
LINE
  8
ボルト／ビス
  6
DOT
 62
    64
 10
-62.404485
 20
-59.921288
 11
-62.404485
 21
-60.042947
  0
LINE
  8
ボルト／ビス
  6
DOT
 62
    64
 10
-62.50071
 20
-59.921288
 11
-62.50071
 21
-60.042947
  0
LINE
  8
ボルト／ビス
  6
DOT
 10
-62.404485
 20
-60.042947
 11
-62.789385
 21
-60.042947
  0
LINE
  8
ボルト／ビス
  6
DOT
 10
-62.396935
 20
-60.042947
 11
-62.396935
 21
-60.109613
  0
LINE
  8
ボルト／ビス
  6
DOT
 10
-62.396935
 20
-60.042947
 11
-62.796935
 21
-60.042947
  0
LINE
  8
ボルト／ビス
  6
DOT
 10
-62.796935
 20
-60.042947
 11
-62.796935
 21
-60.109613
  0
ENDBLK
  0
BLOCK
  2
*DIM_0036
 70
    65
 10
0.0
 20
0.0
  0
LINE
  8
寸法
  6
BYBLOCK
 62
     0
 10
9.403065
 20
-51.87628
 11
37.372718
 21
-51.87628
  0
LINE
  8
寸法
  6
BYBLOCK
 62
     0
 10
37.372718
 20
-61.87628
 11
37.372718
 21
-51.87628
  0
POINT
  8
寸法
 62
     0
 10
37.372718
 20
-61.87628
  0
POINT
  8
寸法
 62
     0
 10
37.372718
 20
-51.87628
  0
TEXT
  7
TextStyle03
  8
寸法
  6
CONTINUOUS
 62
     0
 10
36.9
 20
-50.4125
  1
上昇高さ300
 40
3.0
 50
90.0
 72
     5
 11
36.9
 21
-32.0375
  0
ENDBLK
  0
BLOCK
  2
*DIM_0037
 70
    65
 10
0.0
 20
0.0
  0
LINE
  8
寸法
  6
BYBLOCK
 62
     0
 10
92.602997
 20
40.814033
 11
92.602997
 21
68.369967
  0
LINE
  8
寸法
  6
BYBLOCK
 62
     0
 10
102.603
 20
68.369967
 11
92.602997
 21
68.369967
  0
POINT
  8
寸法
 62
     0
 10
102.603
 20
68.369967
  0
POINT
  8
寸法
 62
     0
 10
92.602997
 20
68.369967
  0
TEXT
  7
TextStyle03
  8
寸法
  6
CONTINUOUS
 62
     0
 10
71.5375
 20
65.525
  1
上昇高さ300
 40
3.0
 72
     5
 11
89.9125
 21
65.525
  0
ENDBLK
  0
ENDSEC
  0
SECTION
  2
ENTITIES
  0
POLYLINE
  8
通り芯
  6
CONTINUOUS
 66
     1
 70
     1
  0
VERTEX
  8
通り芯
 10
-210.0
 20
-148.5
  0
VERTEX
  8
通り芯
 10
210.0
 20
-148.5
  0
VERTEX
  8
通り芯
 10
210.0
 20
148.5
  0
VERTEX
  8
通り芯
 10
-210.0
 20
148.5
  0
SEQEND
  0
INSERT
  2
*GRP_0001
  8
型材断面
  6
CONTINUOUS
 10
0.0
 20
0.0
  0
LINE
  8
型材断面
  6
DASHDOT
 10
21.403067
 20
-77.836442
 11
21.403067
 21
52.814033
  0
LINE
  8
型材断面
  6
DASHDOT
 10
-20.2636
 20
-77.836442
 11
-20.2636
 21
52.814033
  0
LINE
  8
型材断面
  6
DASHDOT
 10
-61.930265
 20
-77.836442
 11
-61.930265
 21
52.814033
  0
LINE
  8
型材断面
  6
DASHDOT
 10
119.07983
 20
52.814033
 11
-61.930265
 21
52.814033
  0
LINE
  8
型材断面
  6
DASHDOT
 10
119.07983
 20
37.814033
 11
-61.930265
 21
37.814033
  0
LINE
  8
型材断面
  6
DASHDOT
 10
119.07983
 20
22.814033
 11
-61.930265
 21
22.814033
  0
LINE
  8
型材断面
  6
DOT
 10
-21.5136
 20
22.814033
 11
-21.5136
 21
52.814033
  0
LINE
  8
型材断面
  6
DOT
 10
-19.0136
 20
22.814033
 11
-19.0136
 21
52.814033
  0
LINE
  8
型材断面
  6
DASHDOT
 10
-20.2636
 20
22.814033
 11
-20.2636
 21
52.814033
  0
POLYLINE
  8
型材断面
  6
CONTINUOUS
 66
     1
 70
     1
  0
VERTEX
  8
型材断面
 10
-10.779187
 20
13.03811
  0
VERTEX
  8
型材断面
 10
-29.551117
 20
13.03811
  0
VERTEX
  8
型材断面
 10
-29.551117
 20
8.301267
  0
VERTEX
  8
型材断面
 10
-10.779187
 20
8.301267
  0
SEQEND
  0
POLYLINE
  8
型材断面
  6
CONTINUOUS
 66
     1
 70
     1
  0
VERTEX
  8
型材断面
 10
-10.779187
 20
62.589955
  0
VERTEX
  8
型材断面
 10
-29.551117
 20
62.589955
  0
VERTEX
  8
型材断面
 10
-29.551117
 20
67.326798
  0
VERTEX
  8
型材断面
 10
-10.779187
 20
67.326798
  0
SEQEND
  0
LINE
  8
型材断面
  6
CONTINUOUS
 10
-115.808788
 20
90.791505
 11
-115.212733
 21
88.200998
  0
LINE
  8
型材断面
  6
CONTINUOUS
 10
-115.808788
 20
90.791505
 11
-116.404845
 21
88.200998
  0
LINE
  8
型材断面
  6
CONTINUOUS
 10
-116.404845
 20
88.200998
 11
-115.212733
 21
88.200998
  0
LINE
  8
型材断面
  6
CONTINUOUS
 10
-121.831375
 20
84.922105
 11
-75.589598
 21
84.922105
  0
LINE
  8
型材断面
  6
CONTINUOUS
 10
-115.808788
 20
97.32138
 11
-117.304418
 21
94.730873
  0
LINE
  8
型材断面
  6
CONTINUOUS
 10
-115.808788
 20
97.32138
 11
-114.313158
 21
94.730873
  0
LINE
  8
型材断面
  6
CONTINUOUS
 10
-114.313158
 20
94.730873
 11
-117.304418
 21
94.730873
  0
LINE
  8
型材断面
  6
CONTINUOUS
 10
-121.831375
 20
93.792277
 11
-75.589598
 21
93.792277
  0
LINE
  8
型材断面
  6
CONTINUOUS
 10
-121.831375
 20
79.134073
 11
-75.589598
 21
79.134073
  0
LINE
  8
型材断面
  6
CONTINUOUS
 10
-121.831375
 20
73.34604
 11
-75.589598
 21
73.34604
  0
INSERT
  2
*GRP_0012
  8
型材断面
  6
CONTINUOUS
 10
0.0
 20
0.0
  0
INSERT
  2
*GRP_0013
  8
型材断面
  6
CONTINUOUS
 10
0.0
 20
0.0
  0
LINE
  8
型材断面
  6
CONTINUOUS
 10
111.98645
 20
37.814033
 11
111.98645
 21
21.453885
  0
LINE
  8
型材断面
  6
CONTINUOUS
 10
113.13645
 20
37.814033
 11
113.13645
 21
20.0507
  0
LINE
  8
型材断面
  6
CONTINUOUS
 10
114.303118
 20
37.814033
 11
114.303118
 21
20.0507
  0
LINE
  8
型材断面
  6
CONTINUOUS
 10
111.98645
 20
37.814033
 11
111.98645
 21
54.17418
  0
LINE
  8
型材断面
  6
CONTINUOUS
 10
113.13645
 20
37.814033
 11
113.13645
 21
55.577365
  0
LINE
  8
型材断面
  6
CONTINUOUS
 10
114.303118
 20
37.814033
 11
114.303118
 21
55.577365
  0
LINE
  8
型材断面
  6
CONTINUOUS
 10
-20.2636
 20
-71.259735
 11
-63.29041
 21
-71.259735
  0
LINE
  8
型材断面
  6
CONTINUOUS
 10
-20.2636
 20
-72.409735
 11
-64.693595
 21
-72.409735
  0
LINE
  8
型材断面
  6
CONTINUOUS
 10
-20.2636
 20
-73.576403
 11
-64.693595
 21
-73.576403
  0
LINE
  8
型材断面
  6
CONTINUOUS
 10
-20.2636
 20
-71.259735
 11
22.76321
 21
-71.259735
  0
LINE
  8
型材断面
  6
CONTINUOUS
 10
-20.2636
 20
-72.409735
 11
24.166395
 21
-72.409735
  0
LINE
  8
型材断面
  6
CONTINUOUS
 10
-20.2636
 20
-73.576403
 11
24.166395
 21
-73.576403
  0
LINE
  8
型材断面
  6
CONTINUOUS
 10
24.166395
 20
55.577365
 11
24.166395
 21
20.0507
  0
LINE
  8
型材断面
  6
CONTINUOUS
 10
24.166395
 20
20.0507
 11
-64.693595
 21
20.0507
  0
LINE
  8
型材断面
  6
CONTINUOUS
 10
-64.693595
 20
20.0507
 11
-64.693595
 21
55.577365
  0
LINE
  8
型材断面
  6
CONTINUOUS
 10
24.166395
 20
55.577365
 11
-64.693595
 21
55.577365
  0
LINE
  8
型材断面
  6
CONTINUOUS
 10
-63.996935
 20
54.8807
 11
-64.693595
 21
55.577357
  0
LINE
  8
型材断面
  6
CONTINUOUS
 10
23.469735
 20
54.8807
 11
24.166395
 21
55.577357
  0
LINE
  8
型材断面
  6
CONTINUOUS
 10
23.469735
 20
20.747365
 11
24.166403
 21
20.0507
  0
LINE
  8
型材断面
  6
CONTINUOUS
 10
-63.996935
 20
20.747365
 11
-64.693602
 21
20.0507
  0
LINE
  8
型材断面
  6
CONTINUOUS
 10
-64.693595
 20
37.814033
 11
-67.284102
 21
39.309663
  0
LINE
  8
型材断面
  6
CONTINUOUS
 10
-64.693595
 20
37.814033
 11
-67.284102
 21
36.318403
  0
LINE
  8
型材断面
  6
CONTINUOUS
 10
-67.284102
 20
36.318403
 11
-67.284102
 21
39.309663
  0
LINE
  8
型材断面
  6
CONTINUOUS
 10
-64.693598
 20
49.114035
 11
-67.284108
 21
48.517982
  0
LINE
  8
型材断面
  6
CONTINUOUS
 10
-64.693598
 20
49.114035
 11
-67.284105
 21
49.710095
  0
LINE
  8
型材断面
  6
CONTINUOUS
 10
-67.284105
 20
49.710095
 11
-67.284108
 21
48.517982
  0
LINE
  8
型材断面
  6
CONTINUOUS
 10
-64.693598
 20
26.51403
 11
-67.284108
 21
27.110082
  0
LINE
  8
型材断面
  6
CONTINUOUS
 10
-64.693598
 20
26.51403
 11
-67.284105
 21
25.91797
  0
LINE
  8
型材断面
  6
CONTINUOUS
 10
-67.284105
 20
25.91797
 11
-67.284108
 21
27.110082
  0
LINE
  8
型材断面
  6
CONTINUOUS
 10
-45.263598
 20
55.577365
 11
-46.759227
 21
58.167872
  0
LINE
  8
型材断面
  6
CONTINUOUS
 10
-45.263598
 20
55.577365
 11
-43.767968
 21
58.167872
  0
LINE
  8
型材断面
  6
CONTINUOUS
 10
-43.767968
 20
58.167872
 11
-46.759227
 21
58.167872
  0
LINE
  8
型材断面
  6
CONTINUOUS
 10
4.736398
 20
55.577365
 11
6.232028
 21
58.167872
  0
LINE
  8
型材断面
  6
CONTINUOUS
 10
4.736398
 20
55.577365
 11
3.240768
 21
58.167872
  0
LINE
  8
型材断面
  6
CONTINUOUS
 10
3.240768
 20
58.167872
 11
6.232028
 21
58.167872
  0
LINE
  8
型材断面
  6
CONTINUOUS
 10
24.166395
 20
37.814033
 11
26.756903
 21
39.309663
  0
LINE
  8
型材断面
  6
CONTINUOUS
 10
24.166395
 20
37.814033
 11
26.756903
 21
36.318403
  0
LINE
  8
型材断面
  6
CONTINUOUS
 10
26.756903
 20
36.318403
 11
26.756903
 21
39.309663
  0
LINE
  8
型材断面
  6
CONTINUOUS
 10
24.166397
 20
49.114035
 11
26.756907
 21
48.517982
  0
LINE
  8
型材断面
  6
CONTINUOUS
 10
24.166397
 20
49.114035
 11
26.756905
 21
49.710095
  0
LINE
  8
型材断面
  6
CONTINUOUS
 10
26.756905
 20
49.710095
 11
26.756907
 21
48.517982
  0
LINE
  8
型材断面
  6
CONTINUOUS
 10
24.166397
 20
26.51403
 11
26.756907
 21
27.110082
  0
LINE
  8
型材断面
  6
CONTINUOUS
 10
24.166397
 20
26.51403
 11
26.756905
 21
25.91797
  0
LINE
  8
型材断面
  6
CONTINUOUS
 10
26.756905
 20
25.91797
 11
26.756907
 21
27.110082
  0
LINE
  8
型材断面
  6
CONTINUOUS
 10
-45.263598
 20
20.0507
 11
-46.759227
 21
17.460193
  0
LINE
  8
型材断面
  6
CONTINUOUS
 10
-45.263598
 20
20.0507
 11
-43.767968
 21
17.460193
  0
LINE
  8
型材断面
  6
CONTINUOUS
 10
-43.767968
 20
17.460193
 11
-46.759227
 21
17.460193
  0
LINE
  8
型材断面
  6
CONTINUOUS
 10
4.736398
 20
20.0507
 11
6.232028
 21
17.460193
  0
LINE
  8
型材断面
  6
CONTINUOUS
 10
4.736398
 20
20.0507
 11
3.240768
 21
17.460193
  0
LINE
  8
型材断面
  6
CONTINUOUS
 10
3.240768
 20
17.460193
 11
6.232028
 21
17.460193
  0
LINE
  8
型材断面
  6
CONTINUOUS
 10
23.666395
 20
-77.70962
 11
23.666395
 21
-78.046285
  0
LINE
  8
型材断面
  6
CONTINUOUS
 10
24.166395
 20
-77.70962
 11
23.666395
 21
-77.70962
  0
LINE
  8
型材断面
  6
CONTINUOUS
 10
24.166395
 20
-73.809738
 11
23.96977
 21
-73.613115
  0
LINE
  8
型材断面
  6
CONTINUOUS
 10
24.166395
 20
-73.809738
 11
24.166395
 21
-77.70962
  0
LINE
  8
型材断面
  6
CONTINUOUS
 10
118.436335
 20
55.077365
 11
118.773
 21
55.077365
  0
LINE
  8
型材断面
  6
CONTINUOUS
 10
118.436335
 20
55.577365
 11
118.436335
 21
55.077365
  0
LINE
  8
型材断面
  6
CONTINUOUS
 10
114.536453
 20
55.577365
 11
114.33983
 21
55.38074
  0
LINE
  8
型材断面
  6
CONTINUOUS
 10
114.536453
 20
55.577365
 11
118.436335
 21
55.577365
  0
LINE
  8
型材断面
  6
CONTINUOUS
 62
    47
 10
114.33983
 20
55.38074
 11
114.33983
 21
37.814033
  0
LINE
  8
型材断面
  6
CONTINUOUS
 10
114.536453
 20
55.577365
 11
114.536453
 21
37.814033
  0
LINE
  8
型材断面
  6
CONTINUOUS
 10
118.436335
 20
55.577365
 11
118.436335
 21
37.814033
  0
LINE
  8
型材断面
  6
CONTINUOUS
 10
118.773
 20
55.077365
 11
118.773
 21
37.814033
  0
LINE
  8
型材断面
  6
CONTINUOUS
 10
118.436335
 20
20.5507
 11
118.773
 21
20.5507
  0
LINE
  8
型材断面
  6
CONTINUOUS
 10
118.436335
 20
20.0507
 11
118.436335
 21
20.5507
  0
LINE
  8
型材断面
  6
CONTINUOUS
 10
114.536453
 20
20.0507
 11
114.33983
 21
20.247325
  0
LINE
  8
型材断面
  6
CONTINUOUS
 10
114.536453
 20
20.0507
 11
118.436335
 21
20.0507
  0
LINE
  8
型材断面
  6
CONTINUOUS
 62
    47
 10
114.33983
 20
20.247325
 11
114.33983
 21
37.814033
  0
LINE
  8
型材断面
  6
CONTINUOUS
 10
114.536453
 20
20.0507
 11
114.536453
 21
37.814033
  0
LINE
  8
型材断面
  6
CONTINUOUS
 10
118.436335
 20
20.0507
 11
118.436335
 21
37.814033
  0
LINE
  8
型材断面
  6
CONTINUOUS
 10
118.773
 20
20.5507
 11
118.773
 21
37.814033
  0
LINE
  8
型材断面
  6
CONTINUOUS
 62
    47
 10
23.96977
 20
-73.613115
 11
-20.2636
 21
-73.613115
  0
LINE
  8
型材断面
  6
CONTINUOUS
 10
24.166395
 20
-73.809738
 11
-20.2636
 21
-73.809738
  0
LINE
  8
型材断面
  6
CONTINUOUS
 10
24.166395
 20
-77.70962
 11
-20.2636
 21
-77.70962
  0
LINE
  8
型材断面
  6
CONTINUOUS
 10
23.666395
 20
-78.046285
 11
-20.2636
 21
-78.046285
  0
LINE
  8
型材断面
  6
CONTINUOUS
 10
-64.193595
 20
-77.70962
 11
-64.193595
 21
-78.046285
  0
LINE
  8
型材断面
  6
CONTINUOUS
 10
-64.693595
 20
-77.70962
 11
-64.193595
 21
-77.70962
  0
LINE
  8
型材断面
  6
CONTINUOUS
 10
-64.693595
 20
-73.809738
 11
-64.49697
 21
-73.613115
  0
LINE
  8
型材断面
  6
CONTINUOUS
 10
-64.693595
 20
-73.809738
 11
-64.693595
 21
-77.70962
  0
LINE
  8
型材断面
  6
CONTINUOUS
 62
    47
 10
-64.49697
 20
-73.613115
 11
-20.2636
 21
-73.613115
  0
LINE
  8
型材断面
  6
CONTINUOUS
 10
-64.693595
 20
-73.809738
 11
-20.2636
 21
-73.809738
  0
LINE
  8
型材断面
  6
CONTINUOUS
 10
-64.693595
 20
-77.70962
 11
-20.2636
 21
-77.70962
  0
LINE
  8
型材断面
  6
CONTINUOUS
 10
-64.193595
 20
-78.046285
 11
-20.2636
 21
-78.046285
  0
TEXT
  7
TextStyle03
  8
文字
  6
CONTINUOUS
 10
-28.45
 20
9.325
  1
可動装置側
 40
3.0
 72
     5
 11
-11.95
 21
9.325
  0
TEXT
  7
TextStyle03
  8
文字
  6
CONTINUOUS
 10
-28.45
 20
63.275
  1
可動装置側
 40
3.0
 72
     5
 11
-11.95
 21
63.275
  0
TEXT
  7
TextStyle03
  8
文字
  6
CONTINUOUS
 10
-113.025
 20
89.4
  1
はケーシング位置を示す
 40
3.0
 72
     5
 11
-76.275
 21
89.4
  0
TEXT
  7
TextStyle03
  8
文字
  6
CONTINUOUS
 10
-113.025
 20
86.025
  1
４ヶ所中1ヶ所に設定
 40
3.0
 72
     5
 11
-81.3375
 21
86.025
  0
TEXT
  7
TextStyle03
  8
文字
  6
CONTINUOUS
 10
-113.025
 20
94.925
  1
は排水穴位置を示す
 40
3.0
 72
     5
 11
-83.025
 21
94.925
  0
TEXT
  7
TextStyle03
  8
文字
  6
CONTINUOUS
 10
-82.925
 20
16.275
  1
アンカーピッチ
 40
3.0
 50
90.0
 72
     5
 11
-82.925
 21
39.525
  0
TEXT
  7
TextStyle03
  8
文字
  6
CONTINUOUS
 10
-55.3
 20
90.85
  1
アンカーピッチ
 40
3.0
 72
     5
 11
-32.05
 21
90.85
  0
TEXT
  7
TextStyle03
  8
文字
  6
CONTINUOUS
 10
-116.75
 20
80.05
  1
アンカー数量　１２ヶ所
 40
3.0
 72
     5
 11
-80.0
 21
80.05
  0
TEXT
  7
TextStyle03
  8
文字
  6
CONTINUOUS
 10
-121.75
 20
69.35
  1
※重量に依るのでご相談ください
 40
3.0
 72
     5
 11
-71.5
 21
69.35
  0
TEXT
  7
TextStyle03
  8
文字
  6
CONTINUOUS
 10
-121.75
 20
74.3
  1
アームユニット数　※２～４ヶ所
 40
3.0
 72
     5
 11
-71.5
 21
74.3
  0
LINE
  8
文字
  6
CONTINUOUS
 10
55.422717
 20
20.0507
 11
111.96182
 21
20.0507
  0
LINE
  8
文字
  6
CONTINUOUS
 10
55.422717
 20
55.577365
 11
111.879665
 21
55.577365
  0
LINE
  8
文字
  6
CONTINUOUS
 10
-64.693595
 20
-13.121378
 11
-64.693595
 21
-71.24756
  0
LINE
  8
文字
  6
CONTINUOUS
 10
24.166395
 20
-13.121378
 11
24.166395
 21
-71.254348
  0
TEXT
  7
TextStyle03
  8
文字
  6
CONTINUOUS
 10
97.2
 20
-77.125
  1
網入り6.8t
 40
3.0
 72
     5
 11
113.8875
 21
-77.125
  0
TEXT
  7
TextStyle03
  8
文字
  6
CONTINUOUS
 10
103.875
 20
-81.8
  1
×２枚
 40
3.0
 72
     5
 11
113.625
 21
-81.8
  0
TEXT
  7
TextStyle03
  8
文字
  6
CONTINUOUS
 10
78.1
 20
125.25
  1
シリーズ：ＴＤ１Ｌ
 40
5.0
 72
     5
 11
128.1
 21
125.25
  0
TEXT
  7
TextStyle03
  8
文字
  6
CONTINUOUS
 10
78.1
 20
119.625
  1
　　　　　（上下可動）900×2500タイプ
 40
5.0
 72
     5
 11
181.5375
 21
119.625
  0
TEXT
  7
TextStyle03
  8
文字
  6
CONTINUOUS
 10
78.1
 20
114.0
  1
図面名　：外観姿図
 40
5.0
 72
     5
 11
128.1
 21
114.0
  0
TEXT
  7
TextStyle03
  8
文字
  6
CONTINUOUS
 10
78.1
 20
108.375
  1
　　　　　　
 40
5.0
 72
     5
 11
111.225
 21
108.375
  0
TEXT
  7
TextStyle03
  8
文字
  6
CONTINUOUS
 10
77.925
 20
104.75
  1
ＮＳコード：ＮＳＤＬ
 40
5.0
 72
     5
 11
133.55
 21
104.75
  0
INSERT
  2
*DIM_0002
  8
寸法
  6
CONTINUOUS
 10
0.0
 20
0.0
  0
INSERT
  2
*DIM_0003
  8
寸法
  6
CONTINUOUS
 10
0.0
 20
0.0
  0
INSERT
  2
*DIM_0004
  8
寸法
  6
CONTINUOUS
 10
0.0
 20
0.0
  0
INSERT
  2
*DIM_0005
  8
寸法
  6
CONTINUOUS
 10
0.0
 20
0.0
  0
INSERT
  2
*DIM_0006
  8
寸法
  6
CONTINUOUS
 10
0.0
 20
0.0
  0
INSERT
  2
*DIM_0008
  8
寸法
  6
CONTINUOUS
 10
0.0
 20
0.0
  0
INSERT
  2
*DIM_0009
  8
寸法
  6
CONTINUOUS
 10
0.0
 20
0.0
  0
INSERT
  2
*DIM_0010
  8
寸法
  6
CONTINUOUS
 10
0.0
 20
0.0
  0
INSERT
  2
*DIM_0011
  8
寸法
  6
CONTINUOUS
 10
0.0
 20
0.0
  0
INSERT
  2
*DIM_0014
  8
寸法
  6
CONTINUOUS
 10
0.0
 20
0.0
  0
INSERT
  2
*DIM_0015
  8
寸法
  6
CONTINUOUS
 10
0.0
 20
0.0
  0
INSERT
  2
*DIM_0016
  8
寸法
  6
CONTINUOUS
 10
0.0
 20
0.0
  0
INSERT
  2
*DIM_0017
  8
寸法
  6
CONTINUOUS
 10
0.0
 20
0.0
  0
INSERT
  2
*DIM_0018
  8
寸法
  6
CONTINUOUS
 10
0.0
 20
0.0
  0
INSERT
  2
*DIM_0019
  8
寸法
  6
CONTINUOUS
 10
0.0
 20
0.0
  0
INSERT
  2
*DIM_0022
  8
寸法
  6
CONTINUOUS
 10
0.0
 20
0.0
  0
INSERT
  2
*DIM_0023
  8
寸法
  6
CONTINUOUS
 10
0.0
 20
0.0
  0
INSERT
  2
*DIM_0024
  8
寸法
  6
CONTINUOUS
 10
0.0
 20
0.0
  0
INSERT
  2
*DIM_0025
  8
寸法
  6
CONTINUOUS
 10
0.0
 20
0.0
  0
INSERT
  2
*DIM_0036
  8
寸法
  6
CONTINUOUS
 10
0.0
 20
0.0
  0
INSERT
  2
*DIM_0037
  8
寸法
  6
CONTINUOUS
 10
0.0
 20
0.0
  0
LINE
  8
別途部材
  6
CONTINUOUS
 10
23.469735
 20
20.747365
 11
23.069735
 21
21.147365
  0
LINE
  8
別途部材
  6
CONTINUOUS
 10
21.403067
 20
22.814033
 11
13.343813
 21
30.87329
  0
LINE
  8
別途部材
  6
CONTINUOUS
 10
23.069735
 20
21.147365
 11
23.069735
 21
37.814033
  0
LINE
  8
別途部材
  6
CONTINUOUS
 10
23.469735
 20
20.747365
 11
23.469735
 21
37.814033
  0
LINE
  8
別途部材
  6
CONTINUOUS
 10
23.469735
 20
54.8807
 11
23.069735
 21
54.4807
  0
LINE
  8
別途部材
  6
CONTINUOUS
 10
21.403067
 20
52.814033
 11
13.343813
 21
44.754775
  0
LINE
  8
別途部材
  6
CONTINUOUS
 10
23.069735
 20
54.4807
 11
23.069735
 21
37.814033
  0
LINE
  8
別途部材
  6
CONTINUOUS
 10
23.469735
 20
54.8807
 11
23.469735
 21
37.814033
  0
LINE
  8
別途部材
  6
CONTINUOUS
 10
23.069735
 20
54.4807
 11
-20.2636
 21
54.4807
  0
LINE
  8
別途部材
  6
CONTINUOUS
 10
23.469735
 20
54.8807
 11
-20.2636
 21
54.8807
  0
LINE
  8
別途部材
  6
CONTINUOUS
 10
23.069735
 20
21.147365
 11
-20.2636
 21
21.147365
  0
LINE
  8
別途部材
  6
CONTINUOUS
 10
23.469735
 20
20.747365
 11
-20.2636
 21
20.747365
  0
LINE
  8
別途部材
  6
CONTINUOUS
 10
-63.996935
 20
20.747365
 11
-63.596935
 21
21.147365
  0
LINE
  8
別途部材
  6
CONTINUOUS
 10
-61.930267
 20
22.814033
 11
-53.871012
 21
30.87329
  0
LINE
  8
別途部材
  6
CONTINUOUS
 10
-63.596935
 20
21.147365
 11
-63.596935
 21
37.814033
  0
LINE
  8
別途部材
  6
CONTINUOUS
 10
-63.996935
 20
20.747365
 11
-63.996935
 21
37.814033
  0
LINE
  8
別途部材
  6
CONTINUOUS
 10
-63.996935
 20
54.8807
 11
-63.596935
 21
54.4807
  0
LINE
  8
別途部材
  6
CONTINUOUS
 10
-61.930267
 20
52.814033
 11
-53.871012
 21
44.754775
  0
LINE
  8
別途部材
  6
CONTINUOUS
 10
-63.596935
 20
54.4807
 11
-63.596935
 21
37.814033
  0
LINE
  8
別途部材
  6
CONTINUOUS
 10
-63.996935
 20
54.8807
 11
-63.996935
 21
37.814033
  0
LINE
  8
別途部材
  6
CONTINUOUS
 10
-63.596935
 20
54.4807
 11
-20.2636
 21
54.4807
  0
LINE
  8
別途部材
  6
CONTINUOUS
 10
-63.996935
 20
54.8807
 11
-20.2636
 21
54.8807
  0
LINE
  8
別途部材
  6
CONTINUOUS
 10
-63.596935
 20
21.147365
 11
-20.2636
 21
21.147365
  0
LINE
  8
別途部材
  6
CONTINUOUS
 10
-63.996935
 20
20.747365
 11
-20.2636
 21
20.747365
  0
INSERT
  2
*GRP_0007
  8
別途部材
  6
CONTINUOUS
 10
0.0
 20
0.0
  0
LINE
  8
別途部材
  6
CONTINUOUS
 62
    96
 10
110.936333
 20
21.147365
 11
111.936333
 21
20.747365
  0
LINE
  8
別途部材
  6
CONTINUOUS
 62
    96
 10
110.936333
 20
21.147365
 11
110.936333
 21
37.814033
  0
LINE
  8
別途部材
  6
CONTINUOUS
 10
111.936333
 20
20.747365
 11
111.936333
 21
37.814033
  0
LINE
  8
別途部材
  6
CONTINUOUS
 62
    96
 10
110.936333
 20
54.4807
 11
111.936333
 21
54.8807
  0
LINE
  8
別途部材
  6
CONTINUOUS
 62
    96
 10
110.936333
 20
54.4807
 11
110.936333
 21
37.814033
  0
LINE
  8
別途部材
  6
CONTINUOUS
 10
111.936333
 20
54.8807
 11
111.936333
 21
37.814033
  0
ARC
  8
別途部材
  6
CONTINUOUS
 10
120.269665
 20
37.814033
 40
17.666667
 50
121.890796
 51
238.109204
  0
INSERT
  2
*GRP_0028
  8
別途部材
  6
DOT
 10
0.0
 20
0.0
  0
INSERT
  2
*GRP_0029
  8
別途部材
  6
DOT
 10
0.0
 20
0.0
  0
INSERT
  2
*GRP_0030
  8
別途部材
  6
DOT
 10
0.0
 20
0.0
  0
INSERT
  2
*GRP_0031
  8
別途部材
  6
DOT
 10
0.0
 20
0.0
  0
INSERT
  2
*GRP_0032
  8
別途部材
  6
DOT
 10
0.0
 20
0.0
  0
INSERT
  2
*GRP_0033
  8
別途部材
  6
DOT
 10
0.0
 20
0.0
  0
INSERT
  2
*GRP_0034
  8
別途部材
  6
DOT
 10
0.0
 20
0.0
  0
INSERT
  2
*GRP_0035
  8
別途部材
  6
DOT
 10
0.0
 20
0.0
  0
POLYLINE
  8
曲げ物
  6
CONTINUOUS
 66
     1
 70
     1
  0
VERTEX
  8
曲げ物
 10
116.901698
 20
-54.728222
  0
VERTEX
  8
曲げ物
 10
75.768362
 20
-54.728222
  0
VERTEX
  8
曲げ物
 10
75.768362
 20
-84.728222
  0
VERTEX
  8
曲げ物
 10
116.901698
 20
-84.728222
  0
SEQEND
  0
INSERT
  2
*GRP_0026
  8
曲げ物
  6
CONTINUOUS
 10
0.0
 20
0.0
  0
INSERT
  2
*GRP_0027
  8
曲げ物
  6
CONTINUOUS
 10
0.0
 20
0.0
  0
LINE
  8
鉄骨等
  6
CONTINUOUS
 62
    47
 10
114.303118
 20
20.0507
 11
113.13645
 21
20.0507
  0
LINE
  8
鉄骨等
  6
CONTINUOUS
 62
    47
 10
113.13645
 20
20.0507
 11
111.98645
 21
21.453885
  0
LINE
  8
鉄骨等
  6
CONTINUOUS
 62
    47
 10
111.98645
 20
21.453885
 11
111.93633
 21
21.453885
  0
LINE
  8
鉄骨等
  6
CONTINUOUS
 62
    47
 10
114.303118
 20
55.577365
 11
113.13645
 21
55.577365
  0
LINE
  8
鉄骨等
  6
CONTINUOUS
 62
    47
 10
113.13645
 20
55.577365
 11
111.98645
 21
54.17418
  0
LINE
  8
鉄骨等
  6
CONTINUOUS
 62
    47
 10
111.98645
 20
54.17418
 11
111.93633
 21
54.17418
  0
LINE
  8
鉄骨等
  6
CONTINUOUS
 62
    47
 10
-64.693595
 20
-73.576403
 11
-64.693595
 21
-72.409735
  0
LINE
  8
鉄骨等
  6
CONTINUOUS
 62
    47
 10
-64.693595
 20
-72.409735
 11
-63.29041
 21
-71.259735
  0
LINE
  8
鉄骨等
  6
CONTINUOUS
 62
    47
 10
-63.29041
 20
-71.259735
 11
-63.29041
 21
-71.209615
  0
LINE
  8
鉄骨等
  6
CONTINUOUS
 62
    47
 10
24.166395
 20
-73.576403
 11
24.166395
 21
-72.409735
  0
LINE
  8
鉄骨等
  6
CONTINUOUS
 62
    47
 10
24.166395
 20
-72.409735
 11
22.76321
 21
-71.259735
  0
LINE
  8
鉄骨等
  6
CONTINUOUS
 62
    47
 10
22.76321
 20
-71.259735
 11
22.76321
 21
-71.209615
  0
ENDSEC
  0
EOF
