  0
SECTION
  2
HEADER
  9
$EXTMIN
 10
-210.0
 20
-148.5
  9
$EXTMAX
 10
210.0
 20
148.5
  9
$PDMODE
 70
    32
  9
$PDSIZE
 40
1.5
  9
$LTSCALE
 40
10.0
  0
ENDSEC
  0
SECTION
  2
TABLES
  0
TABLE
  2
LTYPE
 70
    15
  0
LTYPE
  2
CONTINUOUS
 70
    64
  3
実線
 72
    65
 73
     0
 40
0.0
  0
LTYPE
  2
DASHED
 70
    64
  3
破線A
 72
    65
 73
     2
 40
0.6
 49
0.4
 49
-0.2
  0
LTYPE
  2
DASHEDX2
 70
    64
  3
破線B
 72
    65
 73
     2
 40
1.3
 49
0.9
 49
-0.4
  0
LTYPE
  2
DASHDOT
 70
    64
  3
１点鎖線A
 72
    65
 73
     4
 40
0.5375
 49
0.375
 49
-0.05
 49
0.0625
 49
-0.05
  0
LTYPE
  2
DASHDOTX2
 70
    64
  3
１点鎖線B
 72
    65
 73
     4
 40
1.075
 49
0.75
 49
-0.1
 49
0.125
 49
-0.1
  0
LTYPE
  2
DIVIDE2
 70
    64
  3
２点鎖線A
 72
    65
 73
     6
 40
0.5125
 49
0.3
 49
-0.0375
 49
0.05
 49
-0.0375
 49
0.05
 49
-0.0375
  0
LTYPE
  2
DIVIDE
 70
    64
  3
２点鎖線B
 72
    65
 73
     6
 40
1.05
 49
0.55
 49
-0.1
 49
0.1
 49
-0.1
 49
0.1
 49
-0.1
  0
LTYPE
  2
DOT
 70
    64
  3
点線A
 72
    65
 73
     2
 40
0.1125
 49
0.0625
 49
-0.05
  0
LTYPE
  2
DOTX2
 70
    64
  3
点線B
 72
    65
 73
     2
 40
0.275
 49
0.15
 49
-0.125
  0
LTYPE
  2
CONTINUOUS
 70
    64
  3
実線
 72
    65
 73
     0
 40
0.0
  0
LTYPE
  2
CONTINUOUS
 70
    64
  3
実線
 72
    65
 73
     0
 40
0.0
  0
LTYPE
  2
CONTINUOUS
 70
    64
  3
実線
 72
    65
 73
     0
 40
0.0
  0
LTYPE
  2
CONTINUOUS
 70
    64
  3
実線
 72
    65
 73
     0
 40
0.0
  0
LTYPE
  2
CONTINUOUS
 70
    64
  3
実線
 72
    65
 73
     0
 40
0.0
  0
LTYPE
  2
CONTINUOUS
 70
    64
  3
実線
 72
    65
 73
     0
 40
0.0
  0
ENDTAB
  0
TABLE
  2
LAYER
 70
    34
  0
LAYER
  2
通り芯
 70
     0
 62
    15
  6
CONTINUOUS
  0
LAYER
  2
補助線
 70
     0
 62
    16
  6
DOT
  0
LAYER
  2
躯体
 70
     0
 62
    31
  6
CONTINUOUS
  0
LAYER
  2
型材
 70
     0
 62
    32
  6
CONTINUOUS
  0
LAYER
  2
型材断面
 70
     0
 62
    47
  6
CONTINUOUS
  0
LAYER
  2
ガラス
 70
     0
 62
    48
  6
CONTINUOUS
  0
LAYER
  2
ゴム等
 70
     0
 62
    63
  6
CONTINUOUS
  0
LAYER
  2
ボルト／ビス
 70
     0
 62
    64
  6
CONTINUOUS
  0
LAYER
  2
文字
 70
     0
 62
    79
  6
CONTINUOUS
  0
LAYER
  2
寸法
 70
     0
 62
    80
  6
CONTINUOUS
  0
LAYER
  2
ﾊｯﾁﾝｸﾞ
 70
     0
 62
    95
  6
CONTINUOUS
  0
LAYER
  2
別途部材
 70
     0
 62
    96
  6
CONTINUOUS
  0
LAYER
  2
曲げ物
 70
     0
 62
   111
  6
CONTINUOUS
  0
LAYER
  2
鉄骨等
 70
     0
 62
   112
  6
CONTINUOUS
  0
LAYER
  2
St
 70
     0
 62
   127
  6
CONTINUOUS
  0
LAYER
  2
その他部品等
 70
     0
 62
   128
  6
CONTINUOUS
  0
LAYER
  2
ｶﾞｽｹｯﾄ
 70
     0
 62
   143
  6
CONTINUOUS
  0
LAYER
  2
ｽｹｯﾁ
 70
     0
 62
    14
  6
CONTINUOUS
  0
LAYER
  2
0
 70
     0
 62
    17
  6
CONTINUOUS
  0
LAYER
  2
1
 70
     0
 62
    30
  6
CONTINUOUS
  0
LAYER
  2
4
 70
     0
 62
    33
  6
CONTINUOUS
  0
LAYER
  2
ﾚｲﾔ3
 70
     0
 62
    46
  6
CONTINUOUS
  0
LAYER
  2
外形線
 70
     0
 62
    49
  6
CONTINUOUS
  0
LAYER
  2
部品
 70
     0
 62
    14
  6
CONTINUOUS
  0
LAYER
  2
サッシ芯
 70
     0
 62
    17
  6
DASHDOTX2
  0
LAYER
  2
寸法線
 70
     0
 62
    62
  6
CONTINUOUS
  0
LAYER
  2
姿図外形線
 70
     0
 62
    65
  6
CONTINUOUS
  0
LAYER
  2
姿補助線
 70
     0
 62
    30
  6
CONTINUOUS
  0
LAYER
  2
透視線
 70
     0
 62
    78
  6
DOT
  0
LAYER
  2
用紙
 70
     0
 62
    81
  6
CONTINUOUS
  0
LAYER
  2
実線図枠
 70
     0
 62
    94
  6
CONTINUOUS
  0
LAYER
  2
補助図枠
 70
     0
 62
    97
  6
CONTINUOUS
  0
LAYER
  2
建具記号
 70
     0
 62
   110
  6
CONTINUOUS
  0
LAYER
  2
補助文字
 70
     0
 62
   113
  6
CONTINUOUS
  0
ENDTAB
  0
TABLE
  2
STYLE
 70
    10
  0
STYLE
  2
STANDARD
 70
     0
 40
1.0
 41
1.0
 42
1.0
 50
0.0
 71
     0
  3
TXT
  4
BIGFONT
  0
STYLE
  2
TATE
 70
     4
 40
1.0
 41
1.0
 42
1.0
 50
0.0
 71
     0
  3
TXT
  4
BIGFONT
  0
STYLE
  2
TextStyle03
 70
     0
 40
1.0
 41
1.0
 42
1.0
 50
0.0
 71
     0
  3
MONOTXT
  4
BIGFONT
  0
STYLE
  2
TextStyle04
 70
     0
 40
1.0
 41
1.0
 42
1.0
 50
0.0
 71
     0
  3
MONOTXT
  4
BIGFONT
  0
STYLE
  2
TextStyle05
 70
     0
 40
1.0
 41
1.0
 42
1.0
 50
0.0
 71
     0
  3
MONOTXT
  4
BIGFONT
  0
STYLE
  2
TextStyle06
 70
     0
 40
1.0
 41
1.0
 42
1.0
 50
0.0
 71
     0
  3
MONOTXT
  4
BIGFONT
  0
STYLE
  2
TextStyle07
 70
     0
 40
1.0
 41
1.0
 42
1.0
 50
0.0
 71
     0
  3
MONOTXT
  4
BIGFONT
  0
STYLE
  2
TextStyle08
 70
     0
 40
1.0
 41
1.0
 42
1.0
 50
0.0
 71
     0
  3
MONOTXT
  4
BIGFONT
  0
STYLE
  2
TextStyle09
 70
     0
 40
1.0
 41
1.0
 42
1.0
 50
0.0
 71
     0
  3
MONOTXT
  4
BIGFONT
  0
STYLE
  2
TextStyle10
 70
     0
 40
1.0
 41
1.0
 42
1.0
 50
0.0
 71
     0
  3
MONOTXT
  4
BIGFONT
  0
ENDTAB
  0
ENDSEC
  0
SECTION
  2
BLOCKS
  0
BLOCK
  2
*GRP_0001
 70
    65
 10
0.0
 20
0.0
  0
LINE
  8
型材断面
  6
CONTINUOUS
 10
195.0
 20
133.5
 11
195.0
 21
-133.5
  0
LINE
  8
型材断面
  6
CONTINUOUS
 10
195.0
 20
-133.5
 11
-185.0
 21
-133.5
  0
LINE
  8
型材断面
  6
CONTINUOUS
 10
-185.0
 20
-133.5
 11
-185.0
 21
133.5
  0
LINE
  8
型材断面
  6
CONTINUOUS
 10
195.0
 20
133.5
 11
-185.0
 21
133.5
  0
LINE
  8
型材断面
  6
CONTINUOUS
 10
145.0
 20
-133.5
 11
145.0
 21
-118.5
  0
LINE
  8
型材断面
  6
CONTINUOUS
 10
195.0
 20
-118.5
 11
145.0
 21
-118.5
  0
ENDBLK
  0
BLOCK
  2
*DIM_0002
 70
    65
 10
0.0
 20
0.0
  0
LINE
  8
寸法
  6
BYBLOCK
 62
     0
 10
57.089525
 20
-64.87628
 11
82.059175
 21
-64.87628
  0
LINE
  8
寸法
  6
BYBLOCK
 62
     0
 10
82.059175
 20
-70.209613
 11
82.059175
 21
-64.87628
  0
POINT
  8
寸法
 62
     0
 10
82.059175
 20
-70.209613
  0
POINT
  8
寸法
 62
     0
 10
82.059175
 20
-64.87628
  0
TEXT
  7
TextStyle03
  8
寸法
  6
CONTINUOUS
 62
     0
 10
81.65
 20
-69.9875
  1
160
 40
3.0
 50
90.0
 72
     5
 11
81.65
 21
-65.1125
  0
ENDBLK
  0
BLOCK
  2
*DIM_0003
 70
    65
 10
0.0
 20
0.0
  0
LINE
  8
寸法
  6
BYBLOCK
 62
     0
 10
-117.243808
 20
-16.511205
 11
-117.243808
 21
-13.121378
  0
LINE
  8
寸法
  6
BYBLOCK
 62
     0
 10
66.089525
 20
-13.121378
 11
-117.243808
 21
-13.121378
  0
POINT
  8
寸法
 62
     0
 10
66.089525
 20
-13.121378
  0
POINT
  8
寸法
 62
     0
 10
-117.243808
 20
-13.121378
  0
TEXT
  7
TextStyle03
  8
寸法
  6
CONTINUOUS
 62
     0
 10
-37.31875
 20
-12.75
  1
呼称寸法　5500
 40
3.0
 72
     5
 11
-13.88125
 21
-12.75
  0
ENDBLK
  0
BLOCK
  2
*DIM_0004
 70
    65
 10
0.0
 20
0.0
  0
LINE
  8
寸法
  6
BYBLOCK
 62
     0
 10
-100.57714
 20
19.183902
 11
-100.57714
 21
13.885527
  0
LINE
  8
寸法
  6
BYBLOCK
 62
     0
 10
-25.577142
 20
19.183905
 11
-25.577142
 21
13.885527
  0
LINE
  8
寸法
  6
BYBLOCK
 62
     0
 10
-100.57714
 20
13.885527
 11
-25.577142
 21
13.885527
  0
POINT
  8
寸法
 62
     0
 10
-100.57714
 20
13.885527
  0
POINT
  8
寸法
 62
     0
 10
-25.577142
 20
13.885527
  0
TEXT
  7
TextStyle03
  8
寸法
  6
CONTINUOUS
 62
     0
 10
-66.38125
 20
14.25
  1
2250
 40
3.0
 72
     5
 11
-59.81875
 21
14.25
  0
ENDBLK
  0
BLOCK
  2
*DIM_0005
 70
    65
 10
0.0
 20
0.0
  0
LINE
  8
寸法
  6
BYBLOCK
 62
     0
 10
49.422855
 20
19.183902
 11
49.422855
 21
13.885527
  0
LINE
  8
寸法
  6
BYBLOCK
 62
     0
 10
-25.577142
 20
13.885527
 11
49.422855
 21
13.885527
  0
POINT
  8
寸法
 62
     0
 10
49.422855
 20
13.885527
  0
TEXT
  7
TextStyle03
  8
寸法
  6
CONTINUOUS
 62
     0
 10
8.61875
 20
14.25
  1
2250
 40
3.0
 72
     5
 11
15.18125
 21
14.25
  0
ENDBLK
  0
BLOCK
  2
*DIM_0006
 70
    65
 10
0.0
 20
0.0
  0
LINE
  8
寸法
  6
BYBLOCK
 62
     0
 10
67.089525
 20
42.814035
 11
76.813808
 21
42.814035
  0
LINE
  8
寸法
  6
BYBLOCK
 62
     0
 10
69.719655
 20
39.114035
 11
76.813808
 21
39.114035
  0
LINE
  8
寸法
  6
BYBLOCK
 62
     0
 10
76.813808
 20
42.814035
 11
76.813808
 21
39.114035
  0
POINT
  8
寸法
 62
     0
 10
76.813808
 20
42.814035
  0
POINT
  8
寸法
 62
     0
 10
76.813808
 20
39.114035
  0
TEXT
  7
TextStyle03
  8
寸法
  6
CONTINUOUS
 62
     0
 10
76.5
 20
43.8125
  1
111
 40
3.0
 50
90.0
 72
     5
 11
76.5
 21
48.6875
  0
ENDBLK
  0
BLOCK
  2
*DIM_0007
 70
    65
 10
0.0
 20
0.0
  0
LINE
  8
寸法
  6
BYBLOCK
 62
     0
 10
67.089525
 20
22.81403
 11
76.813808
 21
22.814027
  0
LINE
  8
寸法
  6
BYBLOCK
 62
     0
 10
69.719655
 20
26.51403
 11
76.813808
 21
26.514027
  0
LINE
  8
寸法
  6
BYBLOCK
 62
     0
 10
76.813808
 20
22.814027
 11
76.813808
 21
26.514027
  0
POINT
  8
寸法
 62
     0
 10
76.813808
 20
22.814027
  0
POINT
  8
寸法
 62
     0
 10
76.813808
 20
26.514027
  0
TEXT
  7
TextStyle03
  8
寸法
  6
CONTINUOUS
 62
     0
 10
76.825
 20
16.5625
  1
111
 40
3.0
 50
90.0
 72
     5
 11
76.825
 21
21.4375
  0
ENDBLK
  0
BLOCK
  2
*GRP_0008
 70
    65
 10
0.0
 20
0.0
  0
LINE
  8
別途部材
  6
CONTINUOUS
 62
    96
 10
-118.910475
 20
-70.209613
 11
-119.310475
 21
-71.209613
  0
ARC
  8
別途部材
  6
CONTINUOUS
 10
-107.243809
 20
-76.917943
 40
12.041668
 50
90.0
 51
146.144967
  0
LINE
  8
別途部材
  6
CONTINUOUS
 10
-119.310475
 20
-71.209613
 11
-25.57714
 21
-71.209613
  0
LINE
  8
別途部材
  6
CONTINUOUS
 62
    96
 10
-118.910475
 20
-70.209613
 11
-25.57714
 21
-70.209613
  0
LINE
  8
別途部材
  6
CONTINUOUS
 10
-26.07714
 20
-63.87628
 11
-27.07714
 21
-64.87628
  0
LINE
  8
別途部材
  6
CONTINUOUS
 10
-28.07714
 20
-64.87628
 11
-29.07714
 21
-63.87628
  0
LINE
  8
別途部材
  6
CONTINUOUS
 10
-30.07714
 20
-63.87628
 11
-31.07714
 21
-64.87628
  0
LINE
  8
別途部材
  6
CONTINUOUS
 10
-29.07714
 20
-63.87628
 11
-30.07714
 21
-63.87628
  0
LINE
  8
別途部材
  6
CONTINUOUS
 10
-26.07714
 20
-63.87628
 11
-25.57714
 21
-63.87628
  0
LINE
  8
別途部材
  6
CONTINUOUS
 10
-32.07714
 20
-64.87628
 11
-33.07714
 21
-63.87628
  0
LINE
  8
別途部材
  6
CONTINUOUS
 10
-34.07714
 20
-63.87628
 11
-35.07714
 21
-64.87628
  0
LINE
  8
別途部材
  6
CONTINUOUS
 10
-33.07714
 20
-63.87628
 11
-34.07714
 21
-63.87628
  0
LINE
  8
別途部材
  6
CONTINUOUS
 10
-36.07714
 20
-64.87628
 11
-37.07714
 21
-63.87628
  0
LINE
  8
別途部材
  6
CONTINUOUS
 10
-38.07714
 20
-63.87628
 11
-39.07714
 21
-64.87628
  0
LINE
  8
別途部材
  6
CONTINUOUS
 10
-37.07714
 20
-63.87628
 11
-38.07714
 21
-63.87628
  0
LINE
  8
別途部材
  6
CONTINUOUS
 10
-40.07714
 20
-64.87628
 11
-41.07714
 21
-63.87628
  0
LINE
  8
別途部材
  6
CONTINUOUS
 10
-42.07714
 20
-63.87628
 11
-43.07714
 21
-64.87628
  0
LINE
  8
別途部材
  6
CONTINUOUS
 10
-41.07714
 20
-63.87628
 11
-42.07714
 21
-63.87628
  0
LINE
  8
別途部材
  6
CONTINUOUS
 10
-44.07714
 20
-64.87628
 11
-45.07714
 21
-63.87628
  0
LINE
  8
別途部材
  6
CONTINUOUS
 10
-46.07714
 20
-63.87628
 11
-47.07714
 21
-64.87628
  0
LINE
  8
別途部材
  6
CONTINUOUS
 10
-45.07714
 20
-63.87628
 11
-46.07714
 21
-63.87628
  0
LINE
  8
別途部材
  6
CONTINUOUS
 10
-48.07714
 20
-64.87628
 11
-49.07714
 21
-63.87628
  0
LINE
  8
別途部材
  6
CONTINUOUS
 10
-50.07714
 20
-63.87628
 11
-51.07714
 21
-64.87628
  0
LINE
  8
別途部材
  6
CONTINUOUS
 10
-49.07714
 20
-63.87628
 11
-50.07714
 21
-63.87628
  0
LINE
  8
別途部材
  6
CONTINUOUS
 10
-52.07714
 20
-64.87628
 11
-53.07714
 21
-63.87628
  0
LINE
  8
別途部材
  6
CONTINUOUS
 10
-54.07714
 20
-63.87628
 11
-55.07714
 21
-64.87628
  0
LINE
  8
別途部材
  6
CONTINUOUS
 10
-53.07714
 20
-63.87628
 11
-54.07714
 21
-63.87628
  0
LINE
  8
別途部材
  6
CONTINUOUS
 10
-56.07714
 20
-64.87628
 11
-57.07714
 21
-63.87628
  0
LINE
  8
別途部材
  6
CONTINUOUS
 10
-58.07714
 20
-63.87628
 11
-59.07714
 21
-64.87628
  0
LINE
  8
別途部材
  6
CONTINUOUS
 10
-57.07714
 20
-63.87628
 11
-58.07714
 21
-63.87628
  0
LINE
  8
別途部材
  6
CONTINUOUS
 10
-60.07714
 20
-64.87628
 11
-61.07714
 21
-63.87628
  0
LINE
  8
別途部材
  6
CONTINUOUS
 10
-62.07714
 20
-63.87628
 11
-63.07714
 21
-64.87628
  0
LINE
  8
別途部材
  6
CONTINUOUS
 10
-61.07714
 20
-63.87628
 11
-62.07714
 21
-63.87628
  0
LINE
  8
別途部材
  6
CONTINUOUS
 10
-64.07714
 20
-64.87628
 11
-65.07714
 21
-63.87628
  0
LINE
  8
別途部材
  6
CONTINUOUS
 10
-66.07714
 20
-63.87628
 11
-67.07714
 21
-64.87628
  0
LINE
  8
別途部材
  6
CONTINUOUS
 10
-65.07714
 20
-63.87628
 11
-66.07714
 21
-63.87628
  0
LINE
  8
別途部材
  6
CONTINUOUS
 10
-68.07714
 20
-64.87628
 11
-69.07714
 21
-63.87628
  0
LINE
  8
別途部材
  6
CONTINUOUS
 10
-70.07714
 20
-63.87628
 11
-71.07714
 21
-64.87628
  0
LINE
  8
別途部材
  6
CONTINUOUS
 10
-69.07714
 20
-63.87628
 11
-70.07714
 21
-63.87628
  0
LINE
  8
別途部材
  6
CONTINUOUS
 10
-67.07714
 20
-64.87628
 11
-68.07714
 21
-64.87628
  0
LINE
  8
別途部材
  6
CONTINUOUS
 10
-63.07714
 20
-64.87628
 11
-64.07714
 21
-64.87628
  0
LINE
  8
別途部材
  6
CONTINUOUS
 10
-59.07714
 20
-64.87628
 11
-60.07714
 21
-64.87628
  0
LINE
  8
別途部材
  6
CONTINUOUS
 10
-55.07714
 20
-64.87628
 11
-56.07714
 21
-64.87628
  0
LINE
  8
別途部材
  6
CONTINUOUS
 10
-51.07714
 20
-64.87628
 11
-52.07714
 21
-64.87628
  0
LINE
  8
別途部材
  6
CONTINUOUS
 10
-47.07714
 20
-64.87628
 11
-48.07714
 21
-64.87628
  0
LINE
  8
別途部材
  6
CONTINUOUS
 10
-43.07714
 20
-64.87628
 11
-44.07714
 21
-64.87628
  0
LINE
  8
別途部材
  6
CONTINUOUS
 10
-39.07714
 20
-64.87628
 11
-40.07714
 21
-64.87628
  0
LINE
  8
別途部材
  6
CONTINUOUS
 10
-35.07714
 20
-64.87628
 11
-36.07714
 21
-64.87628
  0
LINE
  8
別途部材
  6
CONTINUOUS
 10
-31.07714
 20
-64.87628
 11
-32.07714
 21
-64.87628
  0
LINE
  8
別途部材
  6
CONTINUOUS
 10
-28.07714
 20
-64.87628
 11
-27.07714
 21
-64.87628
  0
LINE
  8
別途部材
  6
CONTINUOUS
 10
-72.07714
 20
-64.87628
 11
-73.07714
 21
-63.87628
  0
LINE
  8
別途部材
  6
CONTINUOUS
 10
-74.07714
 20
-63.87628
 11
-75.07714
 21
-64.87628
  0
LINE
  8
別途部材
  6
CONTINUOUS
 10
-73.07714
 20
-63.87628
 11
-74.07714
 21
-63.87628
  0
LINE
  8
別途部材
  6
CONTINUOUS
 10
-76.07714
 20
-64.87628
 11
-77.07714
 21
-63.87628
  0
LINE
  8
別途部材
  6
CONTINUOUS
 10
-78.07714
 20
-63.87628
 11
-79.07714
 21
-64.87628
  0
LINE
  8
別途部材
  6
CONTINUOUS
 10
-77.07714
 20
-63.87628
 11
-78.07714
 21
-63.87628
  0
LINE
  8
別途部材
  6
CONTINUOUS
 10
-80.07714
 20
-64.87628
 11
-81.07714
 21
-63.87628
  0
LINE
  8
別途部材
  6
CONTINUOUS
 10
-82.07714
 20
-63.87628
 11
-83.07714
 21
-64.87628
  0
LINE
  8
別途部材
  6
CONTINUOUS
 10
-81.07714
 20
-63.87628
 11
-82.07714
 21
-63.87628
  0
LINE
  8
別途部材
  6
CONTINUOUS
 10
-84.07714
 20
-64.87628
 11
-85.07714
 21
-63.87628
  0
LINE
  8
別途部材
  6
CONTINUOUS
 10
-86.07714
 20
-63.87628
 11
-87.07714
 21
-64.87628
  0
LINE
  8
別途部材
  6
CONTINUOUS
 10
-85.07714
 20
-63.87628
 11
-86.07714
 21
-63.87628
  0
LINE
  8
別途部材
  6
CONTINUOUS
 10
-88.07714
 20
-64.87628
 11
-89.07714
 21
-63.87628
  0
LINE
  8
別途部材
  6
CONTINUOUS
 10
-90.07714
 20
-63.87628
 11
-91.07714
 21
-64.87628
  0
LINE
  8
別途部材
  6
CONTINUOUS
 10
-89.07714
 20
-63.87628
 11
-90.07714
 21
-63.87628
  0
LINE
  8
別途部材
  6
CONTINUOUS
 10
-92.07714
 20
-64.87628
 11
-93.07714
 21
-63.87628
  0
LINE
  8
別途部材
  6
CONTINUOUS
 10
-94.07714
 20
-63.87628
 11
-95.07714
 21
-64.87628
  0
LINE
  8
別途部材
  6
CONTINUOUS
 10
-93.07714
 20
-63.87628
 11
-94.07714
 21
-63.87628
  0
LINE
  8
別途部材
  6
CONTINUOUS
 10
-96.07714
 20
-64.87628
 11
-97.07714
 21
-63.87628
  0
LINE
  8
別途部材
  6
CONTINUOUS
 10
-98.07714
 20
-63.87628
 11
-99.07714
 21
-64.87628
  0
LINE
  8
別途部材
  6
CONTINUOUS
 10
-97.07714
 20
-63.87628
 11
-98.07714
 21
-63.87628
  0
LINE
  8
別途部材
  6
CONTINUOUS
 10
-100.07714
 20
-64.87628
 11
-101.07714
 21
-63.87628
  0
LINE
  8
別途部材
  6
CONTINUOUS
 10
-102.07714
 20
-63.87628
 11
-103.07714
 21
-64.87628
  0
LINE
  8
別途部材
  6
CONTINUOUS
 10
-101.07714
 20
-63.87628
 11
-102.07714
 21
-63.87628
  0
LINE
  8
別途部材
  6
CONTINUOUS
 10
-99.07714
 20
-64.87628
 11
-100.07714
 21
-64.87628
  0
LINE
  8
別途部材
  6
CONTINUOUS
 10
-95.07714
 20
-64.87628
 11
-96.07714
 21
-64.87628
  0
LINE
  8
別途部材
  6
CONTINUOUS
 10
-91.07714
 20
-64.87628
 11
-92.07714
 21
-64.87628
  0
LINE
  8
別途部材
  6
CONTINUOUS
 10
-87.07714
 20
-64.87628
 11
-88.07714
 21
-64.87628
  0
LINE
  8
別途部材
  6
CONTINUOUS
 10
-83.07714
 20
-64.87628
 11
-84.07714
 21
-64.87628
  0
LINE
  8
別途部材
  6
CONTINUOUS
 10
-79.07714
 20
-64.87628
 11
-80.07714
 21
-64.87628
  0
LINE
  8
別途部材
  6
CONTINUOUS
 10
-75.07714
 20
-64.87628
 11
-76.07714
 21
-64.87628
  0
LINE
  8
別途部材
  6
CONTINUOUS
 10
-71.07714
 20
-64.87628
 11
-72.07714
 21
-64.87628
  0
LINE
  8
別途部材
  6
CONTINUOUS
 10
-104.07714
 20
-64.87628
 11
-105.07714
 21
-63.87628
  0
LINE
  8
別途部材
  6
CONTINUOUS
 10
-106.07714
 20
-63.87628
 11
-107.07714
 21
-64.87628
  0
LINE
  8
別途部材
  6
CONTINUOUS
 10
-105.07714
 20
-63.87628
 11
-106.07714
 21
-63.87628
  0
LINE
  8
別途部材
  6
CONTINUOUS
 10
-103.07714
 20
-64.87628
 11
-104.07714
 21
-64.87628
  0
LINE
  8
別途部材
  6
CONTINUOUS
 10
-107.07714
 20
-64.87628
 11
-107.07714
 21
-70.209613
  0
LINE
  8
別途部材
  6
CONTINUOUS
 10
-106.07714
 20
-63.87628
 11
-106.07714
 21
-70.209613
  0
LINE
  8
別途部材
  6
CONTINUOUS
 10
-105.07714
 20
-63.87628
 11
-105.07714
 21
-70.209613
  0
LINE
  8
別途部材
  6
CONTINUOUS
 10
-103.07714
 20
-64.87628
 11
-103.07714
 21
-70.209613
  0
LINE
  8
別途部材
  6
CONTINUOUS
 10
-101.07714
 20
-63.87628
 11
-101.07714
 21
-70.209613
  0
LINE
  8
別途部材
  6
CONTINUOUS
 10
-100.07714
 20
-64.87628
 11
-100.07714
 21
-70.209613
  0
LINE
  8
別途部材
  6
CONTINUOUS
 10
-102.07714
 20
-63.87628
 11
-102.07714
 21
-70.209613
  0
LINE
  8
別途部材
  6
CONTINUOUS
 10
-104.07714
 20
-64.87628
 11
-104.07714
 21
-70.209613
  0
LINE
  8
別途部材
  6
CONTINUOUS
 10
-99.07714
 20
-64.87628
 11
-99.07714
 21
-70.209613
  0
LINE
  8
別途部材
  6
CONTINUOUS
 10
-98.07714
 20
-63.87628
 11
-98.07714
 21
-70.209613
  0
LINE
  8
別途部材
  6
CONTINUOUS
 10
-96.07714
 20
-64.87628
 11
-96.07714
 21
-70.209613
  0
LINE
  8
別途部材
  6
CONTINUOUS
 10
-97.07714
 20
-63.87628
 11
-97.07714
 21
-70.209613
  0
LINE
  8
別途部材
  6
CONTINUOUS
 10
-94.07714
 20
-63.87628
 11
-94.07714
 21
-70.209613
  0
LINE
  8
別途部材
  6
CONTINUOUS
 10
-95.07714
 20
-64.87628
 11
-95.07714
 21
-70.209613
  0
LINE
  8
別途部材
  6
CONTINUOUS
 10
-93.07714
 20
-63.87628
 11
-93.07714
 21
-70.209613
  0
LINE
  8
別途部材
  6
CONTINUOUS
 10
-92.07714
 20
-64.87628
 11
-92.07714
 21
-70.209613
  0
LINE
  8
別途部材
  6
CONTINUOUS
 10
-90.07714
 20
-63.87628
 11
-90.07714
 21
-70.209613
  0
LINE
  8
別途部材
  6
CONTINUOUS
 10
-91.07714
 20
-64.87628
 11
-91.07714
 21
-70.209613
  0
LINE
  8
別途部材
  6
CONTINUOUS
 10
-88.07714
 20
-64.87628
 11
-88.07714
 21
-70.209613
  0
LINE
  8
別途部材
  6
CONTINUOUS
 10
-89.07714
 20
-63.87628
 11
-89.07714
 21
-70.209613
  0
LINE
  8
別途部材
  6
CONTINUOUS
 10
-87.07714
 20
-64.87628
 11
-87.07714
 21
-70.209613
  0
LINE
  8
別途部材
  6
CONTINUOUS
 10
-85.07714
 20
-63.87628
 11
-85.07714
 21
-70.209613
  0
LINE
  8
別途部材
  6
CONTINUOUS
 10
-86.07714
 20
-63.87628
 11
-86.07714
 21
-70.209613
  0
LINE
  8
別途部材
  6
CONTINUOUS
 10
-84.07714
 20
-64.87628
 11
-84.07714
 21
-70.209613
  0
LINE
  8
別途部材
  6
CONTINUOUS
 10
-83.07714
 20
-64.87628
 11
-83.07714
 21
-70.209613
  0
LINE
  8
別途部材
  6
CONTINUOUS
 10
-82.07714
 20
-63.87628
 11
-82.07714
 21
-70.209613
  0
LINE
  8
別途部材
  6
CONTINUOUS
 10
-81.07714
 20
-63.87628
 11
-81.07714
 21
-70.209613
  0
LINE
  8
別途部材
  6
CONTINUOUS
 10
-78.07714
 20
-63.87628
 11
-78.07714
 21
-70.209613
  0
LINE
  8
別途部材
  6
CONTINUOUS
 10
-76.07714
 20
-64.87628
 11
-76.07714
 21
-70.209613
  0
LINE
  8
別途部材
  6
CONTINUOUS
 10
-77.07714
 20
-63.87628
 11
-77.07714
 21
-70.209613
  0
LINE
  8
別途部材
  6
CONTINUOUS
 10
-79.07714
 20
-64.87628
 11
-79.07714
 21
-70.209613
  0
LINE
  8
別途部材
  6
CONTINUOUS
 10
-80.07714
 20
-64.87628
 11
-80.07714
 21
-70.209613
  0
LINE
  8
別途部材
  6
CONTINUOUS
 10
-75.07714
 20
-64.87628
 11
-75.07714
 21
-70.209613
  0
LINE
  8
別途部材
  6
CONTINUOUS
 10
-73.07714
 20
-63.87628
 11
-73.07714
 21
-70.209613
  0
LINE
  8
別途部材
  6
CONTINUOUS
 10
-74.07714
 20
-63.87628
 11
-74.07714
 21
-70.209613
  0
LINE
  8
別途部材
  6
CONTINUOUS
 10
-72.07714
 20
-64.87628
 11
-72.07714
 21
-70.209613
  0
LINE
  8
別途部材
  6
CONTINUOUS
 10
-70.07714
 20
-63.87628
 11
-70.07714
 21
-70.209613
  0
LINE
  8
別途部材
  6
CONTINUOUS
 10
-71.07714
 20
-64.87628
 11
-71.07714
 21
-70.209613
  0
LINE
  8
別途部材
  6
CONTINUOUS
 10
-69.07714
 20
-63.87628
 11
-69.07714
 21
-70.209613
  0
LINE
  8
別途部材
  6
CONTINUOUS
 10
-68.07714
 20
-64.87628
 11
-68.07714
 21
-70.209613
  0
LINE
  8
別途部材
  6
CONTINUOUS
 10
-66.07714
 20
-63.87628
 11
-66.07714
 21
-70.209613
  0
LINE
  8
別途部材
  6
CONTINUOUS
 10
-67.07714
 20
-64.87628
 11
-67.07714
 21
-70.209613
  0
LINE
  8
別途部材
  6
CONTINUOUS
 10
-63.07714
 20
-64.87628
 11
-63.07714
 21
-70.209613
  0
LINE
  8
別途部材
  6
CONTINUOUS
 10
-64.07714
 20
-64.87628
 11
-64.07714
 21
-70.209613
  0
LINE
  8
別途部材
  6
CONTINUOUS
 10
-65.07714
 20
-63.87628
 11
-65.07714
 21
-70.209613
  0
LINE
  8
別途部材
  6
CONTINUOUS
 10
-62.07714
 20
-63.87628
 11
-62.07714
 21
-70.209613
  0
LINE
  8
別途部材
  6
CONTINUOUS
 10
-61.07714
 20
-63.87628
 11
-61.07714
 21
-70.209613
  0
LINE
  8
別途部材
  6
CONTINUOUS
 10
-60.07714
 20
-64.87628
 11
-60.07714
 21
-70.209613
  0
LINE
  8
別途部材
  6
CONTINUOUS
 10
-58.07714
 20
-63.87628
 11
-58.07714
 21
-70.209613
  0
LINE
  8
別途部材
  6
CONTINUOUS
 10
-54.07714
 20
-63.87628
 11
-54.07714
 21
-70.209613
  0
LINE
  8
別途部材
  6
CONTINUOUS
 10
-55.07714
 20
-64.87628
 11
-55.07714
 21
-70.209613
  0
LINE
  8
別途部材
  6
CONTINUOUS
 10
-56.07714
 20
-64.87628
 11
-56.07714
 21
-70.209613
  0
LINE
  8
別途部材
  6
CONTINUOUS
 10
-57.07714
 20
-63.87628
 11
-57.07714
 21
-70.209613
  0
LINE
  8
別途部材
  6
CONTINUOUS
 10
-59.07714
 20
-64.87628
 11
-59.07714
 21
-70.209613
  0
LINE
  8
別途部材
  6
CONTINUOUS
 10
-52.07714
 20
-64.87628
 11
-52.07714
 21
-70.209613
  0
LINE
  8
別途部材
  6
CONTINUOUS
 10
-53.07714
 20
-63.87628
 11
-53.07714
 21
-70.209613
  0
LINE
  8
別途部材
  6
CONTINUOUS
 10
-51.07714
 20
-64.87628
 11
-51.07714
 21
-70.209613
  0
LINE
  8
別途部材
  6
CONTINUOUS
 10
-50.07714
 20
-63.87628
 11
-50.07714
 21
-70.209613
  0
LINE
  8
別途部材
  6
CONTINUOUS
 10
-46.07714
 20
-63.87628
 11
-46.07714
 21
-70.209613
  0
LINE
  8
別途部材
  6
CONTINUOUS
 10
-45.07714
 20
-63.87628
 11
-45.07714
 21
-70.209613
  0
LINE
  8
別途部材
  6
CONTINUOUS
 10
-47.07714
 20
-64.87628
 11
-47.07714
 21
-70.209613
  0
LINE
  8
別途部材
  6
CONTINUOUS
 10
-48.07714
 20
-64.87628
 11
-48.07714
 21
-70.209613
  0
LINE
  8
別途部材
  6
CONTINUOUS
 10
-49.07714
 20
-63.87628
 11
-49.07714
 21
-70.209613
  0
LINE
  8
別途部材
  6
CONTINUOUS
 10
-44.07714
 20
-64.87628
 11
-44.07714
 21
-70.209613
  0
LINE
  8
別途部材
  6
CONTINUOUS
 10
-42.07714
 20
-63.87628
 11
-42.07714
 21
-70.209613
  0
LINE
  8
別途部材
  6
CONTINUOUS
 10
-41.07714
 20
-63.87628
 11
-41.07714
 21
-70.209613
  0
LINE
  8
別途部材
  6
CONTINUOUS
 10
-40.07714
 20
-64.87628
 11
-40.07714
 21
-70.209613
  0
LINE
  8
別途部材
  6
CONTINUOUS
 10
-39.07714
 20
-64.87628
 11
-39.07714
 21
-70.209613
  0
LINE
  8
別途部材
  6
CONTINUOUS
 10
-38.07714
 20
-63.87628
 11
-38.07714
 21
-70.209613
  0
LINE
  8
別途部材
  6
CONTINUOUS
 10
-43.07714
 20
-64.87628
 11
-43.07714
 21
-70.209613
  0
LINE
  8
別途部材
  6
CONTINUOUS
 10
-37.07714
 20
-63.87628
 11
-37.07714
 21
-70.209613
  0
LINE
  8
別途部材
  6
CONTINUOUS
 10
-36.07714
 20
-64.87628
 11
-36.07714
 21
-70.209613
  0
LINE
  8
別途部材
  6
CONTINUOUS
 10
-35.07714
 20
-64.87628
 11
-35.07714
 21
-70.209613
  0
LINE
  8
別途部材
  6
CONTINUOUS
 10
-33.07714
 20
-63.87628
 11
-33.07714
 21
-70.209613
  0
LINE
  8
別途部材
  6
CONTINUOUS
 10
-31.07714
 20
-64.87628
 11
-31.07714
 21
-70.209613
  0
LINE
  8
別途部材
  6
CONTINUOUS
 10
-30.07714
 20
-63.87628
 11
-30.07714
 21
-70.209613
  0
LINE
  8
別途部材
  6
CONTINUOUS
 10
-28.07714
 20
-64.87628
 11
-28.07714
 21
-70.209613
  0
LINE
  8
別途部材
  6
CONTINUOUS
 10
-27.07714
 20
-64.87628
 11
-27.07714
 21
-70.209613
  0
LINE
  8
別途部材
  6
CONTINUOUS
 10
-26.07714
 20
-63.87628
 11
-26.07714
 21
-70.209613
  0
LINE
  8
別途部材
  6
CONTINUOUS
 10
-29.07714
 20
-63.87628
 11
-29.07714
 21
-70.209613
  0
LINE
  8
別途部材
  6
CONTINUOUS
 10
-32.07714
 20
-64.87628
 11
-32.07714
 21
-70.209613
  0
LINE
  8
別途部材
  6
CONTINUOUS
 10
-34.07714
 20
-63.87628
 11
-34.07714
 21
-70.209613
  0
LINE
  8
別途部材
  6
CONTINUOUS
 62
    96
 10
67.756192
 20
-70.209613
 11
68.156193
 21
-71.209613
  0
ARC
  8
別途部材
  6
CONTINUOUS
 10
56.089528
 20
-76.917943
 40
12.041668
 50
33.855033
 51
90.0
  0
LINE
  8
別途部材
  6
CONTINUOUS
 10
68.156193
 20
-71.209613
 11
-25.57714
 21
-71.209613
  0
LINE
  8
別途部材
  6
CONTINUOUS
 62
    96
 10
67.756192
 20
-70.209613
 11
-25.57714
 21
-70.209613
  0
LINE
  8
別途部材
  6
CONTINUOUS
 10
-25.07714
 20
-63.87628
 11
-24.07714
 21
-64.87628
  0
LINE
  8
別途部材
  6
CONTINUOUS
 10
-23.07714
 20
-64.87628
 11
-22.07714
 21
-63.87628
  0
LINE
  8
別途部材
  6
CONTINUOUS
 10
-21.07714
 20
-63.87628
 11
-20.07714
 21
-64.87628
  0
LINE
  8
別途部材
  6
CONTINUOUS
 10
-22.07714
 20
-63.87628
 11
-21.07714
 21
-63.87628
  0
LINE
  8
別途部材
  6
CONTINUOUS
 10
-25.07714
 20
-63.87628
 11
-25.57714
 21
-63.87628
  0
LINE
  8
別途部材
  6
CONTINUOUS
 10
-19.07714
 20
-64.87628
 11
-18.07714
 21
-63.87628
  0
LINE
  8
別途部材
  6
CONTINUOUS
 10
-17.07714
 20
-63.87628
 11
-16.07714
 21
-64.87628
  0
LINE
  8
別途部材
  6
CONTINUOUS
 10
-18.07714
 20
-63.87628
 11
-17.07714
 21
-63.87628
  0
LINE
  8
別途部材
  6
CONTINUOUS
 10
-15.07714
 20
-64.87628
 11
-14.07714
 21
-63.87628
  0
LINE
  8
別途部材
  6
CONTINUOUS
 10
-13.07714
 20
-63.87628
 11
-12.07714
 21
-64.87628
  0
LINE
  8
別途部材
  6
CONTINUOUS
 10
-14.07714
 20
-63.87628
 11
-13.07714
 21
-63.87628
  0
LINE
  8
別途部材
  6
CONTINUOUS
 10
-11.07714
 20
-64.87628
 11
-10.07714
 21
-63.87628
  0
LINE
  8
別途部材
  6
CONTINUOUS
 10
-9.07714
 20
-63.87628
 11
-8.07714
 21
-64.87628
  0
LINE
  8
別途部材
  6
CONTINUOUS
 10
-10.07714
 20
-63.87628
 11
-9.07714
 21
-63.87628
  0
LINE
  8
別途部材
  6
CONTINUOUS
 10
-7.07714
 20
-64.87628
 11
-6.07714
 21
-63.87628
  0
LINE
  8
別途部材
  6
CONTINUOUS
 10
-5.07714
 20
-63.87628
 11
-4.07714
 21
-64.87628
  0
LINE
  8
別途部材
  6
CONTINUOUS
 10
-6.07714
 20
-63.87628
 11
-5.07714
 21
-63.87628
  0
LINE
  8
別途部材
  6
CONTINUOUS
 10
-3.07714
 20
-64.87628
 11
-2.07714
 21
-63.87628
  0
LINE
  8
別途部材
  6
CONTINUOUS
 10
-1.07714
 20
-63.87628
 11
-0.07714
 21
-64.87628
  0
LINE
  8
別途部材
  6
CONTINUOUS
 10
-2.07714
 20
-63.87628
 11
-1.07714
 21
-63.87628
  0
LINE
  8
別途部材
  6
CONTINUOUS
 10
0.92286
 20
-64.87628
 11
1.92286
 21
-63.87628
  0
LINE
  8
別途部材
  6
CONTINUOUS
 10
2.92286
 20
-63.87628
 11
3.92286
 21
-64.87628
  0
LINE
  8
別途部材
  6
CONTINUOUS
 10
1.92286
 20
-63.87628
 11
2.92286
 21
-63.87628
  0
LINE
  8
別途部材
  6
CONTINUOUS
 10
4.92286
 20
-64.87628
 11
5.92286
 21
-63.87628
  0
LINE
  8
別途部材
  6
CONTINUOUS
 10
6.92286
 20
-63.87628
 11
7.92286
 21
-64.87628
  0
LINE
  8
別途部材
  6
CONTINUOUS
 10
5.92286
 20
-63.87628
 11
6.92286
 21
-63.87628
  0
LINE
  8
別途部材
  6
CONTINUOUS
 10
8.92286
 20
-64.87628
 11
9.92286
 21
-63.87628
  0
LINE
  8
別途部材
  6
CONTINUOUS
 10
10.92286
 20
-63.87628
 11
11.92286
 21
-64.87628
  0
LINE
  8
別途部材
  6
CONTINUOUS
 10
9.92286
 20
-63.87628
 11
10.92286
 21
-63.87628
  0
LINE
  8
別途部材
  6
CONTINUOUS
 10
12.92286
 20
-64.87628
 11
13.92286
 21
-63.87628
  0
LINE
  8
別途部材
  6
CONTINUOUS
 10
14.92286
 20
-63.87628
 11
15.92286
 21
-64.87628
  0
LINE
  8
別途部材
  6
CONTINUOUS
 10
13.92286
 20
-63.87628
 11
14.92286
 21
-63.87628
  0
LINE
  8
別途部材
  6
CONTINUOUS
 10
16.92286
 20
-64.87628
 11
17.92286
 21
-63.87628
  0
LINE
  8
別途部材
  6
CONTINUOUS
 10
18.92286
 20
-63.87628
 11
19.92286
 21
-64.87628
  0
LINE
  8
別途部材
  6
CONTINUOUS
 10
17.92286
 20
-63.87628
 11
18.92286
 21
-63.87628
  0
LINE
  8
別途部材
  6
CONTINUOUS
 10
15.92286
 20
-64.87628
 11
16.92286
 21
-64.87628
  0
LINE
  8
別途部材
  6
CONTINUOUS
 10
11.92286
 20
-64.87628
 11
12.92286
 21
-64.87628
  0
LINE
  8
別途部材
  6
CONTINUOUS
 10
7.92286
 20
-64.87628
 11
8.92286
 21
-64.87628
  0
LINE
  8
別途部材
  6
CONTINUOUS
 10
3.92286
 20
-64.87628
 11
4.92286
 21
-64.87628
  0
LINE
  8
別途部材
  6
CONTINUOUS
 10
-0.07714
 20
-64.87628
 11
0.92286
 21
-64.87628
  0
LINE
  8
別途部材
  6
CONTINUOUS
 10
-4.07714
 20
-64.87628
 11
-3.07714
 21
-64.87628
  0
LINE
  8
別途部材
  6
CONTINUOUS
 10
-8.07714
 20
-64.87628
 11
-7.07714
 21
-64.87628
  0
LINE
  8
別途部材
  6
CONTINUOUS
 10
-12.07714
 20
-64.87628
 11
-11.07714
 21
-64.87628
  0
LINE
  8
別途部材
  6
CONTINUOUS
 10
-16.07714
 20
-64.87628
 11
-15.07714
 21
-64.87628
  0
LINE
  8
別途部材
  6
CONTINUOUS
 10
-20.07714
 20
-64.87628
 11
-19.07714
 21
-64.87628
  0
LINE
  8
別途部材
  6
CONTINUOUS
 10
-23.07714
 20
-64.87628
 11
-24.07714
 21
-64.87628
  0
LINE
  8
別途部材
  6
CONTINUOUS
 10
20.92286
 20
-64.87628
 11
21.92286
 21
-63.87628
  0
LINE
  8
別途部材
  6
CONTINUOUS
 10
22.92286
 20
-63.87628
 11
23.92286
 21
-64.87628
  0
LINE
  8
別途部材
  6
CONTINUOUS
 10
21.92286
 20
-63.87628
 11
22.92286
 21
-63.87628
  0
LINE
  8
別途部材
  6
CONTINUOUS
 10
24.92286
 20
-64.87628
 11
25.92286
 21
-63.87628
  0
LINE
  8
別途部材
  6
CONTINUOUS
 10
26.92286
 20
-63.87628
 11
27.92286
 21
-64.87628
  0
LINE
  8
別途部材
  6
CONTINUOUS
 10
25.92286
 20
-63.87628
 11
26.92286
 21
-63.87628
  0
LINE
  8
別途部材
  6
CONTINUOUS
 10
28.92286
 20
-64.87628
 11
29.92286
 21
-63.87628
  0
LINE
  8
別途部材
  6
CONTINUOUS
 10
30.92286
 20
-63.87628
 11
31.92286
 21
-64.87628
  0
LINE
  8
別途部材
  6
CONTINUOUS
 10
29.92286
 20
-63.87628
 11
30.92286
 21
-63.87628
  0
LINE
  8
別途部材
  6
CONTINUOUS
 10
32.92286
 20
-64.87628
 11
33.92286
 21
-63.87628
  0
LINE
  8
別途部材
  6
CONTINUOUS
 10
34.92286
 20
-63.87628
 11
35.92286
 21
-64.87628
  0
LINE
  8
別途部材
  6
CONTINUOUS
 10
33.92286
 20
-63.87628
 11
34.92286
 21
-63.87628
  0
LINE
  8
別途部材
  6
CONTINUOUS
 10
36.92286
 20
-64.87628
 11
37.92286
 21
-63.87628
  0
LINE
  8
別途部材
  6
CONTINUOUS
 10
38.92286
 20
-63.87628
 11
39.92286
 21
-64.87628
  0
LINE
  8
別途部材
  6
CONTINUOUS
 10
37.92286
 20
-63.87628
 11
38.92286
 21
-63.87628
  0
LINE
  8
別途部材
  6
CONTINUOUS
 10
40.92286
 20
-64.87628
 11
41.92286
 21
-63.87628
  0
LINE
  8
別途部材
  6
CONTINUOUS
 10
42.92286
 20
-63.87628
 11
43.92286
 21
-64.87628
  0
LINE
  8
別途部材
  6
CONTINUOUS
 10
41.92286
 20
-63.87628
 11
42.92286
 21
-63.87628
  0
LINE
  8
別途部材
  6
CONTINUOUS
 10
44.92286
 20
-64.87628
 11
45.92286
 21
-63.87628
  0
LINE
  8
別途部材
  6
CONTINUOUS
 10
46.92286
 20
-63.87628
 11
47.92286
 21
-64.87628
  0
LINE
  8
別途部材
  6
CONTINUOUS
 10
45.92286
 20
-63.87628
 11
46.92286
 21
-63.87628
  0
LINE
  8
別途部材
  6
CONTINUOUS
 10
48.92286
 20
-64.87628
 11
49.92286
 21
-63.87628
  0
LINE
  8
別途部材
  6
CONTINUOUS
 10
50.92286
 20
-63.87628
 11
51.92286
 21
-64.87628
  0
LINE
  8
別途部材
  6
CONTINUOUS
 10
49.92286
 20
-63.87628
 11
50.92286
 21
-63.87628
  0
LINE
  8
別途部材
  6
CONTINUOUS
 10
47.92286
 20
-64.87628
 11
48.92286
 21
-64.87628
  0
LINE
  8
別途部材
  6
CONTINUOUS
 10
43.92286
 20
-64.87628
 11
44.92286
 21
-64.87628
  0
LINE
  8
別途部材
  6
CONTINUOUS
 10
39.92286
 20
-64.87628
 11
40.92286
 21
-64.87628
  0
LINE
  8
別途部材
  6
CONTINUOUS
 10
35.92286
 20
-64.87628
 11
36.92286
 21
-64.87628
  0
LINE
  8
別途部材
  6
CONTINUOUS
 10
31.92286
 20
-64.87628
 11
32.92286
 21
-64.87628
  0
LINE
  8
別途部材
  6
CONTINUOUS
 10
27.92286
 20
-64.87628
 11
28.92286
 21
-64.87628
  0
LINE
  8
別途部材
  6
CONTINUOUS
 10
23.92286
 20
-64.87628
 11
24.92286
 21
-64.87628
  0
LINE
  8
別途部材
  6
CONTINUOUS
 10
19.92286
 20
-64.87628
 11
20.92286
 21
-64.87628
  0
LINE
  8
別途部材
  6
CONTINUOUS
 10
52.92286
 20
-64.87628
 11
53.92286
 21
-63.87628
  0
LINE
  8
別途部材
  6
CONTINUOUS
 10
54.92286
 20
-63.87628
 11
55.92286
 21
-64.87628
  0
LINE
  8
別途部材
  6
CONTINUOUS
 10
53.92286
 20
-63.87628
 11
54.92286
 21
-63.87628
  0
LINE
  8
別途部材
  6
CONTINUOUS
 10
51.92286
 20
-64.87628
 11
52.92286
 21
-64.87628
  0
LINE
  8
別途部材
  6
CONTINUOUS
 10
55.92286
 20
-64.87628
 11
55.92286
 21
-70.209613
  0
LINE
  8
別途部材
  6
CONTINUOUS
 10
54.92286
 20
-63.87628
 11
54.92286
 21
-70.209613
  0
LINE
  8
別途部材
  6
CONTINUOUS
 10
53.92286
 20
-63.87628
 11
53.92286
 21
-70.209613
  0
LINE
  8
別途部材
  6
CONTINUOUS
 10
51.92286
 20
-64.87628
 11
51.92286
 21
-70.209613
  0
LINE
  8
別途部材
  6
CONTINUOUS
 10
49.92286
 20
-63.87628
 11
49.92286
 21
-70.209613
  0
LINE
  8
別途部材
  6
CONTINUOUS
 10
48.92286
 20
-64.87628
 11
48.92286
 21
-70.209613
  0
LINE
  8
別途部材
  6
CONTINUOUS
 10
50.92286
 20
-63.87628
 11
50.92286
 21
-70.209613
  0
LINE
  8
別途部材
  6
CONTINUOUS
 10
52.92286
 20
-64.87628
 11
52.92286
 21
-70.209613
  0
LINE
  8
別途部材
  6
CONTINUOUS
 10
47.92286
 20
-64.87628
 11
47.92286
 21
-70.209613
  0
LINE
  8
別途部材
  6
CONTINUOUS
 10
46.92286
 20
-63.87628
 11
46.92286
 21
-70.209613
  0
LINE
  8
別途部材
  6
CONTINUOUS
 10
44.92286
 20
-64.87628
 11
44.92286
 21
-70.209613
  0
LINE
  8
別途部材
  6
CONTINUOUS
 10
45.92286
 20
-63.87628
 11
45.92286
 21
-70.209613
  0
LINE
  8
別途部材
  6
CONTINUOUS
 10
42.92286
 20
-63.87628
 11
42.92286
 21
-70.209613
  0
LINE
  8
別途部材
  6
CONTINUOUS
 10
43.92286
 20
-64.87628
 11
43.92286
 21
-70.209613
  0
LINE
  8
別途部材
  6
CONTINUOUS
 10
41.92286
 20
-63.87628
 11
41.92286
 21
-70.209613
  0
LINE
  8
別途部材
  6
CONTINUOUS
 10
40.92286
 20
-64.87628
 11
40.92286
 21
-70.209613
  0
LINE
  8
別途部材
  6
CONTINUOUS
 10
38.92286
 20
-63.87628
 11
38.92286
 21
-70.209613
  0
LINE
  8
別途部材
  6
CONTINUOUS
 10
39.92286
 20
-64.87628
 11
39.92286
 21
-70.209613
  0
LINE
  8
別途部材
  6
CONTINUOUS
 10
36.92286
 20
-64.87628
 11
36.92286
 21
-70.209613
  0
LINE
  8
別途部材
  6
CONTINUOUS
 10
37.92286
 20
-63.87628
 11
37.92286
 21
-70.209613
  0
LINE
  8
別途部材
  6
CONTINUOUS
 10
35.92286
 20
-64.87628
 11
35.92286
 21
-70.209613
  0
LINE
  8
別途部材
  6
CONTINUOUS
 10
33.92286
 20
-63.87628
 11
33.92286
 21
-70.209613
  0
LINE
  8
別途部材
  6
CONTINUOUS
 10
34.92286
 20
-63.87628
 11
34.92286
 21
-70.209613
  0
LINE
  8
別途部材
  6
CONTINUOUS
 10
32.92286
 20
-64.87628
 11
32.92286
 21
-70.209613
  0
LINE
  8
別途部材
  6
CONTINUOUS
 10
31.92286
 20
-64.87628
 11
31.92286
 21
-70.209613
  0
LINE
  8
別途部材
  6
CONTINUOUS
 10
30.92286
 20
-63.87628
 11
30.92286
 21
-70.209613
  0
LINE
  8
別途部材
  6
CONTINUOUS
 10
29.92286
 20
-63.87628
 11
29.92286
 21
-70.209613
  0
LINE
  8
別途部材
  6
CONTINUOUS
 10
26.92286
 20
-63.87628
 11
26.92286
 21
-70.209613
  0
LINE
  8
別途部材
  6
CONTINUOUS
 10
24.92286
 20
-64.87628
 11
24.92286
 21
-70.209613
  0
LINE
  8
別途部材
  6
CONTINUOUS
 10
25.92286
 20
-63.87628
 11
25.92286
 21
-70.209613
  0
LINE
  8
別途部材
  6
CONTINUOUS
 10
27.92286
 20
-64.87628
 11
27.92286
 21
-70.209613
  0
LINE
  8
別途部材
  6
CONTINUOUS
 10
28.92286
 20
-64.87628
 11
28.92286
 21
-70.209613
  0
LINE
  8
別途部材
  6
CONTINUOUS
 10
23.92286
 20
-64.87628
 11
23.92286
 21
-70.209613
  0
LINE
  8
別途部材
  6
CONTINUOUS
 10
21.92286
 20
-63.87628
 11
21.92286
 21
-70.209613
  0
LINE
  8
別途部材
  6
CONTINUOUS
 10
22.92286
 20
-63.87628
 11
22.92286
 21
-70.209613
  0
LINE
  8
別途部材
  6
CONTINUOUS
 10
20.92286
 20
-64.87628
 11
20.92286
 21
-70.209613
  0
LINE
  8
別途部材
  6
CONTINUOUS
 10
18.92286
 20
-63.87628
 11
18.92286
 21
-70.209613
  0
LINE
  8
別途部材
  6
CONTINUOUS
 10
19.92286
 20
-64.87628
 11
19.92286
 21
-70.209613
  0
LINE
  8
別途部材
  6
CONTINUOUS
 10
17.92286
 20
-63.87628
 11
17.92286
 21
-70.209613
  0
LINE
  8
別途部材
  6
CONTINUOUS
 10
16.92286
 20
-64.87628
 11
16.92286
 21
-70.209613
  0
LINE
  8
別途部材
  6
CONTINUOUS
 10
14.92286
 20
-63.87628
 11
14.92286
 21
-70.209613
  0
LINE
  8
別途部材
  6
CONTINUOUS
 10
15.92286
 20
-64.87628
 11
15.92286
 21
-70.209613
  0
LINE
  8
別途部材
  6
CONTINUOUS
 10
11.92286
 20
-64.87628
 11
11.92286
 21
-70.209613
  0
LINE
  8
別途部材
  6
CONTINUOUS
 10
12.92286
 20
-64.87628
 11
12.92286
 21
-70.209613
  0
LINE
  8
別途部材
  6
CONTINUOUS
 10
13.92286
 20
-63.87628
 11
13.92286
 21
-70.209613
  0
LINE
  8
別途部材
  6
CONTINUOUS
 10
10.92286
 20
-63.87628
 11
10.92286
 21
-70.209613
  0
LINE
  8
別途部材
  6
CONTINUOUS
 10
9.92286
 20
-63.87628
 11
9.92286
 21
-70.209613
  0
LINE
  8
別途部材
  6
CONTINUOUS
 10
8.92286
 20
-64.87628
 11
8.92286
 21
-70.209613
  0
LINE
  8
別途部材
  6
CONTINUOUS
 10
6.92286
 20
-63.87628
 11
6.92286
 21
-70.209613
  0
LINE
  8
別途部材
  6
CONTINUOUS
 10
2.92286
 20
-63.87628
 11
2.92286
 21
-70.209613
  0
LINE
  8
別途部材
  6
CONTINUOUS
 10
3.92286
 20
-64.87628
 11
3.92286
 21
-70.209613
  0
LINE
  8
別途部材
  6
CONTINUOUS
 10
4.92286
 20
-64.87628
 11
4.92286
 21
-70.209613
  0
LINE
  8
別途部材
  6
CONTINUOUS
 10
5.92286
 20
-63.87628
 11
5.92286
 21
-70.209613
  0
LINE
  8
別途部材
  6
CONTINUOUS
 10
7.92286
 20
-64.87628
 11
7.92286
 21
-70.209613
  0
LINE
  8
別途部材
  6
CONTINUOUS
 10
0.92286
 20
-64.87628
 11
0.92286
 21
-70.209613
  0
LINE
  8
別途部材
  6
CONTINUOUS
 10
1.92286
 20
-63.87628
 11
1.92286
 21
-70.209613
  0
LINE
  8
別途部材
  6
CONTINUOUS
 10
-0.07714
 20
-64.87628
 11
-0.07714
 21
-70.209613
  0
LINE
  8
別途部材
  6
CONTINUOUS
 10
-1.07714
 20
-63.87628
 11
-1.07714
 21
-70.209613
  0
LINE
  8
別途部材
  6
CONTINUOUS
 10
-5.07714
 20
-63.87628
 11
-5.07714
 21
-70.209613
  0
LINE
  8
別途部材
  6
CONTINUOUS
 10
-6.07714
 20
-63.87628
 11
-6.07714
 21
-70.209613
  0
LINE
  8
別途部材
  6
CONTINUOUS
 10
-4.07714
 20
-64.87628
 11
-4.07714
 21
-70.209613
  0
LINE
  8
別途部材
  6
CONTINUOUS
 10
-3.07714
 20
-64.87628
 11
-3.07714
 21
-70.209613
  0
LINE
  8
別途部材
  6
CONTINUOUS
 10
-2.07714
 20
-63.87628
 11
-2.07714
 21
-70.209613
  0
LINE
  8
別途部材
  6
CONTINUOUS
 10
-7.07714
 20
-64.87628
 11
-7.07714
 21
-70.209613
  0
LINE
  8
別途部材
  6
CONTINUOUS
 10
-9.07714
 20
-63.87628
 11
-9.07714
 21
-70.209613
  0
LINE
  8
別途部材
  6
CONTINUOUS
 10
-10.07714
 20
-63.87628
 11
-10.07714
 21
-70.209613
  0
LINE
  8
別途部材
  6
CONTINUOUS
 10
-11.07714
 20
-64.87628
 11
-11.07714
 21
-70.209613
  0
LINE
  8
別途部材
  6
CONTINUOUS
 10
-12.07714
 20
-64.87628
 11
-12.07714
 21
-70.209613
  0
LINE
  8
別途部材
  6
CONTINUOUS
 10
-13.07714
 20
-63.87628
 11
-13.07714
 21
-70.209613
  0
LINE
  8
別途部材
  6
CONTINUOUS
 10
-8.07714
 20
-64.87628
 11
-8.07714
 21
-70.209613
  0
LINE
  8
別途部材
  6
CONTINUOUS
 10
-14.07714
 20
-63.87628
 11
-14.07714
 21
-70.209613
  0
LINE
  8
別途部材
  6
CONTINUOUS
 10
-15.07714
 20
-64.87628
 11
-15.07714
 21
-70.209613
  0
LINE
  8
別途部材
  6
CONTINUOUS
 10
-16.07714
 20
-64.87628
 11
-16.07714
 21
-70.209613
  0
LINE
  8
別途部材
  6
CONTINUOUS
 10
-18.07714
 20
-63.87628
 11
-18.07714
 21
-70.209613
  0
LINE
  8
別途部材
  6
CONTINUOUS
 10
-20.07714
 20
-64.87628
 11
-20.07714
 21
-70.209613
  0
LINE
  8
別途部材
  6
CONTINUOUS
 10
-21.07714
 20
-63.87628
 11
-21.07714
 21
-70.209613
  0
LINE
  8
別途部材
  6
CONTINUOUS
 10
-23.07714
 20
-64.87628
 11
-23.07714
 21
-70.209613
  0
LINE
  8
別途部材
  6
CONTINUOUS
 10
-24.07714
 20
-64.87628
 11
-24.07714
 21
-70.209613
  0
LINE
  8
別途部材
  6
CONTINUOUS
 10
-25.07714
 20
-63.87628
 11
-25.07714
 21
-70.209613
  0
LINE
  8
別途部材
  6
CONTINUOUS
 10
-22.07714
 20
-63.87628
 11
-22.07714
 21
-70.209613
  0
LINE
  8
別途部材
  6
CONTINUOUS
 10
-19.07714
 20
-64.87628
 11
-19.07714
 21
-70.209613
  0
LINE
  8
別途部材
  6
CONTINUOUS
 10
-17.07714
 20
-63.87628
 11
-17.07714
 21
-70.209613
  0
ENDBLK
  0
BLOCK
  2
*GRP_0009
 70
    65
 10
0.0
 20
0.0
  0
LINE
  8
補助線
  6
BYBLOCK
 62
    64
 10
-97.16935
 20
-75.132358
 11
-97.318275
 21
-75.207183
  0
LINE
  8
補助線
  6
BYBLOCK
 62
    64
 10
-97.281225
 20
-75.095305
 11
-97.2064
 21
-75.244232
  0
LINE
  8
補助線
  6
BYBLOCK
 62
    64
 10
-87.25087
 20
-70.149
 11
-87.399798
 21
-70.223825
  0
LINE
  8
補助線
  6
BYBLOCK
 62
    64
 10
-87.362748
 20
-70.111948
 11
-87.287922
 21
-70.260875
  0
LINE
  8
補助線
  6
BYBLOCK
 62
    64
 10
-77.48132
 20
-65.240467
 11
-77.332392
 21
-65.165643
  0
LINE
  8
補助線
  6
BYBLOCK
 62
    64
 10
-77.44427
 20
-65.12859
 11
-77.369445
 21
-65.277517
  0
LINE
  8
型材断面
  6
CONTINUOUS
 10
-97.91579
 20
-74.574792
 11
-98.138093
 21
-75.246045
  0
LINE
  8
型材断面
  6
CONTINUOUS
 10
-98.138093
 20
-75.246045
 11
-97.83879
 21
-75.84175
  0
LINE
  8
型材断面
  6
CONTINUOUS
 10
-97.83879
 20
-75.84175
 11
-97.167537
 21
-76.064052
  0
LINE
  8
型材断面
  6
CONTINUOUS
 10
-77.483133
 20
-64.308775
 11
-76.811877
 21
-64.531077
  0
LINE
  8
型材断面
  6
CONTINUOUS
 10
-76.811877
 20
-64.531077
 11
-76.512575
 21
-65.126782
  0
LINE
  8
型材断面
  6
CONTINUOUS
 10
-76.512575
 20
-65.126782
 11
-76.73488
 21
-65.798035
  0
LINE
  8
型材断面
  6
CONTINUOUS
 10
-97.91579
 20
-74.574792
 11
-77.483133
 21
-64.308775
  0
LINE
  8
型材断面
  6
CONTINUOUS
 10
-97.167537
 20
-76.064052
 11
-76.73488
 21
-65.798035
  0
CIRCLE
  8
ボルト／ビス
  6
CONTINUOUS
 10
-97.243812
 20
-75.16977
 40
0.250185
  0
CIRCLE
  8
ボルト／ビス
  6
CONTINUOUS
 10
-97.243812
 20
-75.16977
 40
0.301025
  0
LINE
  8
ボルト／ビス
  6
CONTINUOUS
 62
    64
 10
-97.493577
 20
-75.155267
 11
-97.356132
 21
-74.946217
  0
LINE
  8
ボルト／ビス
  6
CONTINUOUS
 62
    64
 10
-97.106368
 20
-74.96072
 11
-97.356132
 21
-74.946217
  0
LINE
  8
ボルト／ビス
  6
CONTINUOUS
 62
    64
 10
-97.381257
 20
-75.37882
 11
-97.131492
 21
-75.393322
  0
LINE
  8
ボルト／ビス
  6
CONTINUOUS
 62
    64
 10
-96.994048
 20
-75.184273
 11
-97.131492
 21
-75.393322
  0
LINE
  8
ボルト／ビス
  6
CONTINUOUS
 62
    64
 10
-97.493577
 20
-75.155267
 11
-97.381257
 21
-75.37882
  0
LINE
  8
ボルト／ビス
  6
CONTINUOUS
 62
    64
 10
-97.106368
 20
-74.96072
 11
-96.994048
 21
-75.184273
  0
CIRCLE
  8
ボルト／ビス
  6
CONTINUOUS
 62
    64
 10
-97.243812
 20
-75.16977
 40
0.216668
  0
CIRCLE
  8
ボルト／ビス
  6
CONTINUOUS
 10
-87.325335
 20
-70.186413
 40
0.250185
  0
CIRCLE
  8
ボルト／ビス
  6
CONTINUOUS
 10
-87.325335
 20
-70.186413
 40
0.301025
  0
LINE
  8
ボルト／ビス
  6
CONTINUOUS
 62
    64
 10
-87.5751
 20
-70.171908
 11
-87.437655
 21
-69.962857
  0
LINE
  8
ボルト／ビス
  6
CONTINUOUS
 62
    64
 10
-87.18789
 20
-69.97736
 11
-87.437655
 21
-69.962857
  0
LINE
  8
ボルト／ビス
  6
CONTINUOUS
 62
    64
 10
-87.46278
 20
-70.395463
 11
-87.213012
 21
-70.409968
  0
LINE
  8
ボルト／ビス
  6
CONTINUOUS
 62
    64
 10
-87.07557
 20
-70.200918
 11
-87.213012
 21
-70.409968
  0
LINE
  8
ボルト／ビス
  6
CONTINUOUS
 62
    64
 10
-87.5751
 20
-70.171908
 11
-87.46278
 21
-70.395463
  0
LINE
  8
ボルト／ビス
  6
CONTINUOUS
 62
    64
 10
-87.18789
 20
-69.97736
 11
-87.07557
 21
-70.200918
  0
CIRCLE
  8
ボルト／ビス
  6
CONTINUOUS
 62
    64
 10
-87.325335
 20
-70.186413
 40
0.216668
  0
CIRCLE
  8
ボルト／ビス
  6
CONTINUOUS
 10
-77.406858
 20
-65.203055
 40
0.250185
  0
CIRCLE
  8
ボルト／ビス
  6
CONTINUOUS
 10
-77.406858
 20
-65.203055
 40
0.301025
  0
LINE
  8
ボルト／ビス
  6
CONTINUOUS
 62
    64
 10
-77.269413
 20
-64.994005
 11
-77.519178
 21
-64.979503
  0
LINE
  8
ボルト／ビス
  6
CONTINUOUS
 62
    64
 10
-77.656622
 20
-65.188552
 11
-77.519178
 21
-64.979503
  0
LINE
  8
ボルト／ビス
  6
CONTINUOUS
 62
    64
 10
-77.157093
 20
-65.21756
 11
-77.294535
 21
-65.426607
  0
LINE
  8
ボルト／ビス
  6
CONTINUOUS
 62
    64
 10
-77.544302
 20
-65.412105
 11
-77.294535
 21
-65.426607
  0
LINE
  8
ボルト／ビス
  6
CONTINUOUS
 62
    64
 10
-77.269413
 20
-64.994005
 11
-77.157093
 21
-65.21756
  0
LINE
  8
ボルト／ビス
  6
CONTINUOUS
 62
    64
 10
-77.656622
 20
-65.188552
 11
-77.544302
 21
-65.412105
  0
CIRCLE
  8
ボルト／ビス
  6
CONTINUOUS
 62
    64
 10
-77.406858
 20
-65.203055
 40
0.216668
  0
ENDBLK
  0
BLOCK
  2
*GRP_0010
 70
    65
 10
0.0
 20
0.0
  0
LINE
  8
補助線
  6
BYBLOCK
 62
    64
 10
-77.48132
 20
-75.132358
 11
-77.332395
 21
-75.207183
  0
LINE
  8
補助線
  6
BYBLOCK
 62
    64
 10
-77.369445
 20
-75.095305
 11
-77.44427
 21
-75.244232
  0
LINE
  8
補助線
  6
BYBLOCK
 62
    64
 10
-87.3998
 20
-70.149
 11
-87.250872
 21
-70.223825
  0
LINE
  8
補助線
  6
BYBLOCK
 62
    64
 10
-87.287922
 20
-70.111948
 11
-87.362748
 21
-70.260875
  0
LINE
  8
補助線
  6
BYBLOCK
 62
    64
 10
-97.16935
 20
-65.240467
 11
-97.318278
 21
-65.165643
  0
LINE
  8
補助線
  6
BYBLOCK
 62
    64
 10
-97.2064
 20
-65.12859
 11
-97.281225
 21
-65.277517
  0
LINE
  8
型材断面
  6
CONTINUOUS
 10
-76.73488
 20
-74.574792
 11
-76.512578
 21
-75.246045
  0
LINE
  8
型材断面
  6
CONTINUOUS
 10
-76.512578
 20
-75.246045
 11
-76.81188
 21
-75.84175
  0
LINE
  8
型材断面
  6
CONTINUOUS
 10
-76.81188
 20
-75.84175
 11
-77.483133
 21
-76.064052
  0
LINE
  8
型材断面
  6
CONTINUOUS
 10
-97.167537
 20
-64.308775
 11
-97.838792
 21
-64.531077
  0
LINE
  8
型材断面
  6
CONTINUOUS
 10
-97.838792
 20
-64.531077
 11
-98.138095
 21
-65.126782
  0
LINE
  8
型材断面
  6
CONTINUOUS
 10
-98.138095
 20
-65.126782
 11
-97.91579
 21
-65.798035
  0
LINE
  8
型材断面
  6
CONTINUOUS
 10
-76.73488
 20
-74.574792
 11
-97.167537
 21
-64.308775
  0
LINE
  8
型材断面
  6
CONTINUOUS
 10
-77.483133
 20
-76.064052
 11
-97.91579
 21
-65.798035
  0
CIRCLE
  8
ボルト／ビス
  6
CONTINUOUS
 10
-77.406858
 20
-75.16977
 40
0.250185
  0
CIRCLE
  8
ボルト／ビス
  6
CONTINUOUS
 10
-77.406858
 20
-75.16977
 40
0.301025
  0
LINE
  8
ボルト／ビス
  6
CONTINUOUS
 62
    64
 10
-77.157093
 20
-75.155267
 11
-77.294538
 21
-74.946217
  0
LINE
  8
ボルト／ビス
  6
CONTINUOUS
 62
    64
 10
-77.544302
 20
-74.96072
 11
-77.294538
 21
-74.946217
  0
LINE
  8
ボルト／ビス
  6
CONTINUOUS
 62
    64
 10
-77.269413
 20
-75.37882
 11
-77.519178
 21
-75.393322
  0
LINE
  8
ボルト／ビス
  6
CONTINUOUS
 62
    64
 10
-77.656622
 20
-75.184273
 11
-77.519178
 21
-75.393322
  0
LINE
  8
ボルト／ビス
  6
CONTINUOUS
 62
    64
 10
-77.157093
 20
-75.155267
 11
-77.269413
 21
-75.37882
  0
LINE
  8
ボルト／ビス
  6
CONTINUOUS
 62
    64
 10
-77.544302
 20
-74.96072
 11
-77.656622
 21
-75.184273
  0
CIRCLE
  8
ボルト／ビス
  6
CONTINUOUS
 62
    64
 10
-77.406858
 20
-75.16977
 40
0.216668
  0
CIRCLE
  8
ボルト／ビス
  6
CONTINUOUS
 10
-87.325335
 20
-70.186413
 40
0.250185
  0
CIRCLE
  8
ボルト／ビス
  6
CONTINUOUS
 10
-87.325335
 20
-70.186413
 40
0.301025
  0
LINE
  8
ボルト／ビス
  6
CONTINUOUS
 62
    64
 10
-87.07557
 20
-70.171908
 11
-87.213015
 21
-69.962857
  0
LINE
  8
ボルト／ビス
  6
CONTINUOUS
 62
    64
 10
-87.46278
 20
-69.97736
 11
-87.213015
 21
-69.962857
  0
LINE
  8
ボルト／ビス
  6
CONTINUOUS
 62
    64
 10
-87.18789
 20
-70.395463
 11
-87.437658
 21
-70.409968
  0
LINE
  8
ボルト／ビス
  6
CONTINUOUS
 62
    64
 10
-87.5751
 20
-70.200918
 11
-87.437658
 21
-70.409968
  0
LINE
  8
ボルト／ビス
  6
CONTINUOUS
 62
    64
 10
-87.07557
 20
-70.171908
 11
-87.18789
 21
-70.395463
  0
LINE
  8
ボルト／ビス
  6
CONTINUOUS
 62
    64
 10
-87.46278
 20
-69.97736
 11
-87.5751
 21
-70.200918
  0
CIRCLE
  8
ボルト／ビス
  6
CONTINUOUS
 62
    64
 10
-87.325335
 20
-70.186413
 40
0.216668
  0
CIRCLE
  8
ボルト／ビス
  6
CONTINUOUS
 10
-97.243812
 20
-65.203055
 40
0.250185
  0
CIRCLE
  8
ボルト／ビス
  6
CONTINUOUS
 10
-97.243812
 20
-65.203055
 40
0.301025
  0
LINE
  8
ボルト／ビス
  6
CONTINUOUS
 62
    64
 10
-97.381257
 20
-64.994005
 11
-97.131492
 21
-64.979503
  0
LINE
  8
ボルト／ビス
  6
CONTINUOUS
 62
    64
 10
-96.994048
 20
-65.188552
 11
-97.131492
 21
-64.979503
  0
LINE
  8
ボルト／ビス
  6
CONTINUOUS
 62
    64
 10
-97.493577
 20
-65.21756
 11
-97.356135
 21
-65.426607
  0
LINE
  8
ボルト／ビス
  6
CONTINUOUS
 62
    64
 10
-97.106368
 20
-65.412105
 11
-97.356135
 21
-65.426607
  0
LINE
  8
ボルト／ビス
  6
CONTINUOUS
 62
    64
 10
-97.381257
 20
-64.994005
 11
-97.493577
 21
-65.21756
  0
LINE
  8
ボルト／ビス
  6
CONTINUOUS
 62
    64
 10
-96.994048
 20
-65.188552
 11
-97.106368
 21
-65.412105
  0
CIRCLE
  8
ボルト／ビス
  6
CONTINUOUS
 62
    64
 10
-97.243812
 20
-65.203055
 40
0.216668
  0
ENDBLK
  0
BLOCK
  2
*GRP_0011
 70
    65
 10
0.0
 20
0.0
  0
LINE
  8
補助線
  6
BYBLOCK
 62
    64
 10
46.015065
 20
-75.132358
 11
46.16399
 21
-75.207183
  0
LINE
  8
補助線
  6
BYBLOCK
 62
    64
 10
46.12694
 20
-75.095305
 11
46.052115
 21
-75.244232
  0
LINE
  8
補助線
  6
BYBLOCK
 62
    64
 10
36.096585
 20
-70.149
 11
36.245513
 21
-70.223825
  0
LINE
  8
補助線
  6
BYBLOCK
 62
    64
 10
36.208462
 20
-70.111948
 11
36.133638
 21
-70.260875
  0
LINE
  8
補助線
  6
BYBLOCK
 62
    64
 10
26.327035
 20
-65.240467
 11
26.178108
 21
-65.165643
  0
LINE
  8
補助線
  6
BYBLOCK
 62
    64
 10
26.289985
 20
-65.12859
 11
26.21516
 21
-65.277517
  0
LINE
  8
型材断面
  6
CONTINUOUS
 10
46.761505
 20
-74.574792
 11
46.983807
 21
-75.246045
  0
LINE
  8
型材断面
  6
CONTINUOUS
 10
46.983807
 20
-75.246045
 11
46.684505
 21
-75.84175
  0
LINE
  8
型材断面
  6
CONTINUOUS
 10
46.684505
 20
-75.84175
 11
46.013253
 21
-76.064052
  0
LINE
  8
型材断面
  6
CONTINUOUS
 10
26.328847
 20
-64.308775
 11
25.657592
 21
-64.531077
  0
LINE
  8
型材断面
  6
CONTINUOUS
 10
25.657592
 20
-64.531077
 11
25.35829
 21
-65.126782
  0
LINE
  8
型材断面
  6
CONTINUOUS
 10
25.35829
 20
-65.126782
 11
25.580595
 21
-65.798035
  0
LINE
  8
型材断面
  6
CONTINUOUS
 10
46.761505
 20
-74.574792
 11
26.328847
 21
-64.308775
  0
LINE
  8
型材断面
  6
CONTINUOUS
 10
46.013253
 20
-76.064052
 11
25.580595
 21
-65.798035
  0
CIRCLE
  8
ボルト／ビス
  6
CONTINUOUS
 10
46.089528
 20
-75.16977
 40
0.250185
  0
CIRCLE
  8
ボルト／ビス
  6
CONTINUOUS
 10
46.089528
 20
-75.16977
 40
0.301025
  0
LINE
  8
ボルト／ビス
  6
CONTINUOUS
 62
    64
 10
46.339293
 20
-75.155267
 11
46.201848
 21
-74.946217
  0
LINE
  8
ボルト／ビス
  6
CONTINUOUS
 62
    64
 10
45.952082
 20
-74.96072
 11
46.201848
 21
-74.946217
  0
LINE
  8
ボルト／ビス
  6
CONTINUOUS
 62
    64
 10
46.226973
 20
-75.37882
 11
45.977208
 21
-75.393322
  0
LINE
  8
ボルト／ビス
  6
CONTINUOUS
 62
    64
 10
45.839762
 20
-75.184273
 11
45.977208
 21
-75.393322
  0
LINE
  8
ボルト／ビス
  6
CONTINUOUS
 62
    64
 10
46.339293
 20
-75.155267
 11
46.226973
 21
-75.37882
  0
LINE
  8
ボルト／ビス
  6
CONTINUOUS
 62
    64
 10
45.952082
 20
-74.96072
 11
45.839762
 21
-75.184273
  0
CIRCLE
  8
ボルト／ビス
  6
CONTINUOUS
 62
    64
 10
46.089528
 20
-75.16977
 40
0.216668
  0
CIRCLE
  8
ボルト／ビス
  6
CONTINUOUS
 10
36.17105
 20
-70.186413
 40
0.250185
  0
CIRCLE
  8
ボルト／ビス
  6
CONTINUOUS
 10
36.17105
 20
-70.186413
 40
0.301025
  0
LINE
  8
ボルト／ビス
  6
CONTINUOUS
 62
    64
 10
36.420815
 20
-70.171908
 11
36.28337
 21
-69.962857
  0
LINE
  8
ボルト／ビス
  6
CONTINUOUS
 62
    64
 10
36.033605
 20
-69.97736
 11
36.28337
 21
-69.962857
  0
LINE
  8
ボルト／ビス
  6
CONTINUOUS
 62
    64
 10
36.308495
 20
-70.395463
 11
36.058727
 21
-70.409968
  0
LINE
  8
ボルト／ビス
  6
CONTINUOUS
 62
    64
 10
35.921285
 20
-70.200918
 11
36.058727
 21
-70.409968
  0
LINE
  8
ボルト／ビス
  6
CONTINUOUS
 62
    64
 10
36.420815
 20
-70.171908
 11
36.308495
 21
-70.395463
  0
LINE
  8
ボルト／ビス
  6
CONTINUOUS
 62
    64
 10
36.033605
 20
-69.97736
 11
35.921285
 21
-70.200918
  0
CIRCLE
  8
ボルト／ビス
  6
CONTINUOUS
 62
    64
 10
36.17105
 20
-70.186413
 40
0.216668
  0
CIRCLE
  8
ボルト／ビス
  6
CONTINUOUS
 10
26.252572
 20
-65.203055
 40
0.250185
  0
CIRCLE
  8
ボルト／ビス
  6
CONTINUOUS
 10
26.252572
 20
-65.203055
 40
0.301025
  0
LINE
  8
ボルト／ビス
  6
CONTINUOUS
 62
    64
 10
26.115128
 20
-64.994005
 11
26.364892
 21
-64.979503
  0
LINE
  8
ボルト／ビス
  6
CONTINUOUS
 62
    64
 10
26.502338
 20
-65.188552
 11
26.364892
 21
-64.979503
  0
LINE
  8
ボルト／ビス
  6
CONTINUOUS
 62
    64
 10
26.002808
 20
-65.21756
 11
26.14025
 21
-65.426607
  0
LINE
  8
ボルト／ビス
  6
CONTINUOUS
 62
    64
 10
26.390018
 20
-65.412105
 11
26.14025
 21
-65.426607
  0
LINE
  8
ボルト／ビス
  6
CONTINUOUS
 62
    64
 10
26.115128
 20
-64.994005
 11
26.002808
 21
-65.21756
  0
LINE
  8
ボルト／ビス
  6
CONTINUOUS
 62
    64
 10
26.502338
 20
-65.188552
 11
26.390018
 21
-65.412105
  0
CIRCLE
  8
ボルト／ビス
  6
CONTINUOUS
 62
    64
 10
26.252572
 20
-65.203055
 40
0.216668
  0
ENDBLK
  0
BLOCK
  2
*GRP_0012
 70
    65
 10
0.0
 20
0.0
  0
LINE
  8
補助線
  6
BYBLOCK
 62
    64
 10
26.327035
 20
-75.132358
 11
26.17811
 21
-75.207183
  0
LINE
  8
補助線
  6
BYBLOCK
 62
    64
 10
26.21516
 20
-75.095305
 11
26.289985
 21
-75.244232
  0
LINE
  8
補助線
  6
BYBLOCK
 62
    64
 10
36.245515
 20
-70.149
 11
36.096587
 21
-70.223825
  0
LINE
  8
補助線
  6
BYBLOCK
 62
    64
 10
36.133638
 20
-70.111948
 11
36.208462
 21
-70.260875
  0
LINE
  8
補助線
  6
BYBLOCK
 62
    64
 10
46.015065
 20
-65.240467
 11
46.163992
 21
-65.165643
  0
LINE
  8
補助線
  6
BYBLOCK
 62
    64
 10
46.052115
 20
-65.12859
 11
46.12694
 21
-65.277517
  0
LINE
  8
型材断面
  6
CONTINUOUS
 10
25.580595
 20
-74.574792
 11
25.358293
 21
-75.246045
  0
LINE
  8
型材断面
  6
CONTINUOUS
 10
25.358293
 20
-75.246045
 11
25.657595
 21
-75.84175
  0
LINE
  8
型材断面
  6
CONTINUOUS
 10
25.657595
 20
-75.84175
 11
26.328847
 21
-76.064052
  0
LINE
  8
型材断面
  6
CONTINUOUS
 10
46.013253
 20
-64.308775
 11
46.684507
 21
-64.531077
  0
LINE
  8
型材断面
  6
CONTINUOUS
 10
46.684507
 20
-64.531077
 11
46.98381
 21
-65.126782
  0
LINE
  8
型材断面
  6
CONTINUOUS
 10
46.98381
 20
-65.126782
 11
46.761505
 21
-65.798035
  0
LINE
  8
型材断面
  6
CONTINUOUS
 10
25.580595
 20
-74.574792
 11
46.013253
 21
-64.308775
  0
LINE
  8
型材断面
  6
CONTINUOUS
 10
26.328847
 20
-76.064052
 11
46.761505
 21
-65.798035
  0
CIRCLE
  8
ボルト／ビス
  6
CONTINUOUS
 10
26.252572
 20
-75.16977
 40
0.250185
  0
CIRCLE
  8
ボルト／ビス
  6
CONTINUOUS
 10
26.252572
 20
-75.16977
 40
0.301025
  0
LINE
  8
ボルト／ビス
  6
CONTINUOUS
 62
    64
 10
26.002808
 20
-75.155267
 11
26.140252
 21
-74.946217
  0
LINE
  8
ボルト／ビス
  6
CONTINUOUS
 62
    64
 10
26.390018
 20
-74.96072
 11
26.140252
 21
-74.946217
  0
LINE
  8
ボルト／ビス
  6
CONTINUOUS
 62
    64
 10
26.115128
 20
-75.37882
 11
26.364892
 21
-75.393322
  0
LINE
  8
ボルト／ビス
  6
CONTINUOUS
 62
    64
 10
26.502338
 20
-75.184273
 11
26.364892
 21
-75.393322
  0
LINE
  8
ボルト／ビス
  6
CONTINUOUS
 62
    64
 10
26.002808
 20
-75.155267
 11
26.115128
 21
-75.37882
  0
LINE
  8
ボルト／ビス
  6
CONTINUOUS
 62
    64
 10
26.390018
 20
-74.96072
 11
26.502338
 21
-75.184273
  0
CIRCLE
  8
ボルト／ビス
  6
CONTINUOUS
 62
    64
 10
26.252572
 20
-75.16977
 40
0.216668
  0
CIRCLE
  8
ボルト／ビス
  6
CONTINUOUS
 10
36.17105
 20
-70.186413
 40
0.250185
  0
CIRCLE
  8
ボルト／ビス
  6
CONTINUOUS
 10
36.17105
 20
-70.186413
 40
0.301025
  0
LINE
  8
ボルト／ビス
  6
CONTINUOUS
 62
    64
 10
35.921285
 20
-70.171908
 11
36.05873
 21
-69.962857
  0
LINE
  8
ボルト／ビス
  6
CONTINUOUS
 62
    64
 10
36.308495
 20
-69.97736
 11
36.05873
 21
-69.962857
  0
LINE
  8
ボルト／ビス
  6
CONTINUOUS
 62
    64
 10
36.033605
 20
-70.395463
 11
36.283373
 21
-70.409968
  0
LINE
  8
ボルト／ビス
  6
CONTINUOUS
 62
    64
 10
36.420815
 20
-70.200918
 11
36.283373
 21
-70.409968
  0
LINE
  8
ボルト／ビス
  6
CONTINUOUS
 62
    64
 10
35.921285
 20
-70.171908
 11
36.033605
 21
-70.395463
  0
LINE
  8
ボルト／ビス
  6
CONTINUOUS
 62
    64
 10
36.308495
 20
-69.97736
 11
36.420815
 21
-70.200918
  0
CIRCLE
  8
ボルト／ビス
  6
CONTINUOUS
 62
    64
 10
36.17105
 20
-70.186413
 40
0.216668
  0
CIRCLE
  8
ボルト／ビス
  6
CONTINUOUS
 10
46.089528
 20
-65.203055
 40
0.250185
  0
CIRCLE
  8
ボルト／ビス
  6
CONTINUOUS
 10
46.089528
 20
-65.203055
 40
0.301025
  0
LINE
  8
ボルト／ビス
  6
CONTINUOUS
 62
    64
 10
46.226973
 20
-64.994005
 11
45.977208
 21
-64.979503
  0
LINE
  8
ボルト／ビス
  6
CONTINUOUS
 62
    64
 10
45.839762
 20
-65.188552
 11
45.977208
 21
-64.979503
  0
LINE
  8
ボルト／ビス
  6
CONTINUOUS
 62
    64
 10
46.339293
 20
-65.21756
 11
46.20185
 21
-65.426607
  0
LINE
  8
ボルト／ビス
  6
CONTINUOUS
 62
    64
 10
45.952082
 20
-65.412105
 11
46.20185
 21
-65.426607
  0
LINE
  8
ボルト／ビス
  6
CONTINUOUS
 62
    64
 10
46.226973
 20
-64.994005
 11
46.339293
 21
-65.21756
  0
LINE
  8
ボルト／ビス
  6
CONTINUOUS
 62
    64
 10
45.839762
 20
-65.188552
 11
45.952082
 21
-65.412105
  0
CIRCLE
  8
ボルト／ビス
  6
CONTINUOUS
 62
    64
 10
46.089528
 20
-65.203055
 40
0.216668
  0
ENDBLK
  0
BLOCK
  2
*DIM_0013
 70
    65
 10
0.0
 20
0.0
  0
LINE
  8
寸法
  6
BYBLOCK
 62
     0
 10
-120.243808
 20
39.4807
 11
-133.536645
 21
39.4807
  0
LINE
  8
寸法
  6
BYBLOCK
 62
     0
 10
-120.243808
 20
26.147365
 11
-133.536645
 21
26.147365
  0
LINE
  8
寸法
  6
BYBLOCK
 62
     0
 10
-133.536645
 20
39.4807
 11
-133.536645
 21
26.147365
  0
POINT
  8
寸法
 62
     0
 10
-133.536645
 20
39.4807
  0
POINT
  8
寸法
 62
     0
 10
-133.536645
 20
26.147365
  0
TEXT
  7
TextStyle03
  8
寸法
  6
CONTINUOUS
 62
     0
 10
-133.925
 20
30.3625
  1
400
 40
3.0
 50
90.0
 72
     5
 11
-133.925
 21
35.2375
  0
ENDBLK
  0
BLOCK
  2
*DIM_0014
 70
    65
 10
0.0
 20
0.0
  0
LINE
  8
寸法
  6
BYBLOCK
 62
     0
 10
-105.577142
 20
45.814033
 11
-105.577142
 21
74.922105
  0
LINE
  8
寸法
  6
BYBLOCK
 62
     0
 10
-78.910475
 20
45.814033
 11
-78.910475
 21
74.922105
  0
LINE
  8
寸法
  6
BYBLOCK
 62
     0
 10
-105.577142
 20
74.922105
 11
-78.910475
 21
74.922105
  0
POINT
  8
寸法
 62
     0
 10
-105.577142
 20
74.922105
  0
POINT
  8
寸法
 62
     0
 10
-78.910475
 20
74.922105
  0
TEXT
  7
TextStyle03
  8
寸法
  6
CONTINUOUS
 62
     0
 10
-94.6875
 20
75.3
  1
800
 40
3.0
 72
     5
 11
-89.8125
 21
75.3
  0
ENDBLK
  0
BLOCK
  2
*DIM_0015
 70
    65
 10
0.0
 20
0.0
  0
LINE
  8
寸法
  6
BYBLOCK
 62
     0
 10
-52.24381
 20
45.814033
 11
-52.24381
 21
74.922105
  0
LINE
  8
寸法
  6
BYBLOCK
 62
     0
 10
-78.910475
 20
74.922105
 11
-52.24381
 21
74.922105
  0
POINT
  8
寸法
 62
     0
 10
-52.24381
 20
74.922105
  0
TEXT
  7
TextStyle03
  8
寸法
  6
CONTINUOUS
 62
     0
 10
-68.0125
 20
75.3
  1
800
 40
3.0
 72
     5
 11
-63.1375
 21
75.3
  0
ENDBLK
  0
BLOCK
  2
*DIM_0016
 70
    65
 10
0.0
 20
0.0
  0
LINE
  8
寸法
  6
BYBLOCK
 62
     0
 10
-25.577142
 20
45.814033
 11
-25.577142
 21
74.922105
  0
LINE
  8
寸法
  6
BYBLOCK
 62
     0
 10
-52.24381
 20
74.922105
 11
-25.577142
 21
74.922105
  0
POINT
  8
寸法
 62
     0
 10
-25.577142
 20
74.922105
  0
TEXT
  7
TextStyle03
  8
寸法
  6
CONTINUOUS
 62
     0
 10
-41.3375
 20
75.3
  1
800
 40
3.0
 72
     5
 11
-36.4625
 21
75.3
  0
ENDBLK
  0
BLOCK
  2
*DIM_0017
 70
    65
 10
0.0
 20
0.0
  0
LINE
  8
寸法
  6
BYBLOCK
 62
     0
 10
1.089525
 20
45.814033
 11
1.089525
 21
74.922105
  0
LINE
  8
寸法
  6
BYBLOCK
 62
     0
 10
-25.577142
 20
74.922105
 11
1.089525
 21
74.922105
  0
POINT
  8
寸法
 62
     0
 10
1.089525
 20
74.922105
  0
TEXT
  7
TextStyle03
  8
寸法
  6
CONTINUOUS
 62
     0
 10
-14.6875
 20
75.3
  1
800
 40
3.0
 72
     5
 11
-9.8125
 21
75.3
  0
ENDBLK
  0
BLOCK
  2
*DIM_0018
 70
    65
 10
0.0
 20
0.0
  0
LINE
  8
寸法
  6
BYBLOCK
 62
     0
 10
27.75619
 20
45.814033
 11
27.75619
 21
74.922105
  0
LINE
  8
寸法
  6
BYBLOCK
 62
     0
 10
1.089525
 20
74.922105
 11
27.75619
 21
74.922105
  0
POINT
  8
寸法
 62
     0
 10
27.75619
 20
74.922105
  0
TEXT
  7
TextStyle03
  8
寸法
  6
CONTINUOUS
 62
     0
 10
11.9875
 20
75.3
  1
800
 40
3.0
 72
     5
 11
16.8625
 21
75.3
  0
ENDBLK
  0
BLOCK
  2
*DIM_0019
 70
    65
 10
0.0
 20
0.0
  0
LINE
  8
寸法
  6
BYBLOCK
 62
     0
 10
54.422857
 20
45.814033
 11
54.422857
 21
74.922105
  0
LINE
  8
寸法
  6
BYBLOCK
 62
     0
 10
27.75619
 20
74.922105
 11
54.422857
 21
74.922105
  0
POINT
  8
寸法
 62
     0
 10
54.422857
 20
74.922105
  0
TEXT
  7
TextStyle03
  8
寸法
  6
CONTINUOUS
 62
     0
 10
38.6625
 20
75.3
  1
800
 40
3.0
 72
     5
 11
43.5375
 21
75.3
  0
ENDBLK
  0
BLOCK
  2
*DIM_0020
 70
    65
 10
0.0
 20
0.0
  0
LINE
  8
寸法
  6
BYBLOCK
 62
     0
 10
98.939825
 20
22.814033
 11
98.939825
 21
42.814033
  0
POINT
  8
寸法
 62
     0
 10
98.939825
 20
22.814033
  0
POINT
  8
寸法
 62
     0
 10
98.939825
 20
42.814033
  0
TEXT
  7
TextStyle03
  8
寸法
  6
CONTINUOUS
 62
     0
 10
98.525
 20
21.925
  1
呼称寸法　600
 40
3.0
 50
90.0
 72
     5
 11
98.525
 21
43.675
  0
ENDBLK
  0
BLOCK
  2
*DIM_0021
 70
    65
 10
0.0
 20
0.0
  0
LINE
  8
寸法
  6
BYBLOCK
 62
     0
 10
149.120108
 20
33.814033
 11
149.120108
 21
60.666798
  0
LINE
  8
寸法
  6
BYBLOCK
 62
     0
 10
154.45344
 20
60.666798
 11
149.120108
 21
60.666798
  0
POINT
  8
寸法
 62
     0
 10
154.45344
 20
60.666798
  0
POINT
  8
寸法
 62
     0
 10
149.120108
 20
60.666798
  0
TEXT
  7
TextStyle03
  8
寸法
  6
CONTINUOUS
 62
     0
 10
149.3125
 20
61.025
  1
160
 40
3.0
 72
     5
 11
154.1875
 21
61.025
  0
ENDBLK
  0
BLOCK
  2
*DIM_0022
 70
    65
 10
0.0
 20
0.0
  0
LINE
  8
寸法
  6
CONTINUOUS
 10
98.939825
 20
22.814033
 11
98.939825
 21
20.0507
  0
POINT
  8
寸法
 10
98.939825
 20
22.814033
  0
POINT
  8
寸法
 10
98.939825
 20
20.0507
  0
TEXT
  7
TextStyle03
  8
寸法
  6
CONTINUOUS
 10
98.025
 20
12.89375
  1
82.9
 40
3.0
 50
90.0
 72
     5
 11
98.025
 21
19.45625
  0
ENDBLK
  0
BLOCK
  2
*DIM_0023
 70
    65
 10
0.0
 20
0.0
  0
LINE
  8
寸法
  6
CONTINUOUS
 10
98.939825
 20
42.814033
 11
98.939825
 21
45.577365
  0
POINT
  8
寸法
 10
98.939825
 20
42.814033
  0
POINT
  8
寸法
 10
98.939825
 20
45.577365
  0
TEXT
  7
TextStyle03
  8
寸法
  6
CONTINUOUS
 10
97.775
 20
45.46875
  1
82.9
 40
3.0
 50
90.0
 72
     5
 11
97.775
 21
52.03125
  0
ENDBLK
  0
BLOCK
  2
*DIM_0024
 70
    65
 10
0.0
 20
0.0
  0
LINE
  8
寸法
  6
CONTINUOUS
 10
66.089525
 20
-13.121378
 11
68.85286
 21
-13.121378
  0
POINT
  8
寸法
 10
66.089525
 20
-13.121378
  0
POINT
  8
寸法
 10
68.85286
 20
-13.121378
  0
TEXT
  7
TextStyle03
  8
寸法
  6
CONTINUOUS
 10
66.76875
 20
-12.275
  1
82.9
 40
3.0
 72
     5
 11
73.33125
 21
-12.275
  0
ENDBLK
  0
BLOCK
  2
*DIM_0025
 70
    65
 10
0.0
 20
0.0
  0
LINE
  8
寸法
  6
CONTINUOUS
 10
-117.243808
 20
-13.121378
 11
-120.007145
 21
-13.121378
  0
POINT
  8
寸法
 10
-117.243808
 20
-13.121378
  0
POINT
  8
寸法
 10
-120.007145
 20
-13.121378
  0
TEXT
  7
TextStyle03
  8
寸法
  6
CONTINUOUS
 10
-124.48125
 20
-12.45
  1
82.9
 40
3.0
 72
     5
 11
-117.91875
 21
-12.45
  0
ENDBLK
  0
BLOCK
  2
*DIM_0028
 70
    65
 10
0.0
 20
0.0
  0
LINE
  8
寸法
  6
CONTINUOUS
 10
120.510932
 20
-51.39817
 11
120.510932
 21
-46.587267
  0
LINE
  8
寸法
  6
CONTINUOUS
 10
156.310932
 20
-51.39817
 11
156.310932
 21
-46.587267
  0
LINE
  8
寸法
  6
CONTINUOUS
 10
120.510932
 20
-46.587267
 11
156.310932
 21
-46.587267
  0
POINT
  8
寸法
 10
120.510932
 20
-46.587267
  0
POINT
  8
寸法
 10
156.310932
 20
-46.587267
  0
TEXT
  7
TextStyle03
  8
寸法
  6
CONTINUOUS
 10
135.11875
 20
-46.2
  1
1074
 40
3.0
 72
     5
 11
141.68125
 21
-46.2
  0
ENDBLK
  0
BLOCK
  2
*DIM_0029
 70
    65
 10
0.0
 20
0.0
  0
LINE
  8
寸法
  6
CONTINUOUS
 10
161.310932
 20
-56.39817
 11
167.882022
 21
-56.39817
  0
LINE
  8
寸法
  6
CONTINUOUS
 10
161.310932
 20
-76.39817
 11
167.882022
 21
-76.39817
  0
LINE
  8
寸法
  6
CONTINUOUS
 10
167.882022
 20
-56.39817
 11
167.882022
 21
-76.39817
  0
POINT
  8
寸法
 10
167.882022
 20
-56.39817
  0
POINT
  8
寸法
 10
167.882022
 20
-76.39817
  0
TEXT
  7
TextStyle03
  8
寸法
  6
CONTINUOUS
 10
167.5
 20
-68.8375
  1
600
 40
3.0
 50
90.0
 72
     5
 11
167.5
 21
-63.9625
  0
ENDBLK
  0
BLOCK
  2
*GRP_0030
 70
    65
 10
0.0
 20
0.0
  0
LINE
  8
ボルト／ビス
  6
CONTINUOUS
 10
154.45344
 20
43.4807
 11
153.986775
 21
43.4807
  0
LINE
  8
ボルト／ビス
  6
CONTINUOUS
 10
154.45344
 20
43.114035
 11
154.386775
 21
43.114035
  0
LINE
  8
ボルト／ビス
  6
CONTINUOUS
 10
154.386775
 20
43.114035
 11
154.386775
 21
43.847367
  0
LINE
  8
ボルト／ビス
  6
CONTINUOUS
 10
154.386775
 20
43.847367
 11
154.45344
 21
43.847367
  0
LINE
  8
ボルト／ビス
  6
CONTINUOUS
 10
154.45344
 20
43.114035
 11
154.45344
 21
43.847367
  0
LINE
  8
ボルト／ビス
  6
CONTINUOUS
 10
154.35344
 20
43.1807
 11
154.386775
 21
43.1807
  0
LINE
  8
ボルト／ビス
  6
CONTINUOUS
 10
154.35344
 20
43.1807
 11
154.35344
 21
43.7807
  0
LINE
  8
ボルト／ビス
  6
CONTINUOUS
 10
154.35344
 20
43.7807
 11
154.386775
 21
43.7807
  0
LINE
  8
ボルト／ビス
  6
CONTINUOUS
 62
    64
 10
154.15344
 20
43.320325
 11
154.165115
 21
43.28825
  0
ARC
  8
ボルト／ビス
  6
CONTINUOUS
 62
    64
 10
154.258418
 20
43.336365
 40
0.104978
 50
152.721967
 51
180.0
  0
ARC
  8
ボルト／ビス
  6
CONTINUOUS
 62
    64
 10
154.555842
 20
43.480703
 40
0.402402
 50
166.165002
 51
193.834985
  0
LINE
  8
ボルト／ビス
  6
CONTINUOUS
 62
    64
 10
154.15344
 20
43.641075
 11
154.165115
 21
43.67315
  0
ARC
  8
ボルト／ビス
  6
CONTINUOUS
 62
    64
 10
154.258418
 20
43.62504
 40
0.104978
 50
180.0
 51
207.278033
  0
LINE
  8
ボルト／ビス
  6
CONTINUOUS
 62
    64
 10
154.15344
 20
43.320325
 11
154.15344
 21
43.641075
  0
LINE
  8
ボルト／ビス
  6
CONTINUOUS
 62
    64
 10
154.165115
 20
43.67315
 11
154.286775
 21
43.67315
  0
LINE
  8
ボルト／ビス
  6
CONTINUOUS
 62
    64
 10
154.165115
 20
43.576925
 11
154.286775
 21
43.576925
  0
LINE
  8
ボルト／ビス
  6
CONTINUOUS
 62
    64
 10
154.165115
 20
43.28825
 11
154.286775
 21
43.28825
  0
LINE
  8
ボルト／ビス
  6
CONTINUOUS
 62
    64
 10
154.165115
 20
43.384475
 11
154.286775
 21
43.384475
  0
LINE
  8
ボルト／ビス
  6
CONTINUOUS
 10
154.286775
 20
43.28825
 11
154.286775
 21
43.67315
  0
LINE
  8
ボルト／ビス
  6
CONTINUOUS
 10
154.286775
 20
43.2807
 11
154.35344
 21
43.2807
  0
LINE
  8
ボルト／ビス
  6
CONTINUOUS
 10
154.286775
 20
43.2807
 11
154.286775
 21
43.6807
  0
LINE
  8
ボルト／ビス
  6
CONTINUOUS
 10
154.286775
 20
43.6807
 11
154.35344
 21
43.6807
  0
ENDBLK
  0
BLOCK
  2
*GRP_0031
 70
    65
 10
0.0
 20
0.0
  0
LINE
  8
ボルト／ビス
  6
CONTINUOUS
 10
154.45344
 20
22.147365
 11
153.986775
 21
22.147365
  0
LINE
  8
ボルト／ビス
  6
CONTINUOUS
 10
154.45344
 20
22.51403
 11
154.386775
 21
22.51403
  0
LINE
  8
ボルト／ビス
  6
CONTINUOUS
 10
154.386775
 20
22.51403
 11
154.386775
 21
21.780697
  0
LINE
  8
ボルト／ビス
  6
CONTINUOUS
 10
154.386775
 20
21.780697
 11
154.45344
 21
21.780697
  0
LINE
  8
ボルト／ビス
  6
CONTINUOUS
 10
154.45344
 20
22.51403
 11
154.45344
 21
21.780697
  0
LINE
  8
ボルト／ビス
  6
CONTINUOUS
 10
154.35344
 20
22.447365
 11
154.386775
 21
22.447365
  0
LINE
  8
ボルト／ビス
  6
CONTINUOUS
 10
154.35344
 20
22.447365
 11
154.35344
 21
21.847365
  0
LINE
  8
ボルト／ビス
  6
CONTINUOUS
 10
154.35344
 20
21.847365
 11
154.386775
 21
21.847365
  0
LINE
  8
ボルト／ビス
  6
CONTINUOUS
 62
    64
 10
154.15344
 20
22.30774
 11
154.165115
 21
22.339815
  0
ARC
  8
ボルト／ビス
  6
CONTINUOUS
 62
    64
 10
154.258418
 20
22.2917
 40
0.104978
 50
180.0
 51
207.278033
  0
ARC
  8
ボルト／ビス
  6
CONTINUOUS
 62
    64
 10
154.555842
 20
22.147362
 40
0.402402
 50
166.165015
 51
193.834998
  0
LINE
  8
ボルト／ビス
  6
CONTINUOUS
 62
    64
 10
154.15344
 20
21.98699
 11
154.165115
 21
21.954915
  0
ARC
  8
ボルト／ビス
  6
CONTINUOUS
 62
    64
 10
154.258418
 20
22.003025
 40
0.104978
 50
152.721967
 51
180.0
  0
LINE
  8
ボルト／ビス
  6
CONTINUOUS
 62
    64
 10
154.15344
 20
22.30774
 11
154.15344
 21
21.98699
  0
LINE
  8
ボルト／ビス
  6
CONTINUOUS
 62
    64
 10
154.165115
 20
21.954915
 11
154.286775
 21
21.954915
  0
LINE
  8
ボルト／ビス
  6
CONTINUOUS
 62
    64
 10
154.165115
 20
22.05114
 11
154.286775
 21
22.05114
  0
LINE
  8
ボルト／ビス
  6
CONTINUOUS
 62
    64
 10
154.165115
 20
22.339815
 11
154.286775
 21
22.339815
  0
LINE
  8
ボルト／ビス
  6
CONTINUOUS
 62
    64
 10
154.165115
 20
22.24359
 11
154.286775
 21
22.24359
  0
LINE
  8
ボルト／ビス
  6
CONTINUOUS
 10
154.286775
 20
22.339815
 11
154.286775
 21
21.954915
  0
LINE
  8
ボルト／ビス
  6
CONTINUOUS
 10
154.286775
 20
22.347365
 11
154.35344
 21
22.347365
  0
LINE
  8
ボルト／ビス
  6
CONTINUOUS
 10
154.286775
 20
22.347365
 11
154.286775
 21
21.947365
  0
LINE
  8
ボルト／ビス
  6
CONTINUOUS
 10
154.286775
 20
21.947365
 11
154.35344
 21
21.947365
  0
ENDBLK
  0
BLOCK
  2
*GRP_0032
 70
    65
 10
0.0
 20
0.0
  0
LINE
  8
型材断面
  6
DOT
 10
148.17023
 20
32.814033
 11
148.17023
 21
21.453885
  0
LINE
  8
型材断面
  6
DOT
 10
149.32023
 20
32.814033
 11
149.32023
 21
20.0507
  0
LINE
  8
型材断面
  6
DOT
 10
150.486897
 20
32.814033
 11
150.486897
 21
20.0507
  0
LINE
  8
型材断面
  6
DOT
 10
148.17023
 20
32.814033
 11
148.17023
 21
44.17418
  0
LINE
  8
型材断面
  6
DOT
 10
149.32023
 20
32.814033
 11
149.32023
 21
45.577365
  0
LINE
  8
型材断面
  6
DOT
 10
150.486897
 20
32.814033
 11
150.486897
 21
45.577365
  0
LINE
  8
別途部材
  6
DOT
 62
    96
 10
147.120108
 20
21.147365
 11
148.120108
 21
20.747365
  0
LINE
  8
別途部材
  6
DOT
 62
    96
 10
147.120108
 20
21.147365
 11
147.120108
 21
32.814033
  0
LINE
  8
別途部材
  6
DOT
 10
148.120108
 20
20.747365
 11
148.120108
 21
32.814033
  0
LINE
  8
別途部材
  6
DOT
 62
    96
 10
147.120108
 20
44.4807
 11
148.120108
 21
44.8807
  0
LINE
  8
別途部材
  6
DOT
 62
    96
 10
147.120108
 20
44.4807
 11
147.120108
 21
32.814033
  0
LINE
  8
別途部材
  6
DOT
 10
148.120108
 20
44.8807
 11
148.120108
 21
32.814033
  0
ARC
  8
別途部材
  6
DOT
 10
153.828443
 20
32.814033
 40
12.041667
 50
123.855033
 51
236.144967
  0
LINE
  8
鉄骨等
  6
DOT
 62
    47
 10
150.486897
 20
20.0507
 11
149.32023
 21
20.0507
  0
LINE
  8
鉄骨等
  6
DOT
 62
    47
 10
149.32023
 20
20.0507
 11
148.17023
 21
21.453885
  0
LINE
  8
鉄骨等
  6
DOT
 62
    47
 10
148.17023
 20
21.453885
 11
148.12011
 21
21.453885
  0
LINE
  8
鉄骨等
  6
DOT
 62
    47
 10
150.486897
 20
45.577365
 11
149.32023
 21
45.577365
  0
LINE
  8
鉄骨等
  6
DOT
 62
    47
 10
149.32023
 20
45.577365
 11
148.17023
 21
44.17418
  0
LINE
  8
鉄骨等
  6
DOT
 62
    47
 10
148.17023
 20
44.17418
 11
148.12011
 21
44.17418
  0
ENDBLK
  0
BLOCK
  2
*GRP_0033
 70
    65
 10
0.0
 20
0.0
  0
LINE
  8
ボルト／ビス
  6
DOT
 10
147.120108
 20
43.4807
 11
146.653442
 21
43.4807
  0
LINE
  8
ボルト／ビス
  6
DOT
 10
147.120108
 20
43.114035
 11
147.053442
 21
43.114035
  0
LINE
  8
ボルト／ビス
  6
DOT
 10
147.053442
 20
43.114035
 11
147.053442
 21
43.847367
  0
LINE
  8
ボルト／ビス
  6
DOT
 10
147.053442
 20
43.847367
 11
147.120108
 21
43.847367
  0
LINE
  8
ボルト／ビス
  6
DOT
 10
147.120108
 20
43.114035
 11
147.120108
 21
43.847367
  0
LINE
  8
ボルト／ビス
  6
DOT
 10
147.020108
 20
43.1807
 11
147.053442
 21
43.1807
  0
LINE
  8
ボルト／ビス
  6
DOT
 10
147.020108
 20
43.1807
 11
147.020108
 21
43.7807
  0
LINE
  8
ボルト／ビス
  6
DOT
 10
147.020108
 20
43.7807
 11
147.053442
 21
43.7807
  0
LINE
  8
ボルト／ビス
  6
DOT
 62
    64
 10
146.820108
 20
43.320325
 11
146.831783
 21
43.28825
  0
ARC
  8
ボルト／ビス
  6
DOT
 62
    64
 10
146.925086
 20
43.336365
 40
0.104978
 50
152.721967
 51
180.0
  0
ARC
  8
ボルト／ビス
  6
DOT
 62
    64
 10
147.222509
 20
43.480703
 40
0.402402
 50
166.165002
 51
193.834985
  0
LINE
  8
ボルト／ビス
  6
DOT
 62
    64
 10
146.820108
 20
43.641075
 11
146.831783
 21
43.67315
  0
ARC
  8
ボルト／ビス
  6
DOT
 62
    64
 10
146.925086
 20
43.62504
 40
0.104978
 50
180.0
 51
207.278033
  0
LINE
  8
ボルト／ビス
  6
DOT
 62
    64
 10
146.820108
 20
43.320325
 11
146.820108
 21
43.641075
  0
LINE
  8
ボルト／ビス
  6
DOT
 62
    64
 10
146.831783
 20
43.67315
 11
146.953442
 21
43.67315
  0
LINE
  8
ボルト／ビス
  6
DOT
 62
    64
 10
146.831783
 20
43.576925
 11
146.953442
 21
43.576925
  0
LINE
  8
ボルト／ビス
  6
DOT
 62
    64
 10
146.831783
 20
43.28825
 11
146.953442
 21
43.28825
  0
LINE
  8
ボルト／ビス
  6
DOT
 62
    64
 10
146.831783
 20
43.384475
 11
146.953442
 21
43.384475
  0
LINE
  8
ボルト／ビス
  6
DOT
 10
146.953442
 20
43.28825
 11
146.953442
 21
43.67315
  0
LINE
  8
ボルト／ビス
  6
DOT
 10
146.953442
 20
43.2807
 11
147.020108
 21
43.2807
  0
LINE
  8
ボルト／ビス
  6
DOT
 10
146.953442
 20
43.2807
 11
146.953442
 21
43.6807
  0
LINE
  8
ボルト／ビス
  6
DOT
 10
146.953442
 20
43.6807
 11
147.020108
 21
43.6807
  0
ENDBLK
  0
BLOCK
  2
*GRP_0034
 70
    65
 10
0.0
 20
0.0
  0
LINE
  8
ボルト／ビス
  6
DOT
 10
147.120108
 20
22.147365
 11
146.653442
 21
22.147365
  0
LINE
  8
ボルト／ビス
  6
DOT
 10
147.120108
 20
22.51403
 11
147.053442
 21
22.51403
  0
LINE
  8
ボルト／ビス
  6
DOT
 10
147.053442
 20
22.51403
 11
147.053442
 21
21.780697
  0
LINE
  8
ボルト／ビス
  6
DOT
 10
147.053442
 20
21.780697
 11
147.120108
 21
21.780697
  0
LINE
  8
ボルト／ビス
  6
DOT
 10
147.120108
 20
22.51403
 11
147.120108
 21
21.780697
  0
LINE
  8
ボルト／ビス
  6
DOT
 10
147.020108
 20
22.447365
 11
147.053442
 21
22.447365
  0
LINE
  8
ボルト／ビス
  6
DOT
 10
147.020108
 20
22.447365
 11
147.020108
 21
21.847365
  0
LINE
  8
ボルト／ビス
  6
DOT
 10
147.020108
 20
21.847365
 11
147.053442
 21
21.847365
  0
LINE
  8
ボルト／ビス
  6
DOT
 62
    64
 10
146.820108
 20
22.30774
 11
146.831783
 21
22.339815
  0
ARC
  8
ボルト／ビス
  6
DOT
 62
    64
 10
146.925086
 20
22.2917
 40
0.104978
 50
180.0
 51
207.278033
  0
ARC
  8
ボルト／ビス
  6
DOT
 62
    64
 10
147.222509
 20
22.147362
 40
0.402402
 50
166.165015
 51
193.834998
  0
LINE
  8
ボルト／ビス
  6
DOT
 62
    64
 10
146.820108
 20
21.98699
 11
146.831783
 21
21.954915
  0
ARC
  8
ボルト／ビス
  6
DOT
 62
    64
 10
146.925086
 20
22.003025
 40
0.104978
 50
152.721967
 51
180.0
  0
LINE
  8
ボルト／ビス
  6
DOT
 62
    64
 10
146.820108
 20
22.30774
 11
146.820108
 21
21.98699
  0
LINE
  8
ボルト／ビス
  6
DOT
 62
    64
 10
146.831783
 20
21.954915
 11
146.953442
 21
21.954915
  0
LINE
  8
ボルト／ビス
  6
DOT
 62
    64
 10
146.831783
 20
22.05114
 11
146.953442
 21
22.05114
  0
LINE
  8
ボルト／ビス
  6
DOT
 62
    64
 10
146.831783
 20
22.339815
 11
146.953442
 21
22.339815
  0
LINE
  8
ボルト／ビス
  6
DOT
 62
    64
 10
146.831783
 20
22.24359
 11
146.953442
 21
22.24359
  0
LINE
  8
ボルト／ビス
  6
DOT
 10
146.953442
 20
22.339815
 11
146.953442
 21
21.954915
  0
LINE
  8
ボルト／ビス
  6
DOT
 10
146.953442
 20
22.347365
 11
147.020108
 21
22.347365
  0
LINE
  8
ボルト／ビス
  6
DOT
 10
146.953442
 20
22.347365
 11
146.953442
 21
21.947365
  0
LINE
  8
ボルト／ビス
  6
DOT
 10
146.953442
 20
21.947365
 11
147.020108
 21
21.947365
  0
ENDBLK
  0
BLOCK
  2
*GRP_0035
 70
    65
 10
0.0
 20
0.0
  0
LINE
  8
ボルト／ビス
  6
CONTINUOUS
 10
66.756192
 20
-70.209602
 11
66.756192
 21
-69.742937
  0
LINE
  8
ボルト／ビス
  6
CONTINUOUS
 10
66.389528
 20
-70.209602
 11
66.389528
 21
-70.142937
  0
LINE
  8
ボルト／ビス
  6
CONTINUOUS
 10
66.389528
 20
-70.142937
 11
67.12286
 21
-70.142937
  0
LINE
  8
ボルト／ビス
  6
CONTINUOUS
 10
67.12286
 20
-70.142937
 11
67.12286
 21
-70.209602
  0
LINE
  8
ボルト／ビス
  6
CONTINUOUS
 10
66.389528
 20
-70.209602
 11
67.12286
 21
-70.209602
  0
LINE
  8
ボルト／ビス
  6
CONTINUOUS
 10
66.456193
 20
-70.109602
 11
66.456193
 21
-70.142937
  0
LINE
  8
ボルト／ビス
  6
CONTINUOUS
 10
66.456193
 20
-70.109602
 11
67.056192
 21
-70.109602
  0
LINE
  8
ボルト／ビス
  6
CONTINUOUS
 10
67.056192
 20
-70.109602
 11
67.056192
 21
-70.142937
  0
LINE
  8
ボルト／ビス
  6
CONTINUOUS
 62
    64
 10
66.595817
 20
-69.909602
 11
66.563743
 21
-69.921278
  0
ARC
  8
ボルト／ビス
  6
CONTINUOUS
 62
    64
 10
66.611856
 20
-70.01458
 40
0.104978
 50
62.721967
 51
90.0
  0
ARC
  8
ボルト／ビス
  6
CONTINUOUS
 62
    64
 10
66.756194
 20
-70.312004
 40
0.402402
 50
76.165002
 51
103.834985
  0
LINE
  8
ボルト／ビス
  6
CONTINUOUS
 62
    64
 10
66.916568
 20
-69.909602
 11
66.948642
 21
-69.921278
  0
ARC
  8
ボルト／ビス
  6
CONTINUOUS
 62
    64
 10
66.900532
 20
-70.01458
 40
0.104978
 50
90.0
 51
117.278033
  0
LINE
  8
ボルト／ビス
  6
CONTINUOUS
 62
    64
 10
66.595817
 20
-69.909602
 11
66.916568
 21
-69.909602
  0
LINE
  8
ボルト／ビス
  6
CONTINUOUS
 62
    64
 10
66.948642
 20
-69.921278
 11
66.948642
 21
-70.042937
  0
LINE
  8
ボルト／ビス
  6
CONTINUOUS
 62
    64
 10
66.852418
 20
-69.921278
 11
66.852418
 21
-70.042937
  0
LINE
  8
ボルト／ビス
  6
CONTINUOUS
 62
    64
 10
66.563743
 20
-69.921278
 11
66.563743
 21
-70.042937
  0
LINE
  8
ボルト／ビス
  6
CONTINUOUS
 62
    64
 10
66.659967
 20
-69.921278
 11
66.659967
 21
-70.042937
  0
LINE
  8
ボルト／ビス
  6
CONTINUOUS
 10
66.563743
 20
-70.042937
 11
66.948642
 21
-70.042937
  0
LINE
  8
ボルト／ビス
  6
CONTINUOUS
 10
66.556192
 20
-70.042937
 11
66.556192
 21
-70.109602
  0
LINE
  8
ボルト／ビス
  6
CONTINUOUS
 10
66.556192
 20
-70.042937
 11
66.956193
 21
-70.042937
  0
LINE
  8
ボルト／ビス
  6
CONTINUOUS
 10
66.956193
 20
-70.042937
 11
66.956193
 21
-70.109602
  0
ENDBLK
  0
BLOCK
  2
*GRP_0036
 70
    65
 10
0.0
 20
0.0
  0
LINE
  8
ボルト／ビス
  6
DOT
 10
66.756192
 20
-62.87627
 11
66.756192
 21
-62.409605
  0
LINE
  8
ボルト／ビス
  6
DOT
 10
66.389528
 20
-62.87627
 11
66.389528
 21
-62.809605
  0
LINE
  8
ボルト／ビス
  6
DOT
 10
66.389528
 20
-62.809605
 11
67.12286
 21
-62.809605
  0
LINE
  8
ボルト／ビス
  6
DOT
 10
67.12286
 20
-62.809605
 11
67.12286
 21
-62.87627
  0
LINE
  8
ボルト／ビス
  6
DOT
 10
66.389528
 20
-62.87627
 11
67.12286
 21
-62.87627
  0
LINE
  8
ボルト／ビス
  6
DOT
 10
66.456193
 20
-62.77627
 11
66.456193
 21
-62.809605
  0
LINE
  8
ボルト／ビス
  6
DOT
 10
66.456193
 20
-62.77627
 11
67.056192
 21
-62.77627
  0
LINE
  8
ボルト／ビス
  6
DOT
 10
67.056192
 20
-62.77627
 11
67.056192
 21
-62.809605
  0
LINE
  8
ボルト／ビス
  6
DOT
 62
    64
 10
66.595817
 20
-62.57627
 11
66.563743
 21
-62.587945
  0
ARC
  8
ボルト／ビス
  6
DOT
 62
    64
 10
66.611856
 20
-62.681247
 40
0.104978
 50
62.721967
 51
90.0
  0
ARC
  8
ボルト／ビス
  6
DOT
 62
    64
 10
66.756194
 20
-62.978671
 40
0.402402
 50
76.165002
 51
103.834985
  0
LINE
  8
ボルト／ビス
  6
DOT
 62
    64
 10
66.916568
 20
-62.57627
 11
66.948642
 21
-62.587945
  0
ARC
  8
ボルト／ビス
  6
DOT
 62
    64
 10
66.900532
 20
-62.681247
 40
0.104978
 50
90.0
 51
117.278033
  0
LINE
  8
ボルト／ビス
  6
DOT
 62
    64
 10
66.595817
 20
-62.57627
 11
66.916568
 21
-62.57627
  0
LINE
  8
ボルト／ビス
  6
DOT
 62
    64
 10
66.948642
 20
-62.587945
 11
66.948642
 21
-62.709605
  0
LINE
  8
ボルト／ビス
  6
DOT
 62
    64
 10
66.852418
 20
-62.587945
 11
66.852418
 21
-62.709605
  0
LINE
  8
ボルト／ビス
  6
DOT
 62
    64
 10
66.563743
 20
-62.587945
 11
66.563743
 21
-62.709605
  0
LINE
  8
ボルト／ビス
  6
DOT
 62
    64
 10
66.659967
 20
-62.587945
 11
66.659967
 21
-62.709605
  0
LINE
  8
ボルト／ビス
  6
DOT
 10
66.563743
 20
-62.709605
 11
66.948642
 21
-62.709605
  0
LINE
  8
ボルト／ビス
  6
DOT
 10
66.556192
 20
-62.709605
 11
66.556192
 21
-62.77627
  0
LINE
  8
ボルト／ビス
  6
DOT
 10
66.556192
 20
-62.709605
 11
66.956193
 21
-62.709605
  0
LINE
  8
ボルト／ビス
  6
DOT
 10
66.956193
 20
-62.709605
 11
66.956193
 21
-62.77627
  0
ENDBLK
  0
BLOCK
  2
*GRP_0037
 70
    65
 10
0.0
 20
0.0
  0
LINE
  8
型材断面
  6
DOT
 10
-25.577142
 20
-63.926397
 11
-118.60396
 21
-63.926397
  0
LINE
  8
型材断面
  6
DOT
 10
-25.577142
 20
-65.076397
 11
-120.007145
 21
-65.076397
  0
LINE
  8
型材断面
  6
DOT
 10
-25.577142
 20
-66.243065
 11
-120.007145
 21
-66.243065
  0
LINE
  8
型材断面
  6
DOT
 10
-25.577142
 20
-63.926397
 11
67.449675
 21
-63.926397
  0
LINE
  8
型材断面
  6
DOT
 10
-25.577142
 20
-65.076397
 11
68.85286
 21
-65.076397
  0
LINE
  8
型材断面
  6
DOT
 10
-25.577142
 20
-66.243065
 11
68.85286
 21
-66.243065
  0
LINE
  8
別途部材
  6
DOT
 62
    96
 10
-118.910475
 20
-62.87628
 11
-119.310475
 21
-63.87628
  0
LINE
  8
別途部材
  6
DOT
 10
-119.310475
 20
-63.87628
 11
-25.57714
 21
-63.87628
  0
LINE
  8
別途部材
  6
DOT
 62
    96
 10
-118.910475
 20
-62.87628
 11
-25.57714
 21
-62.87628
  0
LINE
  8
別途部材
  6
DOT
 62
    96
 10
67.756192
 20
-62.87628
 11
68.156193
 21
-63.87628
  0
LINE
  8
別途部材
  6
DOT
 10
68.156193
 20
-63.87628
 11
-25.57714
 21
-63.87628
  0
LINE
  8
別途部材
  6
DOT
 62
    96
 10
67.756192
 20
-62.87628
 11
-25.57714
 21
-62.87628
  0
ARC
  8
別途部材
  6
DOT
 10
-107.243809
 20
-69.58461
 40
12.041668
 50
89.206941
 51
146.144967
  0
ARC
  8
別途部材
  6
DOT
 10
56.089528
 20
-69.58461
 40
12.041668
 50
33.855033
 51
90.793051
  0
LINE
  8
別途部材
  6
DOT
 10
-107.07714
 20
-57.542947
 11
-25.577142
 21
-57.542947
  0
LINE
  8
別途部材
  6
DOT
 10
55.92286
 20
-57.542947
 11
-25.577142
 21
-57.542947
  0
LINE
  8
鉄骨等
  6
DOT
 62
    47
 10
-120.007145
 20
-66.243065
 11
-120.007145
 21
-65.076397
  0
LINE
  8
鉄骨等
  6
DOT
 62
    47
 10
-120.007145
 20
-65.076397
 11
-118.60396
 21
-63.926397
  0
LINE
  8
鉄骨等
  6
DOT
 62
    47
 10
-118.60396
 20
-63.926397
 11
-118.60396
 21
-63.876278
  0
LINE
  8
鉄骨等
  6
DOT
 62
    47
 10
68.85286
 20
-66.243065
 11
68.85286
 21
-65.076397
  0
LINE
  8
鉄骨等
  6
DOT
 62
    47
 10
68.85286
 20
-65.076397
 11
67.449675
 21
-63.926397
  0
LINE
  8
鉄骨等
  6
DOT
 62
    47
 10
67.449675
 20
-63.926397
 11
67.449675
 21
-63.876278
  0
ENDBLK
  0
BLOCK
  2
*GRP_0038
 70
    65
 10
0.0
 20
0.0
  0
LINE
  8
ボルト／ビス
  6
CONTINUOUS
 10
-117.910477
 20
-70.209602
 11
-117.910477
 21
-69.742937
  0
LINE
  8
ボルト／ビス
  6
CONTINUOUS
 10
-117.543812
 20
-70.209602
 11
-117.543812
 21
-70.142937
  0
LINE
  8
ボルト／ビス
  6
CONTINUOUS
 10
-117.543812
 20
-70.142937
 11
-118.277145
 21
-70.142937
  0
LINE
  8
ボルト／ビス
  6
CONTINUOUS
 10
-118.277145
 20
-70.142937
 11
-118.277145
 21
-70.209602
  0
LINE
  8
ボルト／ビス
  6
CONTINUOUS
 10
-117.543812
 20
-70.209602
 11
-118.277145
 21
-70.209602
  0
LINE
  8
ボルト／ビス
  6
CONTINUOUS
 10
-117.610477
 20
-70.109602
 11
-117.610477
 21
-70.142937
  0
LINE
  8
ボルト／ビス
  6
CONTINUOUS
 10
-117.610477
 20
-70.109602
 11
-118.210477
 21
-70.109602
  0
LINE
  8
ボルト／ビス
  6
CONTINUOUS
 10
-118.210477
 20
-70.109602
 11
-118.210477
 21
-70.142937
  0
LINE
  8
ボルト／ビス
  6
CONTINUOUS
 62
    64
 10
-117.750102
 20
-69.909602
 11
-117.718027
 21
-69.921278
  0
ARC
  8
ボルト／ビス
  6
CONTINUOUS
 62
    64
 10
-117.766141
 20
-70.01458
 40
0.104978
 50
90.0
 51
117.278033
  0
ARC
  8
ボルト／ビス
  6
CONTINUOUS
 62
    64
 10
-117.910479
 20
-70.312004
 40
0.402402
 50
76.165015
 51
103.834998
  0
LINE
  8
ボルト／ビス
  6
CONTINUOUS
 62
    64
 10
-118.070853
 20
-69.909602
 11
-118.102927
 21
-69.921278
  0
ARC
  8
ボルト／ビス
  6
CONTINUOUS
 62
    64
 10
-118.054817
 20
-70.01458
 40
0.104978
 50
62.721967
 51
90.0
  0
LINE
  8
ボルト／ビス
  6
CONTINUOUS
 62
    64
 10
-117.750102
 20
-69.909602
 11
-118.070853
 21
-69.909602
  0
LINE
  8
ボルト／ビス
  6
CONTINUOUS
 62
    64
 10
-118.102927
 20
-69.921278
 11
-118.102927
 21
-70.042937
  0
LINE
  8
ボルト／ビス
  6
CONTINUOUS
 62
    64
 10
-118.006703
 20
-69.921278
 11
-118.006703
 21
-70.042937
  0
LINE
  8
ボルト／ビス
  6
CONTINUOUS
 62
    64
 10
-117.718027
 20
-69.921278
 11
-117.718027
 21
-70.042937
  0
LINE
  8
ボルト／ビス
  6
CONTINUOUS
 62
    64
 10
-117.814253
 20
-69.921278
 11
-117.814253
 21
-70.042937
  0
LINE
  8
ボルト／ビス
  6
CONTINUOUS
 10
-117.718027
 20
-70.042937
 11
-118.102927
 21
-70.042937
  0
LINE
  8
ボルト／ビス
  6
CONTINUOUS
 10
-117.710477
 20
-70.042937
 11
-117.710477
 21
-70.109602
  0
LINE
  8
ボルト／ビス
  6
CONTINUOUS
 10
-117.710477
 20
-70.042937
 11
-118.110477
 21
-70.042937
  0
LINE
  8
ボルト／ビス
  6
CONTINUOUS
 10
-118.110477
 20
-70.042937
 11
-118.110477
 21
-70.109602
  0
ENDBLK
  0
BLOCK
  2
*GRP_0039
 70
    65
 10
0.0
 20
0.0
  0
LINE
  8
ボルト／ビス
  6
DOT
 10
-117.910477
 20
-62.87627
 11
-117.910477
 21
-62.409605
  0
LINE
  8
ボルト／ビス
  6
DOT
 10
-117.543812
 20
-62.87627
 11
-117.543812
 21
-62.809605
  0
LINE
  8
ボルト／ビス
  6
DOT
 10
-117.543812
 20
-62.809605
 11
-118.277145
 21
-62.809605
  0
LINE
  8
ボルト／ビス
  6
DOT
 10
-118.277145
 20
-62.809605
 11
-118.277145
 21
-62.87627
  0
LINE
  8
ボルト／ビス
  6
DOT
 10
-117.543812
 20
-62.87627
 11
-118.277145
 21
-62.87627
  0
LINE
  8
ボルト／ビス
  6
DOT
 10
-117.610477
 20
-62.77627
 11
-117.610477
 21
-62.809605
  0
LINE
  8
ボルト／ビス
  6
DOT
 10
-117.610477
 20
-62.77627
 11
-118.210477
 21
-62.77627
  0
LINE
  8
ボルト／ビス
  6
DOT
 10
-118.210477
 20
-62.77627
 11
-118.210477
 21
-62.809605
  0
LINE
  8
ボルト／ビス
  6
DOT
 62
    64
 10
-117.750102
 20
-62.57627
 11
-117.718027
 21
-62.587945
  0
ARC
  8
ボルト／ビス
  6
DOT
 62
    64
 10
-117.766141
 20
-62.681247
 40
0.104978
 50
90.0
 51
117.278033
  0
ARC
  8
ボルト／ビス
  6
DOT
 62
    64
 10
-117.910479
 20
-62.978671
 40
0.402402
 50
76.165015
 51
103.834998
  0
LINE
  8
ボルト／ビス
  6
DOT
 62
    64
 10
-118.070853
 20
-62.57627
 11
-118.102927
 21
-62.587945
  0
ARC
  8
ボルト／ビス
  6
DOT
 62
    64
 10
-118.054817
 20
-62.681247
 40
0.104978
 50
62.721967
 51
90.0
  0
LINE
  8
ボルト／ビス
  6
DOT
 62
    64
 10
-117.750102
 20
-62.57627
 11
-118.070853
 21
-62.57627
  0
LINE
  8
ボルト／ビス
  6
DOT
 62
    64
 10
-118.102927
 20
-62.587945
 11
-118.102927
 21
-62.709605
  0
LINE
  8
ボルト／ビス
  6
DOT
 62
    64
 10
-118.006703
 20
-62.587945
 11
-118.006703
 21
-62.709605
  0
LINE
  8
ボルト／ビス
  6
DOT
 62
    64
 10
-117.718027
 20
-62.587945
 11
-117.718027
 21
-62.709605
  0
LINE
  8
ボルト／ビス
  6
DOT
 62
    64
 10
-117.814253
 20
-62.587945
 11
-117.814253
 21
-62.709605
  0
LINE
  8
ボルト／ビス
  6
DOT
 10
-117.718027
 20
-62.709605
 11
-118.102927
 21
-62.709605
  0
LINE
  8
ボルト／ビス
  6
DOT
 10
-117.710477
 20
-62.709605
 11
-117.710477
 21
-62.77627
  0
LINE
  8
ボルト／ビス
  6
DOT
 10
-117.710477
 20
-62.709605
 11
-118.110477
 21
-62.709605
  0
LINE
  8
ボルト／ビス
  6
DOT
 10
-118.110477
 20
-62.709605
 11
-118.110477
 21
-62.77627
  0
ENDBLK
  0
BLOCK
  2
*DIM_0040
 70
    65
 10
0.0
 20
0.0
  0
LINE
  8
寸法
  6
CONTINUOUS
 10
154.45344
 20
49.4807
 11
154.45344
 21
60.666798
  0
LINE
  8
寸法
  6
CONTINUOUS
 10
161.953448
 20
50.577365
 11
161.953448
 21
60.666798
  0
LINE
  8
寸法
  6
CONTINUOUS
 10
154.45344
 20
60.666798
 11
161.953448
 21
60.666798
  0
POINT
  8
寸法
 10
154.45344
 20
60.666798
  0
POINT
  8
寸法
 10
161.953448
 20
60.666798
  0
TEXT
  7
TextStyle03
  8
寸法
  6
CONTINUOUS
 10
155.7625
 20
61.025
  1
225
 40
3.0
 72
     5
 11
160.6375
 21
61.025
  0
ENDBLK
  0
BLOCK
  2
*DIM_0041
 70
    65
 10
0.0
 20
0.0
  0
LINE
  8
寸法
  6
CONTINUOUS
 10
72.756192
 20
-70.209613
 11
82.059175
 21
-70.209613
  0
LINE
  8
寸法
  6
CONTINUOUS
 10
73.85286
 20
-77.709615
 11
82.059175
 21
-77.709615
  0
LINE
  8
寸法
  6
CONTINUOUS
 10
82.059175
 20
-70.209613
 11
82.059175
 21
-77.709615
  0
POINT
  8
寸法
 10
82.059175
 20
-70.209613
  0
POINT
  8
寸法
 10
82.059175
 20
-77.709615
  0
TEXT
  7
TextStyle03
  8
寸法
  6
CONTINUOUS
 10
81.675
 20
-76.4125
  1
225
 40
3.0
 50
90.0
 72
     5
 11
81.675
 21
-71.5375
  0
ENDBLK
  0
BLOCK
  2
*DIM_0042
 70
    65
 10
0.0
 20
0.0
  0
LINE
  8
寸法
  6
BYBLOCK
 62
     0
 10
59.089525
 20
-57.542947
 11
82.059175
 21
-57.542947
  0
LINE
  8
寸法
  6
BYBLOCK
 62
     0
 10
82.059175
 20
-64.87628
 11
82.059175
 21
-57.542947
  0
POINT
  8
寸法
 62
     0
 10
82.059175
 20
-64.87628
  0
POINT
  8
寸法
 62
     0
 10
82.059175
 20
-57.542947
  0
TEXT
  7
TextStyle03
  8
寸法
  6
CONTINUOUS
 62
     0
 10
81.425
 20
-56.3125
  1
上昇高さ220
 40
3.0
 50
90.0
 72
     5
 11
81.425
 21
-37.9375
  0
ENDBLK
  0
BLOCK
  2
*DIM_0043
 70
    65
 10
0.0
 20
0.0
  0
LINE
  8
寸法
  6
BYBLOCK
 62
     0
 10
141.786775
 20
35.814033
 11
141.786775
 21
60.666798
  0
LINE
  8
寸法
  6
BYBLOCK
 62
     0
 10
149.120108
 20
60.666798
 11
141.786775
 21
60.666798
  0
POINT
  8
寸法
 62
     0
 10
149.120108
 20
60.666798
  0
POINT
  8
寸法
 62
     0
 10
141.786775
 20
60.666798
  0
TEXT
  7
TextStyle03
  8
寸法
  6
CONTINUOUS
 62
     0
 10
121.2625
 20
57.925
  1
上昇高さ220
 40
3.0
 72
     5
 11
139.6375
 21
57.925
  0
ENDBLK
  0
ENDSEC
  0
SECTION
  2
ENTITIES
  0
POLYLINE
  8
通り芯
  6
CONTINUOUS
 66
     1
 70
     1
  0
VERTEX
  8
通り芯
 10
-210.0
 20
-148.5
  0
VERTEX
  8
通り芯
 10
210.0
 20
-148.5
  0
VERTEX
  8
通り芯
 10
210.0
 20
148.5
  0
VERTEX
  8
通り芯
 10
-210.0
 20
148.5
  0
SEQEND
  0
INSERT
  2
*GRP_0001
  8
型材断面
  6
CONTINUOUS
 10
0.0
 20
0.0
  0
LINE
  8
型材断面
  6
DASHDOT
 10
66.089525
 20
-77.836442
 11
66.089525
 21
42.814033
  0
LINE
  8
型材断面
  6
DASHDOT
 10
-25.577142
 20
-77.836442
 11
-25.577142
 21
42.814033
  0
LINE
  8
型材断面
  6
DASHDOT
 10
-117.243808
 20
-77.836442
 11
-117.243808
 21
42.814033
  0
LINE
  8
型材断面
  6
DASHDOT
 10
163.766288
 20
22.814033
 11
-117.243808
 21
22.814033
  0
LINE
  8
型材断面
  6
DASHDOT
 10
163.766288
 20
32.814033
 11
-117.243808
 21
32.814033
  0
LINE
  8
型材断面
  6
DASHDOT
 10
163.766288
 20
42.814033
 11
-117.243808
 21
42.814033
  0
POLYLINE
  8
型材断面
  6
CONTINUOUS
 66
     1
 70
     1
  0
VERTEX
  8
型材断面
 10
-15.464005
 20
13.03811
  0
VERTEX
  8
型材断面
 10
-34.235935
 20
13.03811
  0
VERTEX
  8
型材断面
 10
-34.235935
 20
8.301267
  0
VERTEX
  8
型材断面
 10
-15.464005
 20
8.301267
  0
SEQEND
  0
POLYLINE
  8
型材断面
  6
CONTINUOUS
 66
     1
 70
     1
  0
VERTEX
  8
型材断面
 10
-15.464005
 20
52.589955
  0
VERTEX
  8
型材断面
 10
-34.235935
 20
52.589955
  0
VERTEX
  8
型材断面
 10
-34.235935
 20
57.326798
  0
VERTEX
  8
型材断面
 10
-15.464005
 20
57.326798
  0
SEQEND
  0
LINE
  8
型材断面
  6
CONTINUOUS
 10
-158.096015
 20
80.791505
 11
-157.49996
 21
78.200998
  0
LINE
  8
型材断面
  6
CONTINUOUS
 10
-158.096015
 20
80.791505
 11
-158.692072
 21
78.200998
  0
LINE
  8
型材断面
  6
CONTINUOUS
 10
-158.692072
 20
78.200998
 11
-157.49996
 21
78.200998
  0
LINE
  8
型材断面
  6
CONTINUOUS
 10
-164.118603
 20
74.922105
 11
-117.876825
 21
74.922105
  0
LINE
  8
型材断面
  6
CONTINUOUS
 10
-158.096015
 20
87.32138
 11
-159.591645
 21
84.730873
  0
LINE
  8
型材断面
  6
CONTINUOUS
 10
-158.096015
 20
87.32138
 11
-156.600385
 21
84.730873
  0
LINE
  8
型材断面
  6
CONTINUOUS
 10
-156.600385
 20
84.730873
 11
-159.591645
 21
84.730873
  0
LINE
  8
型材断面
  6
CONTINUOUS
 10
-164.118603
 20
83.792277
 11
-117.876825
 21
83.792277
  0
LINE
  8
型材断面
  6
CONTINUOUS
 10
-164.118603
 20
69.134073
 11
-117.876825
 21
69.134073
  0
INSERT
  2
*GRP_0009
  8
型材断面
  6
CONTINUOUS
 10
0.0
 20
0.0
  0
INSERT
  2
*GRP_0010
  8
型材断面
  6
CONTINUOUS
 10
0.0
 20
0.0
  0
INSERT
  2
*GRP_0011
  8
型材断面
  6
CONTINUOUS
 10
0.0
 20
0.0
  0
INSERT
  2
*GRP_0012
  8
型材断面
  6
CONTINUOUS
 10
0.0
 20
0.0
  0
LINE
  8
型材断面
  6
CONTINUOUS
 10
-164.118603
 20
63.34604
 11
-117.876825
 21
63.34604
  0
LINE
  8
型材断面
  6
CONTINUOUS
 10
155.503563
 20
32.814033
 11
155.503563
 21
21.453885
  0
LINE
  8
型材断面
  6
CONTINUOUS
 10
156.653563
 20
32.814033
 11
156.653563
 21
20.0507
  0
LINE
  8
型材断面
  6
CONTINUOUS
 10
157.82023
 20
32.814033
 11
157.82023
 21
20.0507
  0
LINE
  8
型材断面
  6
CONTINUOUS
 10
155.503563
 20
32.814033
 11
155.503563
 21
44.17418
  0
LINE
  8
型材断面
  6
CONTINUOUS
 10
156.653563
 20
32.814033
 11
156.653563
 21
45.577365
  0
LINE
  8
型材断面
  6
CONTINUOUS
 10
157.82023
 20
32.814033
 11
157.82023
 21
45.577365
  0
LINE
  8
型材断面
  6
CONTINUOUS
 10
-25.577142
 20
-71.25973
 11
-118.60396
 21
-71.25973
  0
LINE
  8
型材断面
  6
CONTINUOUS
 10
-25.577142
 20
-72.40973
 11
-120.007145
 21
-72.40973
  0
LINE
  8
型材断面
  6
CONTINUOUS
 10
-25.577142
 20
-73.576397
 11
-120.007145
 21
-73.576397
  0
LINE
  8
型材断面
  6
CONTINUOUS
 10
-25.577142
 20
-71.25973
 11
67.449675
 21
-71.25973
  0
LINE
  8
型材断面
  6
CONTINUOUS
 10
-25.577142
 20
-72.40973
 11
68.85286
 21
-72.40973
  0
LINE
  8
型材断面
  6
CONTINUOUS
 10
-25.577142
 20
-73.576397
 11
68.85286
 21
-73.576397
  0
LINE
  8
型材断面
  6
CONTINUOUS
 10
-119.310477
 20
44.8807
 11
-120.007145
 21
45.577365
  0
LINE
  8
型材断面
  6
CONTINUOUS
 10
-120.007145
 20
45.577365
 11
-120.007145
 21
20.0507
  0
LINE
  8
型材断面
  6
CONTINUOUS
 10
-119.310477
 20
20.747365
 11
-120.007145
 21
20.0507
  0
LINE
  8
型材断面
  6
CONTINUOUS
 10
-120.007145
 20
20.0507
 11
68.85286
 21
20.0507
  0
LINE
  8
型材断面
  6
CONTINUOUS
 10
68.156193
 20
20.747365
 11
68.85286
 21
20.0507
  0
LINE
  8
型材断面
  6
CONTINUOUS
 10
68.85286
 20
20.0507
 11
68.85286
 21
45.577365
  0
LINE
  8
型材断面
  6
CONTINUOUS
 10
-120.007145
 20
45.577365
 11
68.85286
 21
45.577365
  0
LINE
  8
型材断面
  6
CONTINUOUS
 10
68.156193
 20
44.8807
 11
68.85286
 21
45.577365
  0
LINE
  8
型材断面
  6
CONTINUOUS
 10
-120.007145
 20
32.814033
 11
-122.597653
 21
34.309663
  0
LINE
  8
型材断面
  6
CONTINUOUS
 10
-120.007145
 20
32.814033
 11
-122.597653
 21
31.318403
  0
LINE
  8
型材断面
  6
CONTINUOUS
 10
-122.597653
 20
31.318403
 11
-122.597653
 21
34.309663
  0
LINE
  8
型材断面
  6
CONTINUOUS
 10
-120.007147
 20
39.114035
 11
-122.597657
 21
38.517982
  0
LINE
  8
型材断面
  6
CONTINUOUS
 10
-120.007147
 20
39.114035
 11
-122.597655
 21
39.710095
  0
LINE
  8
型材断面
  6
CONTINUOUS
 10
-122.597655
 20
39.710095
 11
-122.597657
 21
38.517982
  0
LINE
  8
型材断面
  6
CONTINUOUS
 10
-120.007147
 20
26.51403
 11
-122.597657
 21
27.110082
  0
LINE
  8
型材断面
  6
CONTINUOUS
 10
-120.007147
 20
26.51403
 11
-122.597655
 21
25.91797
  0
LINE
  8
型材断面
  6
CONTINUOUS
 10
-122.597655
 20
25.91797
 11
-122.597657
 21
27.110082
  0
LINE
  8
型材断面
  6
CONTINUOUS
 10
-100.57714
 20
45.577365
 11
-102.07277
 21
48.167872
  0
LINE
  8
型材断面
  6
CONTINUOUS
 10
-100.57714
 20
45.577365
 11
-99.08151
 21
48.167872
  0
LINE
  8
型材断面
  6
CONTINUOUS
 10
-99.08151
 20
48.167872
 11
-102.07277
 21
48.167872
  0
LINE
  8
型材断面
  6
CONTINUOUS
 10
49.422855
 20
45.577365
 11
50.918485
 21
48.167872
  0
LINE
  8
型材断面
  6
CONTINUOUS
 10
49.422855
 20
45.577365
 11
47.927225
 21
48.167872
  0
LINE
  8
型材断面
  6
CONTINUOUS
 10
47.927225
 20
48.167872
 11
50.918485
 21
48.167872
  0
LINE
  8
型材断面
  6
CONTINUOUS
 10
-25.577142
 20
45.577362
 11
-27.072772
 21
48.16787
  0
LINE
  8
型材断面
  6
CONTINUOUS
 10
-25.577142
 20
45.577362
 11
-24.081513
 21
48.16787
  0
LINE
  8
型材断面
  6
CONTINUOUS
 10
-24.081513
 20
48.16787
 11
-27.072772
 21
48.16787
  0
LINE
  8
型材断面
  6
CONTINUOUS
 10
68.852863
 20
39.114035
 11
71.443373
 21
38.517982
  0
LINE
  8
型材断面
  6
CONTINUOUS
 10
68.852863
 20
39.114035
 11
71.44337
 21
39.710095
  0
LINE
  8
型材断面
  6
CONTINUOUS
 10
71.44337
 20
39.710095
 11
71.443373
 21
38.517982
  0
LINE
  8
型材断面
  6
CONTINUOUS
 10
68.852863
 20
26.51403
 11
71.443373
 21
27.110082
  0
LINE
  8
型材断面
  6
CONTINUOUS
 10
68.852863
 20
26.51403
 11
71.44337
 21
25.91797
  0
LINE
  8
型材断面
  6
CONTINUOUS
 10
71.44337
 20
25.91797
 11
71.443373
 21
27.110082
  0
LINE
  8
型材断面
  6
CONTINUOUS
 10
68.85286
 20
32.814033
 11
71.443368
 21
34.309663
  0
LINE
  8
型材断面
  6
CONTINUOUS
 10
68.85286
 20
32.814033
 11
71.443368
 21
31.318403
  0
LINE
  8
型材断面
  6
CONTINUOUS
 10
71.443368
 20
31.318403
 11
71.443368
 21
34.309663
  0
LINE
  8
型材断面
  6
CONTINUOUS
 10
-100.57714
 20
20.0507
 11
-102.07277
 21
17.460193
  0
LINE
  8
型材断面
  6
CONTINUOUS
 10
-100.57714
 20
20.0507
 11
-99.08151
 21
17.460193
  0
LINE
  8
型材断面
  6
CONTINUOUS
 10
-99.08151
 20
17.460193
 11
-102.07277
 21
17.460193
  0
LINE
  8
型材断面
  6
CONTINUOUS
 10
49.422855
 20
20.0507
 11
50.918485
 21
17.460193
  0
LINE
  8
型材断面
  6
CONTINUOUS
 10
49.422855
 20
20.0507
 11
47.927225
 21
17.460193
  0
LINE
  8
型材断面
  6
CONTINUOUS
 10
47.927225
 20
17.460193
 11
50.918485
 21
17.460193
  0
LINE
  8
型材断面
  6
CONTINUOUS
 10
-25.577142
 20
20.050698
 11
-27.072772
 21
17.46019
  0
LINE
  8
型材断面
  6
CONTINUOUS
 10
-25.577142
 20
20.050698
 11
-24.081513
 21
17.46019
  0
LINE
  8
型材断面
  6
CONTINUOUS
 10
-24.081513
 20
17.46019
 11
-27.072772
 21
17.46019
  0
LINE
  8
型材断面
  6
DOT
 10
-79.647142
 20
22.814033
 11
-79.647142
 21
42.814033
  0
LINE
  8
型材断面
  6
DASHDOT
 10
-80.897142
 20
22.814033
 11
-80.897142
 21
42.814033
  0
LINE
  8
型材断面
  6
DOT
 10
-82.147142
 20
22.814033
 11
-82.147142
 21
42.814033
  0
LINE
  8
型材断面
  6
DOT
 10
-42.767143
 20
22.814033
 11
-42.767143
 21
42.814033
  0
LINE
  8
型材断面
  6
DASHDOT
 10
-44.017143
 20
22.814033
 11
-44.017143
 21
42.814033
  0
LINE
  8
型材断面
  6
DOT
 10
-45.267143
 20
22.814033
 11
-45.267143
 21
42.814033
  0
LINE
  8
型材断面
  6
DOT
 10
28.492857
 20
22.814033
 11
28.492857
 21
42.814033
  0
LINE
  8
型材断面
  6
DASHDOT
 10
29.742857
 20
22.814033
 11
29.742857
 21
42.814033
  0
LINE
  8
型材断面
  6
DOT
 10
30.992857
 20
22.814033
 11
30.992857
 21
42.814033
  0
LINE
  8
型材断面
  6
DOT
 10
-8.387143
 20
22.814033
 11
-8.387143
 21
42.814033
  0
LINE
  8
型材断面
  6
DASHDOT
 10
-7.137143
 20
22.814033
 11
-7.137143
 21
42.814033
  0
LINE
  8
型材断面
  6
DOT
 10
-5.887143
 20
22.814033
 11
-5.887143
 21
42.814033
  0
LINE
  8
型材断面
  6
CONTINUOUS
 10
161.953448
 20
20.5507
 11
162.290113
 21
20.5507
  0
LINE
  8
型材断面
  6
CONTINUOUS
 10
161.953448
 20
20.0507
 11
161.953448
 21
20.5507
  0
LINE
  8
型材断面
  6
CONTINUOUS
 10
158.053565
 20
20.0507
 11
157.856942
 21
20.247325
  0
LINE
  8
型材断面
  6
CONTINUOUS
 10
158.053565
 20
20.0507
 11
161.953448
 21
20.0507
  0
LINE
  8
型材断面
  6
CONTINUOUS
 62
    47
 10
157.856942
 20
20.247325
 11
157.856942
 21
32.814033
  0
LINE
  8
型材断面
  6
CONTINUOUS
 10
158.053565
 20
20.0507
 11
158.053565
 21
32.814033
  0
LINE
  8
型材断面
  6
CONTINUOUS
 10
162.290113
 20
20.5507
 11
162.290113
 21
32.814033
  0
LINE
  8
型材断面
  6
CONTINUOUS
 10
161.953448
 20
20.0507
 11
161.953448
 21
32.814033
  0
LINE
  8
型材断面
  6
CONTINUOUS
 10
161.953448
 20
45.077365
 11
162.290113
 21
45.077365
  0
LINE
  8
型材断面
  6
CONTINUOUS
 10
161.953448
 20
45.577365
 11
161.953448
 21
45.077365
  0
LINE
  8
型材断面
  6
CONTINUOUS
 10
158.053565
 20
45.577365
 11
157.856942
 21
45.38074
  0
LINE
  8
型材断面
  6
CONTINUOUS
 10
158.053565
 20
45.577365
 11
161.953448
 21
45.577365
  0
LINE
  8
型材断面
  6
CONTINUOUS
 62
    47
 10
157.856942
 20
45.38074
 11
157.856942
 21
32.814033
  0
LINE
  8
型材断面
  6
CONTINUOUS
 10
158.053565
 20
45.577365
 11
158.053565
 21
32.814033
  0
LINE
  8
型材断面
  6
CONTINUOUS
 10
162.290113
 20
45.077365
 11
162.290113
 21
32.814033
  0
LINE
  8
型材断面
  6
CONTINUOUS
 10
161.953448
 20
45.577365
 11
161.953448
 21
32.814033
  0
LINE
  8
型材断面
  6
CONTINUOUS
 10
68.35286
 20
-77.709615
 11
68.35286
 21
-78.04628
  0
LINE
  8
型材断面
  6
CONTINUOUS
 10
68.85286
 20
-77.709615
 11
68.35286
 21
-77.709615
  0
LINE
  8
型材断面
  6
CONTINUOUS
 10
68.85286
 20
-73.809732
 11
68.656235
 21
-73.61311
  0
LINE
  8
型材断面
  6
CONTINUOUS
 10
68.85286
 20
-73.809732
 11
68.85286
 21
-77.709615
  0
LINE
  8
型材断面
  6
CONTINUOUS
 62
    47
 10
68.656235
 20
-73.61311
 11
-25.577142
 21
-73.61311
  0
LINE
  8
型材断面
  6
CONTINUOUS
 10
68.85286
 20
-73.809732
 11
-25.577142
 21
-73.809732
  0
LINE
  8
型材断面
  6
CONTINUOUS
 10
68.85286
 20
-77.709615
 11
-25.577142
 21
-77.709615
  0
LINE
  8
型材断面
  6
CONTINUOUS
 10
68.35286
 20
-78.04628
 11
-25.577142
 21
-78.04628
  0
LINE
  8
型材断面
  6
CONTINUOUS
 10
-119.507145
 20
-77.709615
 11
-119.507145
 21
-78.04628
  0
LINE
  8
型材断面
  6
CONTINUOUS
 10
-120.007145
 20
-77.709615
 11
-119.507145
 21
-77.709615
  0
LINE
  8
型材断面
  6
CONTINUOUS
 10
-120.007145
 20
-73.809732
 11
-119.81052
 21
-73.61311
  0
LINE
  8
型材断面
  6
CONTINUOUS
 10
-120.007145
 20
-73.809732
 11
-120.007145
 21
-77.709615
  0
LINE
  8
型材断面
  6
CONTINUOUS
 62
    47
 10
-119.81052
 20
-73.61311
 11
-25.577142
 21
-73.61311
  0
LINE
  8
型材断面
  6
CONTINUOUS
 10
-120.007145
 20
-73.809732
 11
-25.577142
 21
-73.809732
  0
LINE
  8
型材断面
  6
CONTINUOUS
 10
-120.007145
 20
-77.709615
 11
-25.577142
 21
-77.709615
  0
LINE
  8
型材断面
  6
CONTINUOUS
 10
-119.507145
 20
-78.04628
 11
-25.577142
 21
-78.04628
  0
TEXT
  7
TextStyle03
  8
文字
  6
CONTINUOUS
 10
-33.175
 20
9.325
  1
可動装置側
 40
3.0
 72
     5
 11
-16.675
 21
9.325
  0
TEXT
  7
TextStyle03
  8
文字
  6
CONTINUOUS
 10
-33.175
 20
53.3
  1
可動装置側
 40
3.0
 72
     5
 11
-16.675
 21
53.3
  0
TEXT
  7
TextStyle03
  8
文字
  6
CONTINUOUS
 10
-155.275
 20
79.425
  1
はケーシング位置を示す
 40
3.0
 72
     5
 11
-118.525
 21
79.425
  0
TEXT
  7
TextStyle03
  8
文字
  6
CONTINUOUS
 10
-155.275
 20
76.05
  1
４ヶ所中1ヶ所に設定
 40
3.0
 72
     5
 11
-123.5875
 21
76.05
  0
TEXT
  7
TextStyle03
  8
文字
  6
CONTINUOUS
 10
-155.275
 20
84.95
  1
は排水穴位置を示す
 40
3.0
 72
     5
 11
-125.275
 21
84.95
  0
TEXT
  7
TextStyle03
  8
文字
  6
CONTINUOUS
 10
-138.275
 20
11.275
  1
アンカーピッチ
 40
3.0
 50
90.0
 72
     5
 11
-138.275
 21
34.525
  0
TEXT
  7
TextStyle03
  8
文字
  6
CONTINUOUS
 10
-103.175
 20
79.225
  1
アンカーピッチ
 40
3.0
 72
     5
 11
-79.925
 21
79.225
  0
TEXT
  7
TextStyle03
  8
文字
  6
CONTINUOUS
 10
-159.0
 20
70.075
  1
アンカー数量　１８ヶ所
 40
3.0
 72
     5
 11
-122.25
 21
70.075
  0
TEXT
  7
TextStyle03
  8
文字
  6
CONTINUOUS
 10
-159.075
 20
64.3
  1
アームユニット数　４～６ヶ所
 40
3.0
 72
     5
 11
-112.2
 21
64.3
  0
TEXT
  7
TextStyle03
  8
文字
  6
CONTINUOUS
 10
-164.0
 20
59.35
  1
※重量に依るのでご相談ください
 40
3.0
 72
     5
 11
-113.75
 21
59.35
  0
LINE
  8
文字
  6
CONTINUOUS
 10
98.939825
 20
45.577365
 11
155.131775
 21
45.577365
  0
LINE
  8
文字
  6
CONTINUOUS
 10
98.939825
 20
20.0507
 11
155.131775
 21
20.0507
  0
LINE
  8
文字
  6
CONTINUOUS
 10
-120.007145
 20
-13.121378
 11
-120.007145
 21
-71.178265
  0
LINE
  8
文字
  6
CONTINUOUS
 10
68.85286
 20
-13.121378
 11
68.85286
 21
-71.211413
  0
TEXT
  7
TextStyle03
  8
文字
  6
CONTINUOUS
 10
136.675
 20
-69.275
  1
網入り6.8t
 40
3.0
 72
     5
 11
153.3625
 21
-69.275
  0
TEXT
  7
TextStyle03
  8
文字
  6
CONTINUOUS
 10
143.35
 20
-73.95
  1
×５枚
 40
3.0
 72
     5
 11
153.1
 21
-73.95
  0
TEXT
  7
TextStyle03
  8
文字
  6
CONTINUOUS
 10
78.1
 20
125.25
  1
シリーズ：ＴＤ１Ｌ
 40
5.0
 72
     5
 11
128.1
 21
125.25
  0
TEXT
  7
TextStyle03
  8
文字
  6
CONTINUOUS
 10
78.1
 20
119.625
  1
　　　　　（上下可動）600×5500タイプ
 40
5.0
 72
     5
 11
181.5375
 21
119.625
  0
TEXT
  7
TextStyle03
  8
文字
  6
CONTINUOUS
 10
78.1
 20
114.0
  1
図面名　：外観姿図
 40
5.0
 72
     5
 11
128.1
 21
114.0
  0
TEXT
  7
TextStyle03
  8
文字
  6
CONTINUOUS
 10
78.1
 20
108.375
  1
　　　　　　
 40
5.0
 72
     5
 11
111.225
 21
108.375
  0
TEXT
  7
TextStyle03
  8
文字
  6
CONTINUOUS
 10
77.5
 20
105.125
  1
ＮＳコード：ＮＳＤＬ
 40
5.0
 72
     5
 11
133.125
 21
105.125
  0
INSERT
  2
*DIM_0002
  8
寸法
  6
CONTINUOUS
 10
0.0
 20
0.0
  0
INSERT
  2
*DIM_0003
  8
寸法
  6
CONTINUOUS
 10
0.0
 20
0.0
  0
INSERT
  2
*DIM_0004
  8
寸法
  6
CONTINUOUS
 10
0.0
 20
0.0
  0
INSERT
  2
*DIM_0005
  8
寸法
  6
CONTINUOUS
 10
0.0
 20
0.0
  0
INSERT
  2
*DIM_0006
  8
寸法
  6
CONTINUOUS
 10
0.0
 20
0.0
  0
INSERT
  2
*DIM_0007
  8
寸法
  6
CONTINUOUS
 10
0.0
 20
0.0
  0
INSERT
  2
*DIM_0013
  8
寸法
  6
CONTINUOUS
 10
0.0
 20
0.0
  0
INSERT
  2
*DIM_0014
  8
寸法
  6
CONTINUOUS
 10
0.0
 20
0.0
  0
INSERT
  2
*DIM_0015
  8
寸法
  6
CONTINUOUS
 10
0.0
 20
0.0
  0
INSERT
  2
*DIM_0016
  8
寸法
  6
CONTINUOUS
 10
0.0
 20
0.0
  0
INSERT
  2
*DIM_0017
  8
寸法
  6
CONTINUOUS
 10
0.0
 20
0.0
  0
INSERT
  2
*DIM_0018
  8
寸法
  6
CONTINUOUS
 10
0.0
 20
0.0
  0
INSERT
  2
*DIM_0019
  8
寸法
  6
CONTINUOUS
 10
0.0
 20
0.0
  0
INSERT
  2
*DIM_0020
  8
寸法
  6
CONTINUOUS
 10
0.0
 20
0.0
  0
INSERT
  2
*DIM_0021
  8
寸法
  6
CONTINUOUS
 10
0.0
 20
0.0
  0
INSERT
  2
*DIM_0022
  8
寸法
  6
CONTINUOUS
 10
0.0
 20
0.0
  0
INSERT
  2
*DIM_0023
  8
寸法
  6
CONTINUOUS
 10
0.0
 20
0.0
  0
INSERT
  2
*DIM_0024
  8
寸法
  6
CONTINUOUS
 10
0.0
 20
0.0
  0
INSERT
  2
*DIM_0025
  8
寸法
  6
CONTINUOUS
 10
0.0
 20
0.0
  0
INSERT
  2
*DIM_0028
  8
寸法
  6
CONTINUOUS
 10
0.0
 20
0.0
  0
INSERT
  2
*DIM_0029
  8
寸法
  6
CONTINUOUS
 10
0.0
 20
0.0
  0
INSERT
  2
*DIM_0040
  8
寸法
  6
CONTINUOUS
 10
0.0
 20
0.0
  0
INSERT
  2
*DIM_0041
  8
寸法
  6
CONTINUOUS
 10
0.0
 20
0.0
  0
INSERT
  2
*DIM_0042
  8
寸法
  6
CONTINUOUS
 10
0.0
 20
0.0
  0
INSERT
  2
*DIM_0043
  8
寸法
  6
CONTINUOUS
 10
0.0
 20
0.0
  0
LINE
  8
別途部材
  6
CONTINUOUS
 10
68.156193
 20
20.747365
 11
67.756192
 21
21.147365
  0
LINE
  8
別途部材
  6
CONTINUOUS
 10
66.089525
 20
22.814033
 11
58.03027
 21
30.87329
  0
LINE
  8
別途部材
  6
CONTINUOUS
 10
67.756192
 20
21.147365
 11
67.756192
 21
32.814033
  0
LINE
  8
別途部材
  6
CONTINUOUS
 10
68.156193
 20
20.747365
 11
68.156193
 21
32.814033
  0
LINE
  8
別途部材
  6
CONTINUOUS
 10
68.156193
 20
44.8807
 11
67.756192
 21
44.4807
  0
LINE
  8
別途部材
  6
CONTINUOUS
 10
66.089525
 20
42.814033
 11
58.03027
 21
34.754775
  0
LINE
  8
別途部材
  6
CONTINUOUS
 10
67.756192
 20
44.4807
 11
67.756192
 21
32.814033
  0
LINE
  8
別途部材
  6
CONTINUOUS
 10
68.156193
 20
44.8807
 11
68.156193
 21
32.814033
  0
LINE
  8
別途部材
  6
CONTINUOUS
 10
67.756192
 20
44.4807
 11
-25.577142
 21
44.4807
  0
LINE
  8
別途部材
  6
CONTINUOUS
 10
68.156193
 20
44.8807
 11
-25.577142
 21
44.8807
  0
LINE
  8
別途部材
  6
CONTINUOUS
 10
67.756192
 20
21.147365
 11
-25.577142
 21
21.147365
  0
LINE
  8
別途部材
  6
CONTINUOUS
 10
68.156193
 20
20.747365
 11
-25.577142
 21
20.747365
  0
LINE
  8
別途部材
  6
CONTINUOUS
 10
-119.310477
 20
20.747365
 11
-118.910477
 21
21.147365
  0
LINE
  8
別途部材
  6
CONTINUOUS
 10
-117.24381
 20
22.814033
 11
-109.184555
 21
30.87329
  0
LINE
  8
別途部材
  6
CONTINUOUS
 10
-118.910477
 20
21.147365
 11
-118.910477
 21
32.814033
  0
LINE
  8
別途部材
  6
CONTINUOUS
 10
-119.310477
 20
20.747365
 11
-119.310477
 21
32.814033
  0
LINE
  8
別途部材
  6
CONTINUOUS
 10
-119.310477
 20
44.8807
 11
-118.910477
 21
44.4807
  0
LINE
  8
別途部材
  6
CONTINUOUS
 10
-117.24381
 20
42.814033
 11
-109.184555
 21
34.754775
  0
LINE
  8
別途部材
  6
CONTINUOUS
 10
-118.910477
 20
44.4807
 11
-118.910477
 21
32.814033
  0
LINE
  8
別途部材
  6
CONTINUOUS
 10
-119.310477
 20
44.8807
 11
-119.310477
 21
32.814033
  0
LINE
  8
別途部材
  6
CONTINUOUS
 10
-118.910477
 20
44.4807
 11
-25.577142
 21
44.4807
  0
LINE
  8
別途部材
  6
CONTINUOUS
 10
-119.310477
 20
44.8807
 11
-25.577142
 21
44.8807
  0
LINE
  8
別途部材
  6
CONTINUOUS
 10
-118.910477
 20
21.147365
 11
-25.577142
 21
21.147365
  0
LINE
  8
別途部材
  6
CONTINUOUS
 10
-119.310477
 20
20.747365
 11
-25.577142
 21
20.747365
  0
INSERT
  2
*GRP_0008
  8
別途部材
  6
CONTINUOUS
 10
0.0
 20
0.0
  0
LINE
  8
別途部材
  6
CONTINUOUS
 62
    96
 10
154.45344
 20
21.147365
 11
155.45344
 21
20.747365
  0
LINE
  8
別途部材
  6
CONTINUOUS
 62
    96
 10
154.45344
 20
21.147365
 11
154.45344
 21
32.814033
  0
LINE
  8
別途部材
  6
CONTINUOUS
 10
155.45344
 20
20.747365
 11
155.45344
 21
32.814033
  0
LINE
  8
別途部材
  6
CONTINUOUS
 62
    96
 10
154.45344
 20
44.4807
 11
155.45344
 21
44.8807
  0
LINE
  8
別途部材
  6
CONTINUOUS
 62
    96
 10
154.45344
 20
44.4807
 11
154.45344
 21
32.814033
  0
LINE
  8
別途部材
  6
CONTINUOUS
 10
155.45344
 20
44.8807
 11
155.45344
 21
32.814033
  0
ARC
  8
別途部材
  6
CONTINUOUS
 10
161.161775
 20
32.814033
 40
12.041667
 50
123.855033
 51
236.144967
  0
INSERT
  2
*GRP_0030
  8
別途部材
  6
DOT
 10
0.0
 20
0.0
  0
INSERT
  2
*GRP_0031
  8
別途部材
  6
DOT
 10
0.0
 20
0.0
  0
INSERT
  2
*GRP_0033
  8
別途部材
  6
DOT
 10
0.0
 20
0.0
  0
INSERT
  2
*GRP_0034
  8
別途部材
  6
DOT
 10
0.0
 20
0.0
  0
INSERT
  2
*GRP_0035
  8
別途部材
  6
DOT
 10
0.0
 20
0.0
  0
INSERT
  2
*GRP_0036
  8
別途部材
  6
DOT
 10
0.0
 20
0.0
  0
INSERT
  2
*GRP_0038
  8
別途部材
  6
DOT
 10
0.0
 20
0.0
  0
INSERT
  2
*GRP_0039
  8
別途部材
  6
DOT
 10
0.0
 20
0.0
  0
POLYLINE
  8
曲げ物
  6
CONTINUOUS
 66
     1
 70
     1
  0
VERTEX
  8
曲げ物
 10
156.310932
 20
-56.39817
  0
VERTEX
  8
曲げ物
 10
120.510932
 20
-56.39817
  0
VERTEX
  8
曲げ物
 10
120.510932
 20
-76.39817
  0
VERTEX
  8
曲げ物
 10
156.310932
 20
-76.39817
  0
SEQEND
  0
INSERT
  2
*GRP_0032
  8
曲げ物
  6
CONTINUOUS
 10
0.0
 20
0.0
  0
INSERT
  2
*GRP_0037
  8
曲げ物
  6
CONTINUOUS
 10
0.0
 20
0.0
  0
LINE
  8
鉄骨等
  6
CONTINUOUS
 62
    47
 10
157.82023
 20
20.0507
 11
156.653563
 21
20.0507
  0
LINE
  8
鉄骨等
  6
CONTINUOUS
 62
    47
 10
156.653563
 20
20.0507
 11
155.503563
 21
21.453885
  0
LINE
  8
鉄骨等
  6
CONTINUOUS
 62
    47
 10
155.503563
 20
21.453885
 11
155.453442
 21
21.453885
  0
LINE
  8
鉄骨等
  6
CONTINUOUS
 62
    47
 10
157.82023
 20
45.577365
 11
156.653563
 21
45.577365
  0
LINE
  8
鉄骨等
  6
CONTINUOUS
 62
    47
 10
156.653563
 20
45.577365
 11
155.503563
 21
44.17418
  0
LINE
  8
鉄骨等
  6
CONTINUOUS
 62
    47
 10
155.503563
 20
44.17418
 11
155.453442
 21
44.17418
  0
LINE
  8
鉄骨等
  6
CONTINUOUS
 62
    47
 10
-120.007145
 20
-73.576397
 11
-120.007145
 21
-72.40973
  0
LINE
  8
鉄骨等
  6
CONTINUOUS
 62
    47
 10
-120.007145
 20
-72.40973
 11
-118.60396
 21
-71.25973
  0
LINE
  8
鉄骨等
  6
CONTINUOUS
 62
    47
 10
-118.60396
 20
-71.25973
 11
-118.60396
 21
-71.20961
  0
LINE
  8
鉄骨等
  6
CONTINUOUS
 62
    47
 10
68.85286
 20
-73.576397
 11
68.85286
 21
-72.40973
  0
LINE
  8
鉄骨等
  6
CONTINUOUS
 62
    47
 10
68.85286
 20
-72.40973
 11
67.449675
 21
-71.25973
  0
LINE
  8
鉄骨等
  6
CONTINUOUS
 62
    47
 10
67.449675
 20
-71.25973
 11
67.449675
 21
-71.20961
  0
ENDSEC
  0
EOF
